  0
SECTION
  2
HEADER
  9
$CLAYER
  8
1
  9
$LTSCALE
 40
3.0
  0
ENDSEC
  0
SECTION
  2
TABLES
  0
TABLE
  2
LTYPE
 70
     4
  0
LTYPE
  2
CONTINUOUS
  3
solid line
 70
    64
 72
    65
 73
     0
 40
0.0
  0
LTYPE
  2
DASHED
  3
__ __ __ __ __ __ __ __ __ __ __ __ __ __ __
 70
    64
 72
    65
 73
     2
 40
0.75
 49
0.5
 49
-0.25
  0
LTYPE
  2
CENTER
  3
____ _ ____ _ ____ _ ____ _ ____ _ ____ _ ____
 70
    64
 72
    65
 73
     4
 40
2.0
 49
1.25
 49
-0.25
 49
0.25
 49
-0.25
  0
LTYPE
  2
PHANTOM
  3
_____ _ _ _____ _ _ _____ _ _ _____ _ _ ____
 70
    64
 72
    65
 73
     6
 40
2.5
 49
1.25
 49
-0.25
 49
0.25
 49
-0.25
 49
0.25
 49
-0.25
  0
ENDTAB
  0
TABLE
  2
LAYER
 70
     1
  0
LAYER
  2
0
 70
    64
 62
     7
  6
CONTINUOUS
  0
ENDTAB
  0
TABLE
  2
STYLE
 70
     1
  0
STYLE
  2
STANDARD
 70
     0
 40
0.000000
 41
1.000000
 50
0.000000
 71
     0
 42
3.000000
  3
txt
  4
BIGFONT
  0
ENDTAB
  0
ENDSEC
  0
SECTION
  2
BLOCKS
  0
ENDSEC
  0
SECTION
  2
ENTITIES
  0
LINE
  8
0
  6
CONTINUOUS
 10
508.986511
 20
130.963821
 11
508.986511
 21
44.963806
  0
LINE
  8
0
  6
CONTINUOUS
 10
618.986511
 20
132.963821
 11
499.986511
 21
132.963821
  0
LINE
  8
0
  6
CONTINUOUS
 10
618.986511
 20
42.963829
 11
499.986511
 21
42.963829
  0
LINE
  8
0
  6
CONTINUOUS
 10
618.986511
 20
122.373131
 11
510.024170
 21
122.373131
  0
LINE
  8
0
  6
CONTINUOUS
 10
618.986511
 20
53.554527
 11
510.024170
 21
53.554527
  0
ARC
  8
0
  6
CONTINUOUS
 10
506.986511
 20
130.963852
 40
2.000000
 50
0.000000
 51
90.000000
  0
ARC
  8
0
  6
CONTINUOUS
 10
506.986511
 20
44.963829
 40
2.000000
 50
-90.000000
 51
0.000000
  0
LINE
  8
0
  6
CENTER
 10
526.962158
 20
100.963829
 11
401.736511
 21
100.963829
  0
LINE
  8
0
  6
CONTINUOUS
 10
445.486511
 20
100.963829
 11
445.486511
 21
36.963730
  0
LINE
  8
0
  6
CONTINUOUS
 10
445.486511
 20
100.963829
 11
445.486511
 21
164.963928
  0
LINE
  8
0
  6
CONTINUOUS
 10
160.485504
 20
47.963829
 11
160.485504
 21
51.942547
  0
LINE
  8
0
  6
CONTINUOUS
 10
70.485497
 20
47.963829
 11
70.485497
 21
51.942490
  0
LINE
  8
0
  6
CONTINUOUS
 10
75.485497
 20
42.963829
 11
78.485497
 21
42.963829
  0
LINE
  8
0
  6
CONTINUOUS
 10
155.485504
 20
42.963829
 11
152.485504
 21
42.963829
  0
ARC
  8
0
  6
CONTINUOUS
 10
75.485497
 20
47.963829
 40
5.000000
 50
180.000000
 51
270.000000
  0
ARC
  8
0
  6
CONTINUOUS
 10
155.485504
 20
47.963829
 40
5.000000
 50
-90.000000
 51
0.000000
  0
ARC
  8
0
  6
CONTINUOUS
 10
156.497894
 20
59.951866
 40
8.000000
 50
306.780975
 51
358.958740
  0
ARC
  8
0
  6
CONTINUOUS
 10
74.473297
 20
59.951607
 40
8.000000
 50
181.041107
 51
233.216995
  0
ARC
  8
0
  6
CONTINUOUS
 10
162.485504
 20
51.942570
 40
2.000000
 50
126.781197
 51
180.000000
  0
ARC
  8
0
  6
CONTINUOUS
 10
68.485497
 20
51.942490
 40
2.000000
 50
0.000000
 51
53.217121
  0
LINE
  8
0
  6
CENTER
 10
115.485497
 20
-0.365012
 11
115.485497
 21
212.883148
  0
LINE
  8
0
  6
CENTER
 10
45.176750
 20
136.963821
 11
232.522507
 21
136.963821
  0
LINE
  8
0
  6
CONTINUOUS
 10
52.485500
 20
16.963827
 11
87.985497
 21
16.963827
  0
LINE
  8
0
  6
CONTINUOUS
 10
56.485500
 20
31.963827
 11
74.485497
 21
31.963827
  0
LINE
  8
0
  6
CONTINUOUS
 10
174.485504
 20
31.963827
 11
156.485504
 21
31.963827
  0
LINE
  8
0
  6
CONTINUOUS
 10
79.985497
 20
164.963821
 11
150.735504
 21
164.963821
  0
LINE
  8
0
  6
CONTINUOUS
 10
149.537903
 20
190.869705
 11
115.485497
 21
191.463821
  0
LINE
  8
0
  6
CONTINUOUS
 10
81.433098
 20
190.869308
 11
115.485497
 21
191.463821
  0
LINE
  8
0
  6
CONTINUOUS
 10
152.485504
 20
187.870163
 11
152.485504
 21
16.963808
  0
LINE
  8
0
  6
CONTINUOUS
 10
78.485497
 20
187.869766
 11
78.485497
 21
16.963827
  0
LINE
  8
0
  6
CONTINUOUS
 10
62.485500
 20
107.251564
 11
62.485500
 21
166.676071
  0
LINE
  8
0
  6
CONTINUOUS
 10
168.485504
 20
166.676086
 11
168.485504
 21
107.251564
  0
LINE
  8
0
  6
CONTINUOUS
 10
69.485497
 20
66.764252
 11
69.485497
 21
139.463821
  0
LINE
  8
0
  6
CONTINUOUS
 10
161.485504
 20
66.764252
 11
161.485504
 21
139.463821
  0
LINE
  8
0
  6
CONTINUOUS
 10
178.485504
 20
28.659765
 11
178.485504
 21
16.963827
  0
LINE
  8
0
  6
CONTINUOUS
 10
52.485500
 20
28.659765
 11
52.485500
 21
16.963827
  0
LINE
  8
0
  6
CENTER
 10
65.485497
 20
39.963829
 11
65.485497
 21
5.610428
  0
LINE
  8
0
  6
CENTER
 10
165.485504
 20
40.463829
 11
165.485504
 21
5.610428
  0
LINE
  8
0
  6
DASHED
 10
59.985500
 20
31.963827
 11
59.985500
 21
16.963827
  0
LINE
  8
0
  6
DASHED
 10
70.985497
 20
31.963827
 11
70.985497
 21
16.963827
  0
LINE
  8
0
  6
DASHED
 10
159.985504
 20
31.963827
 11
159.985504
 21
16.963827
  0
LINE
  8
0
  6
DASHED
 10
170.985504
 20
31.963827
 11
170.985504
 21
16.963827
  0
ARC
  8
0
  6
CONTINUOUS
 10
81.485497
 20
187.869781
 40
3.000000
 50
91.000526
 51
180.000000
  0
ARC
  8
0
  6
CONTINUOUS
 10
149.485504
 20
187.870148
 40
3.000000
 50
0.000000
 51
89.000580
  0
LINE
  8
0
  6
CONTINUOUS
 10
142.985504
 20
16.963827
 11
178.485504
 21
16.963827
  0
LINE
  8
0
  6
CONTINUOUS
 10
88.985497
 20
17.963827
 11
141.985504
 21
17.963827
  0
LINE
  8
0
  6
CONTINUOUS
 10
66.131699
 20
171.489349
 11
74.839104
 21
173.938309
  0
LINE
  8
0
  6
CONTINUOUS
 10
66.131699
 20
102.438309
 11
67.297699
 21
102.110374
  0
LINE
  8
0
  6
CONTINUOUS
 10
73.147301
 20
61.946667
 11
74.823700
 21
61.480988
  0
LINE
  8
0
  6
CONTINUOUS
 10
157.823700
 20
61.946667
 11
156.147293
 21
61.480988
  0
LINE
  8
0
  6
CONTINUOUS
 10
164.839096
 20
102.438309
 11
163.673294
 21
102.110382
  0
LINE
  8
0
  6
CONTINUOUS
 10
164.839096
 20
171.489349
 11
156.131897
 21
173.938309
  0
ARC
  8
0
  6
CONTINUOUS
 10
67.485497
 20
166.676102
 40
5.000000
 50
105.709000
 51
180.000000
  0
ARC
  8
0
  6
CONTINUOUS
 10
67.485497
 20
107.251602
 40
5.000000
 50
180.000000
 51
254.291702
  0
ARC
  8
0
  6
CONTINUOUS
 10
74.485497
 20
66.764290
 40
5.000000
 50
180.000000
 51
254.476196
  0
ARC
  8
0
  6
CONTINUOUS
 10
156.485504
 20
66.764252
 40
5.000000
 50
-74.475708
 51
0.000000
  0
ARC
  8
0
  6
CONTINUOUS
 10
163.485504
 20
107.251556
 40
5.000000
 50
-74.291199
 51
0.000000
  0
ARC
  8
0
  6
CONTINUOUS
 10
163.485504
 20
166.676071
 40
5.000000
 50
0.000000
 51
74.291527
  0
ARC
  8
0
  6
CONTINUOUS
 10
164.485504
 20
99.222450
 40
3.000000
 50
105.709000
 51
180.000000
  0
ARC
  8
0
  6
CONTINUOUS
 10
66.485497
 20
99.222420
 40
3.000000
 50
0.000000
 51
74.291397
  0
ARC
  8
0
  6
CONTINUOUS
 10
73.485497
 20
178.751572
 40
5.000000
 50
-74.291199
 51
0.000000
  0
ARC
  8
0
  6
CONTINUOUS
 10
157.485504
 20
178.751587
 40
5.000000
 50
180.000000
 51
254.291702
  0
ARC
  8
0
  6
CONTINUOUS
 10
157.485504
 20
56.663429
 40
5.000000
 50
105.524399
 51
180.000000
  0
ARC
  8
0
  6
CONTINUOUS
 10
73.485497
 20
56.663387
 40
5.000000
 50
0.000000
 51
74.475952
  0
LINE
  8
0
  6
CONTINUOUS
 10
142.985504
 20
16.963827
 11
141.985504
 21
17.963827
  0
LINE
  8
0
  6
CONTINUOUS
 10
87.985497
 20
16.963827
 11
88.985497
 21
17.963827
  0
LINE
  8
0
  6
CENTER
 10
38.586750
 20
100.963821
 11
195.006744
 21
100.963821
  0
LINE
  8
0
  6
CONTINUOUS
 10
215.485504
 20
122.963829
 11
215.485504
 21
150.963821
  0
LINE
  8
0
  6
CONTINUOUS
 10
170.485504
 20
150.963821
 11
215.485504
 21
150.963821
  0
LINE
  8
0
  6
CONTINUOUS
 10
170.485504
 20
122.963829
 11
215.485504
 21
122.963829
  0
LINE
  8
0
  6
CONTINUOUS
 10
170.485504
 20
151.963821
 11
170.485504
 21
121.963829
  0
LINE
  8
0
  6
CONTINUOUS
 10
168.485504
 20
121.963829
 11
170.485504
 21
121.963829
  0
ARC
  8
0
  6
CONTINUOUS
 10
179.485504
 20
136.963821
 40
4.000000
 50
90.000000
 51
270.000000
  0
LINE
  8
0
  6
CONTINUOUS
 10
179.485504
 20
140.963821
 11
215.485504
 21
140.963821
  0
LINE
  8
0
  6
CONTINUOUS
 10
179.485504
 20
132.963821
 11
215.485504
 21
132.963821
  0
LINE
  8
0
  6
CONTINUOUS
 10
168.485504
 20
151.963821
 11
170.485504
 21
151.963821
  0
LINE
  8
0
  6
CONTINUOUS
 10
451.986511
 20
164.963928
 11
445.486511
 21
164.963928
  0
LINE
  8
0
  6
CONTINUOUS
 10
451.986511
 20
36.963730
 11
445.486511
 21
36.963730
  0
LINE
  8
0
  6
CONTINUOUS
 10
499.986511
 20
132.963821
 11
453.986511
 21
134.570190
  0
LINE
  8
0
  6
CONTINUOUS
 10
445.486511
 20
41.060646
 11
499.986511
 21
42.963829
  0
ARC
  8
0
  6
CONTINUOUS
 10
451.986481
 20
162.963943
 40
2.000000
 50
0.000000
 51
90.000000
  0
ARC
  8
0
  6
CONTINUOUS
 10
451.986511
 20
38.963730
 40
2.000000
 50
-90.000000
 51
-0.260773
  0
LINE
  8
0
  6
CENTER
 10
689.212524
 20
87.963829
 11
401.736511
 21
87.963829
  0
LINE
  8
0
  6
CONTINUOUS
 10
499.986511
 20
132.963821
 11
499.986511
 21
42.963829
  0
LINE
  8
0
  6
CONTINUOUS
 10
454.718719
 20
140.731598
 11
460.433228
 21
135.017090
  0
LINE
  8
0
  6
CONTINUOUS
 10
423.223114
 20
329.804962
 11
304.080414
 21
329.804962
  0
ARC
  8
0
  6
CONTINUOUS
 10
304.080414
 20
332.804962
 40
3.000000
 50
181.000000
 51
270.000000
  0
LINE
  8
0
  6
CONTINUOUS
 10
317.992218
 20
324.451233
 11
317.101807
 21
327.617188
  0
ARC
  8
0
  6
CONTINUOUS
 10
314.213837
 20
326.804962
 40
3.000000
 50
15.708648
 51
90.000000
  0
ARC
  8
0
  6
CONTINUOUS
 10
431.408905
 20
312.578400
 40
3.000000
 50
181.500198
 51
257.801208
  0
LINE
  8
0
  6
CONTINUOUS
 10
428.409882
 20
312.499817
 11
428.053894
 21
326.094604
  0
ARC
  8
0
  6
CONTINUOUS
 10
430.141083
 20
306.713837
 40
3.000000
 50
15.000100
 51
77.801201
  0
LINE
  8
0
  6
CENTER
 10
691.117493
 20
366.804962
 11
285.082611
 21
366.804962
  0
LINE
  8
0
  6
CONTINUOUS
 10
411.971619
 20
429.804962
 11
362.986511
 21
429.804962
  0
LINE
  8
0
  6
CONTINUOUS
 10
300.486511
 20
366.804962
 11
301.132324
 21
329.804962
  0
LINE
  8
0
  6
CONTINUOUS
 10
309.296600
 20
307.112274
 11
301.132324
 21
329.804962
  0
ARC
  8
0
  6
CONTINUOUS
 10
314.001373
 20
308.804962
 40
5.000000
 50
199.787491
 51
270.000000
  0
LINE
  8
0
  6
CONTINUOUS
 10
300.486511
 20
366.804962
 11
301.132324
 21
403.804962
  0
LINE
  8
0
  6
CONTINUOUS
 10
309.296600
 20
426.497620
 11
301.132324
 21
403.804962
  0
ARC
  8
0
  6
CONTINUOUS
 10
314.001373
 20
424.804962
 40
5.000000
 50
90.000000
 51
160.212509
  0
LINE
  8
0
  6
CONTINUOUS
 10
423.223114
 20
329.804962
 11
304.080414
 21
329.804962
  0
LINE
  8
0
  6
CENTER
 10
362.986511
 20
445.923645
 11
362.986511
 21
255.698746
  0
ARC
  8
0
  6
CONTINUOUS
 10
304.080414
 20
332.804962
 40
3.000000
 50
181.000000
 51
270.000000
  0
ARC
  8
0
  6
CONTINUOUS
 10
304.080414
 20
400.804962
 40
3.000000
 50
90.000000
 51
179.000000
  0
LINE
  8
0
  6
CONTINUOUS
 10
423.149902
 20
403.804962
 11
304.080414
 21
403.804962
  0
LINE
  8
0
  6
CONTINUOUS
 10
333.274231
 20
313.804962
 11
392.698761
 21
313.804962
  0
LINE
  8
0
  6
CONTINUOUS
 10
328.460968
 20
317.451233
 11
327.517761
 21
320.804962
  0
ARC
  8
0
  6
CONTINUOUS
 10
333.274231
 20
318.804962
 40
5.000000
 50
195.708633
 51
270.000000
  0
LINE
  8
0
  6
CONTINUOUS
 10
327.517761
 20
320.804962
 11
322.805481
 21
320.804962
  0
ARC
  8
0
  6
CONTINUOUS
 10
322.805481
 20
325.804962
 40
5.000000
 50
195.708633
 51
270.000000
  0
LINE
  8
0
  6
CONTINUOUS
 10
397.512024
 20
317.451233
 11
398.455261
 21
320.804962
  0
ARC
  8
0
  6
CONTINUOUS
 10
392.698761
 20
318.804962
 40
5.000000
 50
270.000000
 51
344.291351
  0
LINE
  8
0
  6
CONTINUOUS
 10
398.455261
 20
320.804962
 11
403.167511
 21
320.804962
  0
LINE
  8
0
  6
CONTINUOUS
 10
407.980774
 20
324.451233
 11
408.871185
 21
327.617188
  0
ARC
  8
0
  6
CONTINUOUS
 10
403.167511
 20
325.804962
 40
5.000000
 50
270.000000
 51
344.291351
  0
ARC
  8
0
  6
CONTINUOUS
 10
411.759155
 20
326.804962
 40
3.000000
 50
90.000000
 51
164.291367
  0
LINE
  8
0
  6
CONTINUOUS
 10
333.274231
 20
419.804962
 11
392.698761
 21
419.804962
  0
LINE
  8
0
  6
CONTINUOUS
 10
328.460968
 20
416.158691
 11
327.517761
 21
412.804962
  0
ARC
  8
0
  6
CONTINUOUS
 10
333.274231
 20
414.804962
 40
5.000000
 50
90.000000
 51
164.291367
  0
LINE
  8
0
  6
CONTINUOUS
 10
327.517761
 20
412.804962
 11
322.805481
 21
412.804962
  0
LINE
  8
0
  6
CONTINUOUS
 10
317.992218
 20
409.158691
 11
317.101807
 21
405.992706
  0
ARC
  8
0
  6
CONTINUOUS
 10
322.805481
 20
407.804962
 40
5.000000
 50
90.000000
 51
164.291367
  0
ARC
  8
0
  6
CONTINUOUS
 10
314.213837
 20
406.804962
 40
3.000000
 50
-90.000000
 51
-15.708638
  0
LINE
  8
0
  6
CONTINUOUS
 10
397.512024
 20
416.158691
 11
398.455261
 21
412.804962
  0
ARC
  8
0
  6
CONTINUOUS
 10
392.698761
 20
414.804962
 40
5.000000
 50
15.708638
 51
90.000000
  0
LINE
  8
0
  6
CONTINUOUS
 10
398.455261
 20
412.804962
 11
403.167511
 21
412.804962
  0
LINE
  8
0
  6
CONTINUOUS
 10
407.980774
 20
409.158691
 11
408.871185
 21
405.992706
  0
ARC
  8
0
  6
CONTINUOUS
 10
403.167511
 20
407.804962
 40
5.000000
 50
15.708638
 51
90.000000
  0
ARC
  8
0
  6
CONTINUOUS
 10
411.759155
 20
406.804962
 40
3.000000
 50
195.708633
 51
270.000000
  0
LINE
  8
0
  6
CONTINUOUS
 10
416.676392
 20
307.112274
 11
424.754242
 21
329.564758
  0
ARC
  8
0
  6
CONTINUOUS
 10
411.971619
 20
308.804962
 40
5.000000
 50
270.000000
 51
340.212524
  0
LINE
  8
0
  6
CONTINUOUS
 10
416.676392
 20
426.497620
 11
424.738403
 21
404.089203
  0
ARC
  8
0
  6
CONTINUOUS
 10
411.971619
 20
424.804962
 40
5.000000
 50
19.787489
 51
90.000000
  0
LINE
  8
0
  6
CONTINUOUS
 10
411.971619
 20
303.804962
 11
376.986511
 21
303.804962
  0
LINE
  8
0
  6
CENTER
 10
322.986511
 20
305.691681
 11
322.986511
 21
325.133087
  0
LINE
  8
0
  6
CENTER
 10
332.897369
 20
316.804962
 11
314.378815
 21
316.804962
  0
ARC
  8
0
  6
CONTINUOUS
 10
322.986511
 20
316.804962
 40
5.500000
 50
-239.465683
 51
7.598493
  0
ARC
  8
0
  6
CONTINUOUS
 10
402.986511
 20
316.804962
 40
5.500000
 50
-187.598602
 51
59.465683
  0
LINE
  8
0
  6
CENTER
 10
402.986511
 20
305.691681
 11
402.986511
 21
325.133087
  0
LINE
  8
0
  6
CENTER
 10
393.075623
 20
316.804962
 11
411.594177
 21
316.804962
  0
ARC
  8
0
  6
CONTINUOUS
 10
402.986511
 20
416.804962
 40
5.500000
 50
-59.465683
 51
187.598602
  0
LINE
  8
0
  6
CENTER
 10
393.075623
 20
416.804962
 11
411.594177
 21
416.804962
  0
LINE
  8
0
  6
CENTER
 10
402.986511
 20
427.918243
 11
402.986511
 21
408.476837
  0
LINE
  8
0
  6
CENTER
 10
322.986511
 20
427.918243
 11
322.986511
 21
408.476837
  0
LINE
  8
0
  6
CENTER
 10
332.897369
 20
416.804962
 11
314.378815
 21
416.804962
  0
ARC
  8
0
  6
CONTINUOUS
 10
322.986511
 20
416.804962
 40
5.500000
 50
-7.598608
 51
239.465683
  0
LINE
  8
0
  6
CONTINUOUS
 10
338.986511
 20
400.804962
 11
338.986511
 21
332.804962
  0
LINE
  8
0
  6
CONTINUOUS
 10
386.986511
 20
400.804962
 11
386.986511
 21
332.804962
  0
LINE
  8
0
  6
CONTINUOUS
 10
427.906189
 20
407.510864
 11
433.154816
 21
427.099030
  0
LINE
  8
0
  6
CONTINUOUS
 10
428.409882
 20
421.656982
 11
428.053894
 21
408.062195
  0
ARC
  8
0
  6
CONTINUOUS
 10
431.408905
 20
421.578400
 40
3.000000
 50
102.198799
 51
178.499802
  0
ARC
  8
0
  6
CONTINUOUS
 10
430.141083
 20
427.442993
 40
3.000000
 50
282.198792
 51
345.000031
  0
ARC
  8
0
  6
CONTINUOUS
 10
431.408905
 20
312.578400
 40
3.000000
 50
181.500198
 51
257.801208
  0
LINE
  8
0
  6
CONTINUOUS
 10
428.409882
 20
312.499817
 11
428.053894
 21
326.094604
  0
ARC
  8
0
  6
CONTINUOUS
 10
430.141083
 20
306.713837
 40
3.000000
 50
15.000100
 51
77.801201
  0
LINE
  8
0
  6
CONTINUOUS
 10
438.057709
 20
302.804962
 11
445.486511
 21
302.804962
  0
LINE
  8
0
  6
CONTINUOUS
 10
433.301331
 20
306.510864
 11
427.979492
 21
326.372437
  0
ARC
  8
0
  6
CONTINUOUS
 10
423.076569
 20
408.804962
 40
5.000000
 50
270.000000
 51
345.000031
  0
ARC
  8
0
  6
CONTINUOUS
 10
423.223114
 20
324.804962
 40
5.000000
 50
14.999843
 51
90.000000
  0
LINE
  8
0
  6
CONTINUOUS
 10
345.986511
 20
266.804962
 11
376.986511
 21
266.804962
  0
LINE
  8
0
  6
CONTINUOUS
 10
376.986511
 20
311.804962
 11
376.986511
 21
266.804962
  0
LINE
  8
0
  6
CONTINUOUS
 10
348.986511
 20
311.804962
 11
348.986511
 21
306.804962
  0
LINE
  8
0
  6
CONTINUOUS
 10
377.986511
 20
311.804962
 11
347.986511
 21
311.804962
  0
LINE
  8
0
  6
CONTINUOUS
 10
347.986511
 20
313.804962
 11
347.986511
 21
311.804962
  0
LINE
  8
0
  6
CONTINUOUS
 10
377.986511
 20
313.804962
 11
377.986511
 21
311.804962
  0
LINE
  8
0
  6
CONTINUOUS
 10
345.986511
 20
303.804962
 11
314.001373
 21
303.804962
  0
LINE
  8
0
  6
CONTINUOUS
 10
349.570068
 20
306.804962
 11
345.986511
 21
306.804962
  0
LINE
  8
0
  6
CONTINUOUS
 10
349.570068
 20
306.804962
 11
349.570068
 21
266.804962
  0
LINE
  8
0
  6
CONTINUOUS
 10
345.986511
 20
266.804962
 11
345.986511
 21
306.804962
  0
LINE
  8
0
  6
CONTINUOUS
 10
362.986511
 20
429.804962
 11
314.001373
 21
429.804962
  0
LINE
  8
0
  6
CONTINUOUS
 10
445.486511
 20
430.804962
 11
437.984467
 21
430.804962
  0
ARC
  8
0
  6
CONTINUOUS
 10
437.984467
 20
425.804962
 40
5.000000
 50
90.000000
 51
165.000031
  0
ARC
  8
0
  6
CONTINUOUS
 10
438.130951
 20
307.804962
 40
5.000000
 50
194.999847
 51
270.000000
  0
LINE
  8
0
  6
CONTINUOUS
 10
425.486511
 20
366.804962
 11
424.892120
 21
332.752594
  0
LINE
  8
0
  6
CONTINUOUS
 10
425.486511
 20
366.804962
 11
424.892120
 21
400.857300
  0
ARC
  8
0
  6
CONTINUOUS
 10
421.892578
 20
332.804962
 40
3.000000
 50
270.000000
 51
359.000000
  0
ARC
  8
0
  6
CONTINUOUS
 10
421.892578
 20
400.804962
 40
3.000000
 50
1.000000
 51
90.000000
  0
LINE
  8
0
  6
CONTINUOUS
 10
55.730110
 20
32.587803
 11
75.240891
 21
36.339867
  0
ARC
  8
0
  6
CONTINUOUS
 10
115.485497
 20
100.963829
 40
64.000099
 50
-54.681290
 51
20.105476
  0
ARC
  8
0
  6
CONTINUOUS
 10
115.485497
 20
100.963829
 40
64.000099
 50
145.906479
 51
234.681290
  0
ARC
  8
0
  6
CONTINUOUS
 10
56.485500
 20
27.963827
 40
4.000000
 50
90.000000
 51
180.000000
  0
ARC
  8
0
  6
CONTINUOUS
 10
56.485500
 20
28.659765
 40
4.000000
 50
100.885529
 51
180.000000
  0
ARC
  8
0
  6
CONTINUOUS
 10
74.485497
 20
40.267891
 40
4.000000
 50
-79.114502
 51
0.000000
  0
ARC
  8
0
  6
CONTINUOUS
 10
74.485497
 20
35.963829
 40
4.000000
 50
-90.000000
 51
0.000000
  0
LINE
  8
0
  6
CONTINUOUS
 10
175.240891
 20
32.587803
 11
155.730118
 21
36.339867
  0
ARC
  8
0
  6
CONTINUOUS
 10
174.485504
 20
27.963827
 40
4.000000
 50
0.000000
 51
90.000000
  0
ARC
  8
0
  6
CONTINUOUS
 10
174.485504
 20
28.659765
 40
4.000000
 50
0.000000
 51
79.114471
  0
ARC
  8
0
  6
CONTINUOUS
 10
156.485504
 20
40.267891
 40
4.000000
 50
180.000000
 51
259.114502
  0
ARC
  8
0
  6
CONTINUOUS
 10
156.485504
 20
35.963829
 40
4.000000
 50
180.000000
 51
270.000000
  0
LINE
  8
0
  6
CONTINUOUS
 10
445.486511
 20
302.804962
 11
445.486511
 21
430.804962
  0
LINE
  8
0
  6
CONTINUOUS
 10
499.986511
 20
67.457825
 11
455.986511
 21
67.457825
  0
LINE
  8
0
  6
CONTINUOUS
 10
499.986511
 20
52.444828
 11
445.486511
 21
52.444828
  0
LINE
  8
0
  6
CONTINUOUS
 10
453.418518
 20
60.396828
 11
445.486511
 21
60.396828
  0
LINE
  8
0
  6
CONTINUOUS
 10
453.986511
 20
61.611561
 11
453.986511
 21
162.963943
  0
ARC
  8
0
  6
CONTINUOUS
 10
456.486450
 20
38.943249
 40
2.500000
 50
92.000000
 51
179.739227
  0
ARC
  8
0
  6
CONTINUOUS
 10
456.486511
 20
142.499359
 40
2.500000
 50
180.000000
 51
225.000000
  0
ARC
  8
0
  6
CONTINUOUS
 10
462.201019
 20
136.784851
 40
2.500000
 50
-135.000000
 51
-92.000000
  0
LINE
  8
0
  6
CONTINUOUS
 10
453.986511
 20
428.804962
 11
453.986511
 21
304.804962
  0
LINE
  8
0
  6
CONTINUOUS
 10
499.986511
 20
321.804962
 11
456.422882
 21
320.283661
  0
LINE
  8
0
  6
CONTINUOUS
 10
499.986511
 20
411.804962
 11
456.422882
 21
413.326233
  0
LINE
  8
0
  6
CONTINUOUS
 10
499.986511
 20
317.792938
 11
499.986511
 21
415.816956
  0
LINE
  8
0
  6
CONTINUOUS
 10
451.986511
 20
302.804962
 11
445.486511
 21
302.804962
  0
LINE
  8
0
  6
CONTINUOUS
 10
451.986511
 20
430.804962
 11
445.486511
 21
430.804962
  0
LINE
  8
0
  6
CONTINUOUS
 10
461.129486
 20
342.804962
 11
454.014526
 21
342.804962
  0
LINE
  8
0
  6
CONTINUOUS
 10
460.524353
 20
390.804962
 11
454.014526
 21
390.804962
  0
LINE
  8
0
  6
CONTINUOUS
 10
461.129486
 20
345.009460
 11
461.129486
 21
388.722046
  0
LINE
  8
0
  6
CONTINUOUS
 10
508.986511
 20
323.804962
 11
508.986511
 21
337.804962
  0
LINE
  8
0
  6
CONTINUOUS
 10
618.986511
 20
321.804962
 11
499.986511
 21
321.804962
  0
LINE
  8
0
  6
CONTINUOUS
 10
618.986511
 20
411.804962
 11
499.986511
 21
411.804962
  0
LINE
  8
0
  6
CONTINUOUS
 10
618.986511
 20
337.804962
 11
508.986511
 21
337.804962
  0
LINE
  8
0
  6
CONTINUOUS
 10
618.986511
 20
395.804962
 11
508.986511
 21
395.804962
  0
ARC
  8
0
  6
CONTINUOUS
 10
506.986511
 20
323.804932
 40
2.000000
 50
-90.000000
 51
0.000000
  0
ARC
  8
0
  6
CONTINUOUS
 10
506.986511
 20
409.804962
 40
2.000000
 50
0.000000
 51
90.000000
  0
LINE
  8
0
  6
CONTINUOUS
 10
499.986511
 20
321.804962
 11
499.986511
 21
411.804962
  0
ARC
  8
0
  6
CONTINUOUS
 10
451.986511
 20
304.804962
 40
2.000000
 50
-90.000000
 51
0.000000
  0
ARC
  8
0
  6
CONTINUOUS
 10
451.986511
 20
428.804962
 40
2.000000
 50
0.000000
 51
90.000000
  0
ARC
  8
0
  6
CONTINUOUS
 10
456.510132
 20
317.785187
 40
2.500000
 50
92.000000
 51
179.895706
  0
ARC
  8
0
  6
CONTINUOUS
 10
456.510132
 20
415.824707
 40
2.500000
 50
180.104294
 51
268.000000
  0
LINE
  8
0
  6
CONTINUOUS
 10
453.986511
 20
320.198608
 11
454.014526
 21
320.199585
  0
LINE
  8
0
  6
CONTINUOUS
 10
499.486786
 20
317.275513
 11
453.986511
 21
315.686584
  0
LINE
  8
0
  6
CONTINUOUS
 10
499.986511
 20
317.792938
 11
499.486786
 21
317.275513
  0
LINE
  8
0
  6
CONTINUOUS
 10
499.486786
 20
416.334412
 11
453.986511
 21
417.923309
  0
LINE
  8
0
  6
CONTINUOUS
 10
499.986511
 20
415.816956
 11
499.486786
 21
416.334412
  0
LINE
  8
0
  6
CONTINUOUS
 10
300.486511
 20
162.335449
 11
300.486511
 21
16.963827
  0
LINE
  8
0
  6
CONTINUOUS
 10
425.486511
 20
16.963827
 11
300.486511
 21
16.963827
  0
LINE
  8
0
  6
CENTER
 10
405.918854
 20
136.963821
 11
320.946503
 21
136.963821
  0
LINE
  8
0
  6
CENTER
 10
362.986511
 20
208.463791
 11
362.986511
 21
6.213828
  0
LINE
  8
0
  6
CONTINUOUS
 10
385.432098
 20
191.463791
 11
340.540894
 21
191.463791
  0
LINE
  8
0
  6
CONTINUOUS
 10
337.706085
 20
190.582489
 11
302.651703
 21
166.454071
  0
LINE
  8
0
  6
CONTINUOUS
 10
422.486511
 20
31.963827
 11
303.486511
 21
31.963827
  0
LINE
  8
0
  6
CONTINUOUS
 10
310.486511
 20
30.426331
 11
310.486511
 21
16.963827
  0
LINE
  8
0
  6
CONTINUOUS
 10
414.486511
 20
30.426331
 11
414.486511
 21
16.963827
  0
LINE
  8
0
  6
CENTER
 10
322.986511
 20
39.213829
 11
322.986511
 21
10.213828
  0
LINE
  8
0
  6
CENTER
 10
402.986511
 20
39.213829
 11
402.986511
 21
11.463828
  0
LINE
  8
0
  6
DASHED
 10
317.486511
 20
31.963827
 11
317.486511
 21
16.963827
  0
LINE
  8
0
  6
DASHED
 10
328.486511
 20
31.963827
 11
328.486511
 21
16.963827
  0
LINE
  8
0
  6
DASHED
 10
397.486511
 20
31.963827
 11
397.486511
 21
16.963827
  0
LINE
  8
0
  6
DASHED
 10
408.486511
 20
31.963827
 11
408.486511
 21
16.963827
  0
ARC
  8
0
  6
CONTINUOUS
 10
382.986511
 20
86.963829
 40
26.500000
 50
-90.000000
 51
9.470901
  0
ARC
  8
0
  6
CONTINUOUS
 10
342.986511
 20
86.963829
 40
26.500000
 50
170.529099
 51
270.000000
  0
LINE
  8
0
  6
CONTINUOUS
 10
409.125305
 20
91.324303
 11
400.468506
 21
143.216553
  0
LINE
  8
0
  6
CONTINUOUS
 10
325.504486
 20
143.216675
 11
316.847687
 21
91.324333
  0
LINE
  8
0
  6
CONTINUOUS
 10
382.986511
 20
60.463829
 11
342.986511
 21
60.463829
  0
ARC
  8
0
  6
CONTINUOUS
 10
305.486511
 20
162.335388
 40
5.000000
 50
124.539902
 51
180.000000
  0
ARC
  8
0
  6
CONTINUOUS
 10
340.540894
 20
186.463791
 40
5.000000
 50
90.000000
 51
124.539902
  0
ARC
  8
0
  6
CONTINUOUS
 10
385.398102
 20
186.463791
 40
5.000000
 50
88.961128
 51
90.000000
  0
LINE
  8
0
  6
CONTINUOUS
 10
425.486511
 20
16.963827
 11
425.486511
 21
49.363850
  0
ARC
  8
0
  6
CONTINUOUS
 10
382.986511
 20
86.963829
 40
24.000000
 50
-90.000000
 51
9.470790
  0
ARC
  8
0
  6
CONTINUOUS
 10
342.986511
 20
86.963829
 40
24.000000
 50
170.528992
 51
271.534393
  0
LINE
  8
0
  6
CONTINUOUS
 10
382.986511
 20
62.963829
 11
342.986511
 21
62.963829
  0
CIRCLE
  8
0
  6
CONTINUOUS
 10
362.986511
 20
136.963821
 40
33.500000
  0
ARC
  8
0
  6
CONTINUOUS
 10
362.986511
 20
136.963821
 40
38.000000
 50
9.471016
 51
170.529007
  0
ARC
  8
0
  6
CONTINUOUS
 10
362.986511
 20
136.963821
 40
35.500000
 50
-189.597305
 51
7.618591
  0
LINE
  8
0
  6
CONTINUOUS
 10
406.659302
 20
90.912926
 11
398.002686
 21
142.805222
  0
LINE
  8
0
  6
CONTINUOUS
 10
327.970490
 20
142.805267
 11
319.313690
 21
90.912979
  0
LINE
  8
0
  6
CONTINUOUS
 10
427.040863
 20
164.963928
 11
445.486511
 21
164.963928
  0
LINE
  8
0
  6
CONTINUOUS
 10
445.486511
 20
36.963730
 11
430.486511
 21
36.963730
  0
LINE
  8
0
  6
CONTINUOUS
 10
424.205933
 20
165.845276
 11
388.266907
 21
190.582443
  0
ARC
  8
0
  6
CONTINUOUS
 10
385.432098
 20
186.463791
 40
5.000000
 50
55.459671
 51
90.000000
  0
ARC
  8
0
  6
CONTINUOUS
 10
420.486511
 20
162.335434
 40
5.000000
 50
0.000000
 51
55.459560
  0
ARC
  8
0
  6
CONTINUOUS
 10
430.486511
 20
31.963713
 40
5.000000
 50
90.000000
 51
180.000000
  0
ARC
  8
0
  6
CONTINUOUS
 10
422.486511
 20
28.963850
 40
3.000000
 50
0.000000
 51
90.000000
  0
ARC
  8
0
  6
CONTINUOUS
 10
303.486511
 20
28.963827
 40
3.000000
 50
90.000000
 51
180.000000
  0
LINE
  8
0
  6
CONTINUOUS
 10
352.690094
 20
72.963829
 11
348.529694
 21
72.963829
  0
LINE
  8
0
  6
CONTINUOUS
 10
354.986511
 20
79.932571
 11
354.986511
 21
72.963829
  0
LINE
  8
0
  6
CONTINUOUS
 10
358.986511
 20
82.463829
 11
358.986511
 21
84.963829
  0
LINE
  8
0
  6
CONTINUOUS
 10
366.986511
 20
82.463829
 11
366.986511
 21
84.963829
  0
LINE
  8
0
  6
CONTINUOUS
 10
362.205292
 20
83.495079
 11
362.205292
 21
74.276329
  0
LINE
  8
0
  6
CONTINUOUS
 10
363.705292
 20
83.495079
 11
363.705292
 21
74.276329
  0
LINE
  8
0
  6
CONTINUOUS
 10
371.580292
 20
83.495079
 11
371.580292
 21
74.213829
  0
LINE
  8
0
  6
CONTINUOUS
 10
372.955292
 20
78.573212
 11
372.955292
 21
74.213829
  0
LINE
  8
0
  6
CONTINUOUS
 10
353.088501
 20
83.370079
 11
349.233490
 21
83.370079
  0
LINE
  8
0
  6
CONTINUOUS
 10
349.233490
 20
83.370079
 11
348.330292
 21
82.250076
  0
LINE
  8
0
  6
CONTINUOUS
 10
348.438904
 20
84.963829
 11
346.986511
 21
83.104065
  0
LINE
  8
0
  6
CONTINUOUS
 10
348.330292
 20
75.336746
 11
349.247894
 21
74.370071
  0
LINE
  8
0
  6
CONTINUOUS
 10
346.986511
 20
74.520988
 11
348.529694
 21
72.963829
  0
LINE
  8
0
  6
CONTINUOUS
 10
346.986511
 20
83.104065
 11
346.986511
 21
74.520988
  0
LINE
  8
0
  6
CONTINUOUS
 10
348.330292
 20
82.250076
 11
348.330292
 21
75.336746
  0
LINE
  8
0
  6
CONTINUOUS
 10
353.830292
 20
82.652969
 11
353.073303
 21
83.370079
  0
LINE
  8
0
  6
CONTINUOUS
 10
353.818298
 20
84.963829
 11
354.986511
 21
83.667336
  0
LINE
  8
0
  6
CONTINUOUS
 10
353.830292
 20
82.463829
 11
354.986511
 21
82.463829
  0
LINE
  8
0
  6
CONTINUOUS
 10
348.438904
 20
84.963829
 11
353.818298
 21
84.963829
  0
LINE
  8
0
  6
CONTINUOUS
 10
351.736511
 20
79.932571
 11
354.986511
 21
79.932571
  0
LINE
  8
0
  6
CONTINUOUS
 10
353.830292
 20
78.620071
 11
351.736511
 21
78.620071
  0
LINE
  8
0
  6
CONTINUOUS
 10
351.330292
 20
74.370071
 11
349.247894
 21
74.370071
  0
LINE
  8
0
  6
CONTINUOUS
 10
353.830292
 20
77.370071
 11
353.830292
 21
78.370071
  0
ARC
  8
0
  6
CONTINUOUS
 10
351.330292
 20
76.870071
 40
2.500000
 50
-89.999786
 51
0.000109
  0
LINE
  8
0
  6
CONTINUOUS
 10
353.830292
 20
73.920387
 11
353.830292
 21
72.963829
  0
LINE
  8
0
  6
CONTINUOUS
 10
354.986511
 20
83.667336
 11
354.986511
 21
82.463829
  0
LINE
  8
0
  6
CONTINUOUS
 10
353.830292
 20
78.620071
 11
353.830292
 21
76.870071
  0
LINE
  8
0
  6
CONTINUOUS
 10
351.736511
 20
79.932571
 11
351.736511
 21
78.620071
  0
LINE
  8
0
  6
CONTINUOUS
 10
353.830292
 20
72.963829
 11
354.986511
 21
72.963829
  0
LINE
  8
0
  6
CONTINUOUS
 10
353.830292
 20
73.920387
 11
352.690094
 21
72.963829
  0
LINE
  8
0
  6
CONTINUOUS
 10
363.705292
 20
74.276329
 11
364.205292
 21
74.276329
  0
LINE
  8
0
  6
CONTINUOUS
 10
361.611511
 20
74.276329
 11
361.611511
 21
72.963829
  0
LINE
  8
0
  6
CONTINUOUS
 10
364.205292
 20
74.276329
 11
364.205292
 21
72.963829
  0
LINE
  8
0
  6
CONTINUOUS
 10
366.152100
 20
82.463829
 11
366.986511
 21
82.463829
  0
LINE
  8
0
  6
CONTINUOUS
 10
358.986511
 20
82.463829
 11
359.874481
 21
82.463829
  0
LINE
  8
0
  6
CONTINUOUS
 10
358.986511
 20
84.963829
 11
366.986511
 21
84.963829
  0
LINE
  8
0
  6
CONTINUOUS
 10
361.611511
 20
72.963829
 11
364.205292
 21
72.963829
  0
LINE
  8
0
  6
CONTINUOUS
 10
361.611511
 20
74.276329
 11
362.205292
 21
74.276329
  0
ARC
  8
0
  6
CONTINUOUS
 10
375.783508
 20
81.760704
 40
3.203128
 50
-73.981873
 51
90.003510
  0
ARC
  8
0
  6
CONTINUOUS
 10
375.783508
 20
81.760704
 40
1.954124
 50
-82.585274
 51
62.411850
  0
LINE
  8
0
  6
CONTINUOUS
 10
370.986511
 20
84.963829
 11
375.783508
 21
84.963829
  0
LINE
  8
0
  6
CONTINUOUS
 10
376.035492
 20
79.822906
 11
372.955292
 21
79.822906
  0
LINE
  8
0
  6
CONTINUOUS
 10
370.986511
 20
84.963829
 11
370.986511
 21
83.495079
  0
LINE
  8
0
  6
CONTINUOUS
 10
372.955292
 20
83.495079
 11
372.955292
 21
79.822906
  0
LINE
  8
0
  6
CONTINUOUS
 10
376.667297
 20
78.681946
 11
378.649902
 21
74.213829
  0
LINE
  8
0
  6
CONTINUOUS
 10
375.515686
 20
78.573212
 11
377.391907
 21
74.213829
  0
LINE
  8
0
  6
CONTINUOUS
 10
370.986511
 20
74.213829
 11
371.580292
 21
74.213829
  0
LINE
  8
0
  6
CONTINUOUS
 10
372.955292
 20
74.213829
 11
373.502106
 21
74.213829
  0
LINE
  8
0
  6
CONTINUOUS
 10
373.502106
 20
72.963829
 11
370.986511
 21
72.963829
  0
LINE
  8
0
  6
CONTINUOUS
 10
377.142700
 20
74.213829
 11
377.391907
 21
74.213829
  0
LINE
  8
0
  6
CONTINUOUS
 10
378.649902
 20
74.213829
 11
378.986511
 21
74.213829
  0
LINE
  8
0
  6
CONTINUOUS
 10
377.142700
 20
72.963829
 11
378.986511
 21
72.963829
  0
LINE
  8
0
  6
CONTINUOUS
 10
378.986511
 20
74.213829
 11
378.986511
 21
72.963829
  0
LINE
  8
0
  6
CONTINUOUS
 10
377.142700
 20
74.213829
 11
377.142700
 21
72.963829
  0
LINE
  8
0
  6
CONTINUOUS
 10
373.502106
 20
74.213829
 11
373.502106
 21
72.963829
  0
LINE
  8
0
  6
CONTINUOUS
 10
370.986511
 20
74.213829
 11
370.986511
 21
72.963829
  0
LINE
  8
0
  6
CONTINUOUS
 10
360.304291
 20
83.495079
 11
359.874481
 21
82.463829
  0
LINE
  8
0
  6
CONTINUOUS
 10
365.789703
 20
83.495079
 11
366.152100
 21
82.463829
  0
LINE
  8
0
  6
CONTINUOUS
 10
363.705292
 20
83.495079
 11
365.789703
 21
83.495079
  0
LINE
  8
0
  6
CONTINUOUS
 10
362.205292
 20
83.495079
 11
360.304291
 21
83.495079
  0
LINE
  8
0
  6
CONTINUOUS
 10
372.955292
 20
78.573212
 11
375.515686
 21
78.573212
  0
LINE
  8
0
  6
CONTINUOUS
 10
370.986511
 20
83.495079
 11
371.580292
 21
83.495079
  0
LINE
  8
0
  6
CONTINUOUS
 10
372.955292
 20
83.495079
 11
376.688293
 21
83.492653
  0
LINE
  8
0
  6
CONTINUOUS
 10
353.830292
 20
82.652969
 11
353.830292
 21
82.463829
  0
ARC
  8
0
  6
CONTINUOUS
 10
362.986511
 20
114.963829
 40
73.000000
 50
47.590931
 51
132.409302
  0
ARC
  8
0
  6
CONTINUOUS
 10
362.986511
 20
114.963829
 40
73.000000
 50
227.591095
 51
312.409393
  0
LINE
  8
0
  6
CONTINUOUS
 10
421.986511
 20
146.712845
 11
421.986511
 21
83.214813
  0
LINE
  8
0
  6
CONTINUOUS
 10
303.986511
 20
146.712845
 11
303.986511
 21
83.214813
  0
ARC
  8
0
  6
CONTINUOUS
 10
391.986511
 20
146.712845
 40
30.000000
 50
0.000000
 51
47.590950
  0
ARC
  8
0
  6
CONTINUOUS
 10
391.986511
 20
83.214813
 40
30.000000
 50
-47.590061
 51
0.000000
  0
ARC
  8
0
  6
CONTINUOUS
 10
333.986511
 20
146.712845
 40
30.000000
 50
132.409500
 51
180.000000
  0
ARC
  8
0
  6
CONTINUOUS
 10
333.986511
 20
83.214813
 40
30.000000
 50
180.000000
 51
227.591400
  0
LINE
  8
0
  6
CONTINUOUS
 10
352.986511
 20
140.963821
 11
352.986511
 21
132.963821
  0
LINE
  8
0
  6
CONTINUOUS
 10
345.986511
 20
140.963821
 11
345.986511
 21
132.963821
  0
LINE
  8
0
  6
CONTINUOUS
 10
345.986511
 20
140.963821
 11
352.986511
 21
140.963821
  0
LINE
  8
0
  6
CONTINUOUS
 10
345.986511
 20
132.963821
 11
352.986511
 21
132.963821
  0
ARC
  8
0
  6
CONTINUOUS
 10
362.986511
 20
136.963821
 40
14.000000
 50
-163.398499
 51
163.398499
  0
LINE
  8
0
  6
CONTINUOUS
 10
342.986511
 20
36.594601
 11
342.986511
 21
31.963827
  0
LINE
  8
0
  6
CONTINUOUS
 10
344.428375
 20
36.963829
 11
381.544617
 21
36.963829
  0
LINE
  8
0
  6
CONTINUOUS
 10
342.085754
 20
35.837902
 11
339.887268
 21
33.089752
  0
ARC
  8
0
  6
CONTINUOUS
 10
337.544647
 20
34.963829
 40
3.000000
 50
270.000000
 51
321.340454
  0
ARC
  8
0
  6
CONTINUOUS
 10
344.428375
 20
33.963829
 40
3.000000
 50
90.000000
 51
141.340454
  0
LINE
  8
0
  6
CONTINUOUS
 10
382.986511
 20
36.594601
 11
382.986511
 21
31.963827
  0
LINE
  8
0
  6
CONTINUOUS
 10
383.887238
 20
35.837902
 11
386.085724
 21
33.089752
  0
ARC
  8
0
  6
CONTINUOUS
 10
388.428345
 20
34.963829
 40
3.000000
 50
-141.340454
 51
-90.000000
  0
ARC
  8
0
  6
CONTINUOUS
 10
381.544617
 20
33.963829
 40
3.000000
 50
38.659546
 51
90.000000
  0
LINE
  8
0
  6
CONTINUOUS
 10
426.986511
 20
152.563828
 11
426.986511
 21
49.363850
  0
LINE
  8
0
  6
CONTINUOUS
 10
426.986511
 20
152.563828
 11
425.486511
 21
152.563828
  0
LINE
  8
0
  6
CONTINUOUS
 10
426.986511
 20
49.363850
 11
425.486511
 21
49.363850
  0
ARC
  8
0
  6
CONTINUOUS
 10
243.033295
 20
100.963829
 40
191.053177
 50
-15.669100
 51
15.669100
  0
ARC
  8
0
  6
CONTINUOUS
 10
243.033295
 20
100.963829
 40
190.053177
 50
-1.478500
 51
1.451400
  0
LINE
  8
0
  6
CONTINUOUS
 10
430.986511
 20
105.963829
 11
431.991302
 21
105.963829
  0
LINE
  8
0
  6
CONTINUOUS
 10
428.486511
 20
103.463829
 11
428.486511
 21
98.463829
  0
ARC
  8
0
  6
CONTINUOUS
 10
431.991302
 20
106.962227
 40
1.000000
 50
-90.000000
 51
1.817900
  0
ARC
  8
0
  6
CONTINUOUS
 10
430.986511
 20
103.463829
 40
2.500000
 50
90.000000
 51
180.000000
  0
LINE
  8
0
  6
CONTINUOUS
 10
430.986511
 20
95.963829
 11
431.991302
 21
95.963829
  0
ARC
  8
0
  6
CONTINUOUS
 10
431.991302
 20
94.965431
 40
1.000000
 50
-1.817900
 51
90.000000
  0
ARC
  8
0
  6
CONTINUOUS
 10
430.986511
 20
98.463829
 40
2.500000
 50
180.000000
 51
270.000000
  0
LINE
  8
0
  6
CONTINUOUS
 10
425.486511
 20
152.563828
 11
425.486511
 21
162.335403
  0
ARC
  8
0
  6
CONTINUOUS
 10
427.040863
 20
169.963928
 40
5.000000
 50
235.460007
 51
270.000000
  0
LINE
  8
0
  6
CONTINUOUS
 10
628.486511
 20
321.804962
 11
618.986511
 21
321.804962
  0
LINE
  8
0
  6
CONTINUOUS
 10
618.986511
 20
337.804962
 11
628.486511
 21
337.804962
  0
LINE
  8
0
  6
CONTINUOUS
 10
628.486511
 20
411.804962
 11
618.986511
 21
411.804962
  0
LINE
  8
0
  6
CONTINUOUS
 10
618.986511
 20
411.804962
 11
618.986511
 21
391.804962
  0
LINE
  8
0
  6
CONTINUOUS
 10
618.986511
 20
395.804962
 11
628.486511
 21
395.804962
  0
LINE
  8
0
  6
CONTINUOUS
 10
618.986511
 20
341.804962
 11
618.986511
 21
321.804962
  0
LINE
  8
0
  6
CONTINUOUS
 10
628.486511
 20
319.804962
 11
628.486511
 21
366.804962
  0
LINE
  8
0
  6
CONTINUOUS
 10
628.486511
 20
337.804962
 11
672.461548
 21
337.804962
  0
LINE
  8
0
  6
CONTINUOUS
 10
628.486511
 20
395.804962
 11
672.461548
 21
395.804962
  0
LINE
  8
0
  6
CONTINUOUS
 10
670.986511
 20
319.804962
 11
628.486511
 21
319.804962
  0
LINE
  8
0
  6
CONTINUOUS
 10
670.986511
 20
413.804962
 11
628.486511
 21
413.804962
  0
ARC
  8
0
  6
CONTINUOUS
 10
670.986511
 20
324.804962
 40
5.000000
 50
-90.000000
 51
0.000000
  0
ARC
  8
0
  6
CONTINUOUS
 10
670.986511
 20
408.804962
 40
5.000000
 50
0.000000
 51
90.000000
  0
LINE
  8
0
  6
CONTINUOUS
 10
675.986511
 20
324.804962
 11
675.986511
 21
408.804962
  0
LINE
  8
0
  6
CONTINUOUS
 10
628.486511
 20
132.963821
 11
618.986511
 21
132.963821
  0
LINE
  8
0
  6
CONTINUOUS
 10
618.986511
 20
122.373131
 11
628.486511
 21
122.373131
  0
LINE
  8
0
  6
CONTINUOUS
 10
628.486511
 20
42.963829
 11
618.986511
 21
42.963829
  0
LINE
  8
0
  6
CONTINUOUS
 10
618.986511
 20
53.554539
 11
628.486511
 21
53.554539
  0
LINE
  8
0
  6
CONTINUOUS
 10
628.486511
 20
134.963821
 11
628.486511
 21
40.963829
  0
LINE
  8
0
  6
CONTINUOUS
 10
628.486511
 20
116.963829
 11
672.461548
 21
116.963829
  0
LINE
  8
0
  6
CONTINUOUS
 10
628.486511
 20
58.963829
 11
672.461548
 21
58.963829
  0
LINE
  8
0
  6
CONTINUOUS
 10
670.986511
 20
134.963821
 11
628.486511
 21
134.963821
  0
LINE
  8
0
  6
CONTINUOUS
 10
670.986511
 20
40.963829
 11
628.486511
 21
40.963829
  0
ARC
  8
0
  6
CONTINUOUS
 10
670.986511
 20
129.963821
 40
5.000000
 50
0.000000
 51
90.000000
  0
ARC
  8
0
  6
CONTINUOUS
 10
670.986511
 20
45.963829
 40
5.000000
 50
-90.000000
 51
0.000000
  0
LINE
  8
0
  6
CONTINUOUS
 10
675.986511
 20
129.963821
 11
675.986511
 21
45.963818
  0
LINE
  8
0
  6
CONTINUOUS
 10
618.986511
 20
42.963829
 11
618.986511
 21
132.963821
  0
LINE
  8
0
  6
CONTINUOUS
 10
628.486511
 20
366.804962
 11
628.486511
 21
413.804962
  0
LINE
  8
0
  6
CONTINUOUS
 10
627.986511
 20
389.804962
 11
627.986511
 21
343.804962
  0
LINE
  8
0
  6
CONTINUOUS
 10
625.986511
 20
341.804962
 11
627.986511
 21
343.804962
  0
LINE
  8
0
  6
CONTINUOUS
 10
625.986511
 20
341.804962
 11
579.986511
 21
341.804962
  0
LINE
  8
0
  6
CONTINUOUS
 10
585.486511
 20
346.304962
 11
585.486511
 21
341.804962
  0
ARC
  8
0
  6
CONTINUOUS
 10
582.486511
 20
346.304962
 40
3.000000
 50
0.000000
 51
90.000000
  0
LINE
  8
0
  6
CONTINUOUS
 10
582.486511
 20
349.304962
 11
577.986511
 21
349.304962
  0
CIRCLE
  8
0
  6
CONTINUOUS
 10
581.486511
 20
345.304962
 40
2.250000
  0
LINE
  8
0
  6
CONTINUOUS
 10
577.986511
 20
389.804962
 11
577.986511
 21
343.804962
  0
LINE
  8
0
  6
CONTINUOUS
 10
579.986511
 20
341.804962
 11
577.986511
 21
343.804962
  0
LINE
  8
0
  6
CONTINUOUS
 10
579.986511
 20
391.804962
 11
577.986511
 21
389.804962
  0
LINE
  8
0
  6
CONTINUOUS
 10
579.986511
 20
391.804962
 11
625.986511
 21
391.804962
  0
LINE
  8
0
  6
CONTINUOUS
 10
627.986511
 20
389.804962
 11
625.986511
 21
391.804962
  0
LINE
  8
0
  6
CONTINUOUS
 10
623.486511
 20
384.304962
 11
627.986511
 21
384.304962
  0
CIRCLE
  8
0
  6
CONTINUOUS
 10
624.486511
 20
388.304962
 40
2.250000
  0
ARC
  8
0
  6
CONTINUOUS
 10
623.486511
 20
387.304962
 40
3.000000
 50
180.000000
 51
270.000000
  0
LINE
  8
0
  6
CONTINUOUS
 10
620.486511
 20
387.304962
 11
620.486511
 21
391.804962
  0
LINE
  8
0
  6
CENTER
 10
602.986511
 20
399.270752
 11
602.986511
 21
335.138733
  0
LINE
  8
0
  6
CONTINUOUS
 10
626.986511
 20
384.304962
 11
626.986511
 21
349.304962
  0
LINE
  8
0
  6
CONTINUOUS
 10
585.486511
 20
342.804962
 11
620.486450
 21
342.804962
  0
LINE
  8
0
  6
CONTINUOUS
 10
578.986511
 20
349.304962
 11
578.986511
 21
384.304962
  0
LINE
  8
0
  6
CONTINUOUS
 10
620.486511
 20
390.804962
 11
585.486511
 21
390.804962
  0
LINE
  8
0
  6
CONTINUOUS
 10
623.486450
 20
349.304962
 11
627.986450
 21
349.304962
  0
ARC
  8
0
  6
CONTINUOUS
 10
623.486450
 20
346.304962
 40
3.000000
 50
90.000000
 51
180.000000
  0
LINE
  8
0
  6
CONTINUOUS
 10
620.486450
 20
346.304962
 11
620.486450
 21
341.804962
  0
CIRCLE
  8
0
  6
CONTINUOUS
 10
624.486450
 20
345.304962
 40
2.250000
  0
LINE
  8
0
  6
CONTINUOUS
 10
582.486511
 20
384.304962
 11
577.986511
 21
384.304962
  0
ARC
  8
0
  6
CONTINUOUS
 10
582.486511
 20
387.304962
 40
3.000000
 50
-90.000000
 51
0.000000
  0
LINE
  8
0
  6
CONTINUOUS
 10
585.486511
 20
387.304962
 11
585.486511
 21
391.804932
  0
CIRCLE
  8
0
  6
CONTINUOUS
 10
581.486511
 20
388.304962
 40
2.250000
  0
LINE
  8
0
  6
CONTINUOUS
 10
626.486511
 20
134.463821
 11
579.986511
 21
134.463821
  0
LINE
  8
0
  6
CONTINUOUS
 10
577.986511
 20
178.463821
 11
577.986511
 21
136.463821
  0
LINE
  8
0
  6
CONTINUOUS
 10
627.986511
 20
178.463821
 11
627.986511
 21
136.463821
  0
LINE
  8
0
  6
CONTINUOUS
 10
627.986511
 20
146.463821
 11
577.986511
 21
146.463821
  0
LINE
  8
0
  6
CONTINUOUS
 10
579.986511
 20
134.463821
 11
577.986511
 21
136.463821
  0
LINE
  8
0
  6
CONTINUOUS
 10
627.986511
 20
136.463821
 11
625.986511
 21
134.463821
  0
LINE
  8
0
  6
CONTINUOUS
 10
627.986511
 20
136.463821
 11
577.986511
 21
136.463821
  0
LINE
  8
0
  6
CONTINUOUS
 10
627.986511
 20
147.463821
 11
577.986511
 21
147.463821
  0
LINE
  8
0
  6
CONTINUOUS
 10
626.986511
 20
179.463821
 11
578.986511
 21
179.463821
  0
LINE
  8
0
  6
CONTINUOUS
 10
578.986511
 20
179.463821
 11
577.986511
 21
178.463821
  0
LINE
  8
0
  6
CONTINUOUS
 10
626.986511
 20
179.463821
 11
627.986511
 21
178.463821
  0
LINE
  8
0
  6
CONTINUOUS
 10
627.986511
 20
178.463821
 11
577.986511
 21
178.463821
  0
LINE
  8
0
  6
CENTER
 10
602.986511
 20
128.074326
 11
602.986511
 21
184.774323
  0
LINE
  8
0
  6
CENTER
 10
630.361511
 20
162.463821
 11
625.736511
 21
162.463821
  0
LINE
  8
0
  6
CONTINUOUS
 10
626.486511
 20
134.463821
 11
626.486511
 21
132.963821
  0
LINE
  8
0
  6
CONTINUOUS
 10
580.486511
 20
134.463821
 11
580.486511
 21
132.963821
  0
LINE
  8
0
  6
CONTINUOUS
 10
628.861511
 20
172.963821
 11
626.861511
 21
172.963821
  0
LINE
  8
0
  6
CONTINUOUS
 10
628.861511
 20
151.963821
 11
626.861511
 21
151.963821
  0
LINE
  8
0
  6
CONTINUOUS
 10
508.986511
 20
395.804962
 11
508.986511
 21
409.804962
  0
TEXT
  8
0
 10
38.000000
 20
0.000000
 40
4.000000
 41
1.000000
  1
HLM-28L-300~450-S90WK
 50
0.000000
  0
ENDSEC
  0
EOF
