  0
SECTION
  2
HEADER
  9
$CLAYER
  8
1
  9
$LTSCALE
 40
3.0
  0
ENDSEC
  0
SECTION
  2
TABLES
  0
TABLE
  2
LTYPE
 70
     4
  0
LTYPE
  2
CONTINUOUS
  3
solid line
 70
    64
 72
    65
 73
     0
 40
0.0
  0
LTYPE
  2
DASHED
  3
__ __ __ __ __ __ __ __ __ __ __ __ __ __ __
 70
    64
 72
    65
 73
     2
 40
0.75
 49
0.5
 49
-0.25
  0
LTYPE
  2
CENTER
  3
____ _ ____ _ ____ _ ____ _ ____ _ ____ _ ____
 70
    64
 72
    65
 73
     4
 40
2.0
 49
1.25
 49
-0.25
 49
0.25
 49
-0.25
  0
LTYPE
  2
PHANTOM
  3
_____ _ _ _____ _ _ _____ _ _ _____ _ _ ____
 70
    64
 72
    65
 73
     6
 40
2.5
 49
1.25
 49
-0.25
 49
0.25
 49
-0.25
 49
0.25
 49
-0.25
  0
ENDTAB
  0
TABLE
  2
LAYER
 70
     1
  0
LAYER
  2
0
 70
    64
 62
     7
  6
CONTINUOUS
  0
ENDTAB
  0
TABLE
  2
STYLE
 70
     1
  0
STYLE
  2
STANDARD
 70
     0
 40
0.000000
 41
1.000000
 50
0.000000
 71
     0
 42
3.000000
  3
txt
  4
BIGFONT
  0
ENDTAB
  0
ENDSEC
  0
SECTION
  2
BLOCKS
  0
ENDSEC
  0
SECTION
  2
ENTITIES
  0
LINE
  8
0
  6
CONTINUOUS
 10
499.694000
 20
129.415085
 11
499.694000
 21
43.415058
  0
LINE
  8
0
  6
CONTINUOUS
 10
609.693970
 20
131.415085
 11
490.694000
 21
131.415085
  0
LINE
  8
0
  6
CONTINUOUS
 10
609.693970
 20
41.415077
 11
490.694000
 21
41.415077
  0
LINE
  8
0
  6
CONTINUOUS
 10
609.693970
 20
131.415085
 11
609.693970
 21
41.415077
  0
LINE
  8
0
  6
CONTINUOUS
 10
609.693970
 20
120.824379
 11
500.731689
 21
120.824379
  0
LINE
  8
0
  6
CONTINUOUS
 10
609.693970
 20
52.005779
 11
500.731689
 21
52.005779
  0
ARC
  8
0
  6
CONTINUOUS
 10
497.694000
 20
129.415100
 40
2.000000
 50
0.000000
 51
90.000000
  0
ARC
  8
0
  6
CONTINUOUS
 10
497.694000
 20
43.415077
 40
2.000000
 50
-90.000000
 51
0.000000
  0
LINE
  8
0
  6
CONTINUOUS
 10
630.193970
 20
51.415077
 11
630.193970
 21
121.415077
  0
LINE
  8
0
  6
CONTINUOUS
 10
625.652527
 20
131.415085
 11
609.693970
 21
131.415085
  0
LINE
  8
0
  6
CONTINUOUS
 10
629.693970
 20
128.415085
 11
629.693970
 21
44.415077
  0
LINE
  8
0
  6
CONTINUOUS
 10
609.693970
 20
120.824379
 11
627.943970
 21
120.824379
  0
LINE
  8
0
  6
CONTINUOUS
 10
629.116638
 20
129.415054
 11
629.693970
 21
128.415085
  0
ARC
  8
0
  6
CONTINUOUS
 10
625.652527
 20
127.415077
 40
4.000000
 50
29.999599
 51
90.000000
  0
LINE
  8
0
  6
CONTINUOUS
 10
625.652527
 20
41.415077
 11
609.693970
 21
41.415077
  0
LINE
  8
0
  6
CONTINUOUS
 10
609.693970
 20
52.005779
 11
627.943970
 21
52.005779
  0
LINE
  8
0
  6
CONTINUOUS
 10
629.116638
 20
43.415077
 11
629.693970
 21
44.415077
  0
ARC
  8
0
  6
CONTINUOUS
 10
625.652527
 20
45.415058
 40
4.000000
 50
270.000000
 51
330.000397
  0
LINE
  8
0
  6
CONTINUOUS
 10
609.193970
 20
132.915085
 11
609.193970
 21
131.415085
  0
LINE
  8
0
  6
CONTINUOUS
 10
616.193970
 20
132.915085
 11
616.193970
 21
131.415085
  0
LINE
  8
0
  6
CONTINUOUS
 10
616.193970
 20
132.915085
 11
609.193970
 21
132.915085
  0
LINE
  8
0
  6
CONTINUOUS
 10
611.794006
 20
145.915085
 11
611.794006
 21
132.915085
  0
LINE
  8
0
  6
CONTINUOUS
 10
613.593994
 20
146.540085
 11
613.593994
 21
132.915085
  0
LINE
  8
0
  6
CONTINUOUS
 10
615.393982
 20
144.477585
 11
615.393982
 21
132.915085
  0
LINE
  8
0
  6
CONTINUOUS
 10
609.994019
 20
145.290085
 11
609.994019
 21
132.915085
  0
LINE
  8
0
  6
CONTINUOUS
 10
613.593994
 20
146.540085
 11
611.794006
 21
145.915085
  0
LINE
  8
0
  6
CONTINUOUS
 10
615.393982
 20
144.477585
 11
613.593994
 21
145.102585
  0
LINE
  8
0
  6
CONTINUOUS
 10
609.994019
 20
145.290085
 11
611.792969
 21
144.842361
  0
LINE
  8
0
  6
CONTINUOUS
 10
630.193970
 20
121.415077
 11
629.693970
 21
121.915077
  0
LINE
  8
0
  6
CONTINUOUS
 10
630.193970
 20
51.415077
 11
629.693970
 21
50.915077
  0
LINE
  8
0
  6
CENTER
 10
464.779694
 20
99.415077
 11
392.444000
 21
99.415077
  0
LINE
  8
0
  6
CONTINUOUS
 10
436.194000
 20
99.415077
 11
436.194000
 21
35.414982
  0
LINE
  8
0
  6
CONTINUOUS
 10
436.194000
 20
99.415077
 11
436.194000
 21
163.415176
  0
LINE
  8
0
  6
CONTINUOUS
 10
142.102997
 20
46.415077
 11
142.102997
 21
50.393799
  0
LINE
  8
0
  6
CONTINUOUS
 10
52.103001
 20
46.415077
 11
52.103001
 21
50.393738
  0
LINE
  8
0
  6
CONTINUOUS
 10
57.103001
 20
41.415077
 11
60.103001
 21
41.415077
  0
LINE
  8
0
  6
CONTINUOUS
 10
137.102997
 20
41.415077
 11
134.102997
 21
41.415077
  0
ARC
  8
0
  6
CONTINUOUS
 10
57.103001
 20
46.415077
 40
5.000000
 50
180.000000
 51
270.000000
  0
ARC
  8
0
  6
CONTINUOUS
 10
137.102997
 20
46.415077
 40
5.000000
 50
-90.000000
 51
0.000000
  0
ARC
  8
0
  6
CONTINUOUS
 10
138.115402
 20
58.403118
 40
8.000000
 50
306.780975
 51
358.958740
  0
ARC
  8
0
  6
CONTINUOUS
 10
56.090801
 20
58.402859
 40
8.000000
 50
181.041107
 51
233.216995
  0
ARC
  8
0
  6
CONTINUOUS
 10
144.102997
 20
50.393818
 40
2.000000
 50
126.781197
 51
180.000000
  0
ARC
  8
0
  6
CONTINUOUS
 10
50.103001
 20
50.393738
 40
2.000000
 50
0.000000
 51
53.217121
  0
LINE
  8
0
  6
CENTER
 10
97.102997
 20
-1.913762
 11
97.102997
 21
203.934372
  0
LINE
  8
0
  6
CENTER
 10
33.924316
 20
135.415085
 11
214.139999
 21
135.415085
  0
LINE
  8
0
  6
CONTINUOUS
 10
34.103001
 20
15.415078
 11
69.602997
 21
15.415078
  0
LINE
  8
0
  6
CONTINUOUS
 10
38.103001
 20
30.415077
 11
56.103001
 21
30.415077
  0
LINE
  8
0
  6
CONTINUOUS
 10
156.102997
 20
30.415077
 11
138.102997
 21
30.415077
  0
LINE
  8
0
  6
CONTINUOUS
 10
61.603001
 20
163.415085
 11
132.352997
 21
163.415085
  0
LINE
  8
0
  6
CONTINUOUS
 10
131.155396
 20
189.320953
 11
97.102997
 21
189.915085
  0
LINE
  8
0
  6
CONTINUOUS
 10
63.050598
 20
189.320557
 11
97.102997
 21
189.915085
  0
LINE
  8
0
  6
CONTINUOUS
 10
134.102997
 20
186.321411
 11
134.102997
 21
15.415058
  0
LINE
  8
0
  6
CONTINUOUS
 10
60.103001
 20
186.321014
 11
60.103001
 21
15.415078
  0
LINE
  8
0
  6
CONTINUOUS
 10
44.103001
 20
105.702812
 11
44.103001
 21
165.127319
  0
LINE
  8
0
  6
CONTINUOUS
 10
150.102997
 20
165.127335
 11
150.102997
 21
105.702812
  0
LINE
  8
0
  6
CONTINUOUS
 10
51.103001
 20
65.215500
 11
51.103001
 21
137.915085
  0
LINE
  8
0
  6
CONTINUOUS
 10
143.102997
 20
65.215500
 11
143.102997
 21
137.915085
  0
LINE
  8
0
  6
CONTINUOUS
 10
160.102997
 20
27.111015
 11
160.102997
 21
15.415078
  0
LINE
  8
0
  6
CONTINUOUS
 10
34.103001
 20
27.111015
 11
34.103001
 21
15.415078
  0
LINE
  8
0
  6
CENTER
 10
47.103001
 20
38.415077
 11
47.103001
 21
4.061678
  0
LINE
  8
0
  6
CENTER
 10
147.102997
 20
38.915077
 11
147.102997
 21
4.061678
  0
LINE
  8
0
  6
DASHED
 10
41.603001
 20
30.415077
 11
41.603001
 21
15.415078
  0
LINE
  8
0
  6
DASHED
 10
52.603001
 20
30.415077
 11
52.603001
 21
15.415078
  0
LINE
  8
0
  6
DASHED
 10
141.602997
 20
30.415077
 11
141.602997
 21
15.415078
  0
LINE
  8
0
  6
DASHED
 10
152.602997
 20
30.415077
 11
152.602997
 21
15.415078
  0
ARC
  8
0
  6
CONTINUOUS
 10
63.103001
 20
186.321045
 40
3.000000
 50
91.000526
 51
180.000000
  0
ARC
  8
0
  6
CONTINUOUS
 10
131.102997
 20
186.321396
 40
3.000000
 50
0.000000
 51
89.000580
  0
LINE
  8
0
  6
CONTINUOUS
 10
124.602997
 20
15.415078
 11
160.102997
 21
15.415078
  0
LINE
  8
0
  6
CONTINUOUS
 10
70.602997
 20
16.415077
 11
123.602997
 21
16.415077
  0
LINE
  8
0
  6
CONTINUOUS
 10
47.749199
 20
169.940598
 11
56.456600
 21
172.389557
  0
LINE
  8
0
  6
CONTINUOUS
 10
47.749199
 20
100.889557
 11
48.915199
 21
100.561630
  0
LINE
  8
0
  6
CONTINUOUS
 10
54.764801
 20
60.397919
 11
56.441200
 21
59.932240
  0
LINE
  8
0
  6
CONTINUOUS
 10
139.441193
 20
60.397919
 11
137.764801
 21
59.932240
  0
LINE
  8
0
  6
CONTINUOUS
 10
146.456604
 20
100.889565
 11
145.290802
 21
100.561630
  0
LINE
  8
0
  6
CONTINUOUS
 10
146.456604
 20
169.940598
 11
137.749405
 21
172.389557
  0
ARC
  8
0
  6
CONTINUOUS
 10
49.103001
 20
165.127365
 40
5.000000
 50
105.709000
 51
180.000000
  0
ARC
  8
0
  6
CONTINUOUS
 10
49.103001
 20
105.702850
 40
5.000000
 50
180.000000
 51
254.291702
  0
ARC
  8
0
  6
CONTINUOUS
 10
56.103001
 20
65.215538
 40
5.000000
 50
180.000000
 51
254.476196
  0
ARC
  8
0
  6
CONTINUOUS
 10
138.102997
 20
65.215500
 40
5.000000
 50
-74.475708
 51
0.000000
  0
ARC
  8
0
  6
CONTINUOUS
 10
145.102997
 20
105.702805
 40
5.000000
 50
-74.291199
 51
0.000000
  0
ARC
  8
0
  6
CONTINUOUS
 10
145.102997
 20
165.127319
 40
5.000000
 50
0.000000
 51
74.291527
  0
ARC
  8
0
  6
CONTINUOUS
 10
146.102997
 20
97.673698
 40
3.000000
 50
105.709000
 51
180.000000
  0
ARC
  8
0
  6
CONTINUOUS
 10
48.103001
 20
97.673668
 40
3.000000
 50
0.000000
 51
74.291397
  0
ARC
  8
0
  6
CONTINUOUS
 10
55.103001
 20
177.202820
 40
5.000000
 50
-74.291199
 51
0.000000
  0
ARC
  8
0
  6
CONTINUOUS
 10
139.102997
 20
177.202835
 40
5.000000
 50
180.000000
 51
254.291702
  0
ARC
  8
0
  6
CONTINUOUS
 10
139.102997
 20
55.114677
 40
5.000000
 50
105.524399
 51
180.000000
  0
ARC
  8
0
  6
CONTINUOUS
 10
55.103001
 20
55.114639
 40
5.000000
 50
0.000000
 51
74.475952
  0
LINE
  8
0
  6
CONTINUOUS
 10
124.602997
 20
15.415078
 11
123.602997
 21
16.415077
  0
LINE
  8
0
  6
CONTINUOUS
 10
69.602997
 20
15.415078
 11
70.602997
 21
16.415077
  0
LINE
  8
0
  6
CENTER
 10
25.344629
 20
99.415077
 11
171.199310
 21
99.415077
  0
LINE
  8
0
  6
CONTINUOUS
 10
197.102997
 20
121.415077
 11
197.102997
 21
149.415085
  0
LINE
  8
0
  6
CONTINUOUS
 10
152.102997
 20
149.415085
 11
197.102997
 21
149.415085
  0
LINE
  8
0
  6
CONTINUOUS
 10
152.102997
 20
121.415077
 11
197.102997
 21
121.415077
  0
LINE
  8
0
  6
CONTINUOUS
 10
152.102997
 20
150.415085
 11
152.102997
 21
120.415077
  0
LINE
  8
0
  6
CONTINUOUS
 10
150.102997
 20
120.415077
 11
152.102997
 21
120.415077
  0
ARC
  8
0
  6
CONTINUOUS
 10
161.102997
 20
135.415085
 40
4.000000
 50
90.000000
 51
270.000000
  0
LINE
  8
0
  6
CONTINUOUS
 10
161.102997
 20
139.415085
 11
197.102997
 21
139.415085
  0
LINE
  8
0
  6
CONTINUOUS
 10
161.102997
 20
131.415085
 11
197.102997
 21
131.415085
  0
LINE
  8
0
  6
CONTINUOUS
 10
150.102997
 20
150.415085
 11
152.102997
 21
150.415085
  0
LINE
  8
0
  6
CONTINUOUS
 10
442.694000
 20
163.415176
 11
436.194000
 21
163.415176
  0
LINE
  8
0
  6
CONTINUOUS
 10
442.694000
 20
35.414982
 11
436.194000
 21
35.414982
  0
LINE
  8
0
  6
CONTINUOUS
 10
490.694000
 20
131.415085
 11
444.694000
 21
133.021439
  0
LINE
  8
0
  6
CONTINUOUS
 10
436.194000
 20
39.511894
 11
490.694000
 21
41.415077
  0
ARC
  8
0
  6
CONTINUOUS
 10
442.693970
 20
161.415207
 40
2.000000
 50
0.000000
 51
90.000000
  0
ARC
  8
0
  6
CONTINUOUS
 10
442.694000
 20
37.414982
 40
2.000000
 50
-90.000000
 51
-0.260773
  0
LINE
  8
0
  6
CENTER
 10
644.212769
 20
86.415077
 11
392.444000
 21
86.415077
  0
LINE
  8
0
  6
CONTINUOUS
 10
490.694000
 20
131.415085
 11
490.694000
 21
41.415077
  0
LINE
  8
0
  6
CONTINUOUS
 10
445.426239
 20
139.182846
 11
451.140747
 21
133.468338
  0
LINE
  8
0
  6
CONTINUOUS
 10
413.930634
 20
344.140045
 11
294.787933
 21
344.140045
  0
ARC
  8
0
  6
CONTINUOUS
 10
294.787933
 20
347.140045
 40
3.000000
 50
181.000000
 51
270.000000
  0
LINE
  8
0
  6
CONTINUOUS
 10
308.699738
 20
338.786316
 11
307.809296
 21
341.952301
  0
ARC
  8
0
  6
CONTINUOUS
 10
304.921356
 20
341.140045
 40
3.000000
 50
15.708648
 51
90.000000
  0
ARC
  8
0
  6
CONTINUOUS
 10
422.116394
 20
326.913483
 40
3.000000
 50
181.500198
 51
257.801208
  0
LINE
  8
0
  6
CONTINUOUS
 10
419.117401
 20
326.834930
 11
418.761414
 21
340.429718
  0
ARC
  8
0
  6
CONTINUOUS
 10
420.848602
 20
321.048950
 40
3.000000
 50
15.000100
 51
77.801201
  0
LINE
  8
0
  6
CENTER
 10
644.484985
 20
381.140045
 11
275.790131
 21
381.140045
  0
LINE
  8
0
  6
CONTINUOUS
 10
402.679108
 20
444.140045
 11
353.694000
 21
444.140045
  0
LINE
  8
0
  6
CONTINUOUS
 10
291.194000
 20
381.140045
 11
291.839844
 21
344.140045
  0
LINE
  8
0
  6
CONTINUOUS
 10
300.004089
 20
321.447388
 11
291.839844
 21
344.140045
  0
ARC
  8
0
  6
CONTINUOUS
 10
304.708862
 20
323.140045
 40
5.000000
 50
199.787491
 51
270.000000
  0
LINE
  8
0
  6
CONTINUOUS
 10
291.194000
 20
381.140045
 11
291.839844
 21
418.140045
  0
LINE
  8
0
  6
CONTINUOUS
 10
300.004089
 20
440.832703
 11
291.839844
 21
418.140045
  0
ARC
  8
0
  6
CONTINUOUS
 10
304.708862
 20
439.140045
 40
5.000000
 50
90.000000
 51
160.212509
  0
LINE
  8
0
  6
CONTINUOUS
 10
413.930634
 20
344.140045
 11
294.787933
 21
344.140045
  0
LINE
  8
0
  6
CENTER
 10
353.694000
 20
460.258759
 11
353.694000
 21
270.033844
  0
ARC
  8
0
  6
CONTINUOUS
 10
294.787933
 20
347.140045
 40
3.000000
 50
181.000000
 51
270.000000
  0
ARC
  8
0
  6
CONTINUOUS
 10
294.787933
 20
415.140045
 40
3.000000
 50
90.000000
 51
179.000000
  0
LINE
  8
0
  6
CONTINUOUS
 10
413.857391
 20
418.140045
 11
294.787933
 21
418.140045
  0
LINE
  8
0
  6
CONTINUOUS
 10
323.981720
 20
328.140045
 11
383.406250
 21
328.140045
  0
LINE
  8
0
  6
CONTINUOUS
 10
319.168488
 20
331.786316
 11
318.225250
 21
335.140045
  0
ARC
  8
0
  6
CONTINUOUS
 10
323.981720
 20
333.140045
 40
5.000000
 50
195.708633
 51
270.000000
  0
LINE
  8
0
  6
CONTINUOUS
 10
318.225250
 20
335.140045
 11
313.513000
 21
335.140045
  0
ARC
  8
0
  6
CONTINUOUS
 10
313.513000
 20
340.140045
 40
5.000000
 50
195.708633
 51
270.000000
  0
LINE
  8
0
  6
CONTINUOUS
 10
388.219513
 20
331.786316
 11
389.162750
 21
335.140045
  0
ARC
  8
0
  6
CONTINUOUS
 10
383.406250
 20
333.140045
 40
5.000000
 50
270.000000
 51
344.291351
  0
LINE
  8
0
  6
CONTINUOUS
 10
389.162750
 20
335.140045
 11
393.875000
 21
335.140045
  0
LINE
  8
0
  6
CONTINUOUS
 10
398.688263
 20
338.786316
 11
399.578674
 21
341.952301
  0
ARC
  8
0
  6
CONTINUOUS
 10
393.875000
 20
340.140045
 40
5.000000
 50
270.000000
 51
344.291351
  0
ARC
  8
0
  6
CONTINUOUS
 10
402.466644
 20
341.140045
 40
3.000000
 50
90.000000
 51
164.291367
  0
LINE
  8
0
  6
CONTINUOUS
 10
323.981720
 20
434.140045
 11
383.406250
 21
434.140045
  0
LINE
  8
0
  6
CONTINUOUS
 10
319.168488
 20
430.493774
 11
318.225250
 21
427.140045
  0
ARC
  8
0
  6
CONTINUOUS
 10
323.981720
 20
429.140045
 40
5.000000
 50
90.000000
 51
164.291367
  0
LINE
  8
0
  6
CONTINUOUS
 10
318.225250
 20
427.140045
 11
313.513000
 21
427.140045
  0
LINE
  8
0
  6
CONTINUOUS
 10
308.699738
 20
423.493774
 11
307.809296
 21
420.327820
  0
ARC
  8
0
  6
CONTINUOUS
 10
313.513000
 20
422.140045
 40
5.000000
 50
90.000000
 51
164.291367
  0
ARC
  8
0
  6
CONTINUOUS
 10
304.921356
 20
421.140045
 40
3.000000
 50
-90.000000
 51
-15.708638
  0
LINE
  8
0
  6
CONTINUOUS
 10
388.219513
 20
430.493774
 11
389.162750
 21
427.140045
  0
ARC
  8
0
  6
CONTINUOUS
 10
383.406250
 20
429.140045
 40
5.000000
 50
15.708638
 51
90.000000
  0
LINE
  8
0
  6
CONTINUOUS
 10
389.162750
 20
427.140045
 11
393.875000
 21
427.140045
  0
LINE
  8
0
  6
CONTINUOUS
 10
398.688263
 20
423.493774
 11
399.578674
 21
420.327820
  0
ARC
  8
0
  6
CONTINUOUS
 10
393.875000
 20
422.140045
 40
5.000000
 50
15.708638
 51
90.000000
  0
ARC
  8
0
  6
CONTINUOUS
 10
402.466644
 20
421.140045
 40
3.000000
 50
195.708633
 51
270.000000
  0
LINE
  8
0
  6
CONTINUOUS
 10
407.383881
 20
321.447388
 11
415.461731
 21
343.899841
  0
ARC
  8
0
  6
CONTINUOUS
 10
402.679108
 20
323.140045
 40
5.000000
 50
270.000000
 51
340.212524
  0
LINE
  8
0
  6
CONTINUOUS
 10
407.383881
 20
440.832703
 11
415.445892
 21
418.424286
  0
ARC
  8
0
  6
CONTINUOUS
 10
402.679108
 20
439.140045
 40
5.000000
 50
19.787489
 51
90.000000
  0
LINE
  8
0
  6
CONTINUOUS
 10
402.679108
 20
318.140045
 11
367.694000
 21
318.140045
  0
LINE
  8
0
  6
CENTER
 10
313.694000
 20
320.026764
 11
313.694000
 21
339.468170
  0
LINE
  8
0
  6
CENTER
 10
323.604889
 20
331.140045
 11
305.086334
 21
331.140045
  0
ARC
  8
0
  6
CONTINUOUS
 10
313.694000
 20
331.140045
 40
5.500000
 50
-239.465683
 51
7.598493
  0
ARC
  8
0
  6
CONTINUOUS
 10
393.694000
 20
331.140045
 40
5.500000
 50
-187.598602
 51
59.465683
  0
LINE
  8
0
  6
CENTER
 10
393.694000
 20
320.026764
 11
393.694000
 21
339.468170
  0
LINE
  8
0
  6
CENTER
 10
383.783112
 20
331.140045
 11
402.301666
 21
331.140045
  0
ARC
  8
0
  6
CONTINUOUS
 10
393.694000
 20
431.140045
 40
5.500000
 50
-59.465683
 51
187.598602
  0
LINE
  8
0
  6
CENTER
 10
383.783112
 20
431.140045
 11
402.301666
 21
431.140045
  0
LINE
  8
0
  6
CENTER
 10
393.694000
 20
442.253326
 11
393.694000
 21
422.811920
  0
LINE
  8
0
  6
CENTER
 10
313.694000
 20
442.253326
 11
313.694000
 21
422.811920
  0
LINE
  8
0
  6
CENTER
 10
323.604889
 20
431.140045
 11
305.086334
 21
431.140045
  0
ARC
  8
0
  6
CONTINUOUS
 10
313.694000
 20
431.140045
 40
5.500000
 50
-7.598608
 51
239.465683
  0
LINE
  8
0
  6
CONTINUOUS
 10
329.694000
 20
415.140045
 11
329.694000
 21
347.140045
  0
LINE
  8
0
  6
CONTINUOUS
 10
377.694000
 20
415.140045
 11
377.694000
 21
347.140045
  0
LINE
  8
0
  6
CONTINUOUS
 10
418.613708
 20
421.845947
 11
423.862335
 21
441.434143
  0
LINE
  8
0
  6
CONTINUOUS
 10
419.117401
 20
435.992096
 11
418.761414
 21
422.397278
  0
ARC
  8
0
  6
CONTINUOUS
 10
422.116394
 20
435.913483
 40
3.000000
 50
102.198799
 51
178.499802
  0
ARC
  8
0
  6
CONTINUOUS
 10
420.848602
 20
441.778076
 40
3.000000
 50
282.198792
 51
345.000031
  0
ARC
  8
0
  6
CONTINUOUS
 10
422.116394
 20
326.913483
 40
3.000000
 50
181.500198
 51
257.801208
  0
LINE
  8
0
  6
CONTINUOUS
 10
419.117401
 20
326.834930
 11
418.761414
 21
340.429718
  0
ARC
  8
0
  6
CONTINUOUS
 10
420.848602
 20
321.048950
 40
3.000000
 50
15.000100
 51
77.801201
  0
LINE
  8
0
  6
CONTINUOUS
 10
428.765198
 20
317.140045
 11
436.194000
 21
317.140045
  0
LINE
  8
0
  6
CONTINUOUS
 10
424.008820
 20
320.845978
 11
418.686981
 21
340.707550
  0
ARC
  8
0
  6
CONTINUOUS
 10
413.784088
 20
423.140045
 40
5.000000
 50
270.000000
 51
345.000031
  0
ARC
  8
0
  6
CONTINUOUS
 10
413.930634
 20
339.140045
 40
5.000000
 50
14.999843
 51
90.000000
  0
LINE
  8
0
  6
CONTINUOUS
 10
336.694000
 20
281.140045
 11
367.694000
 21
281.140045
  0
LINE
  8
0
  6
CONTINUOUS
 10
367.694000
 20
326.140045
 11
367.694000
 21
281.140045
  0
LINE
  8
0
  6
CONTINUOUS
 10
339.694000
 20
326.140045
 11
339.694000
 21
321.140045
  0
LINE
  8
0
  6
CONTINUOUS
 10
368.694000
 20
326.140045
 11
338.694000
 21
326.140045
  0
LINE
  8
0
  6
CONTINUOUS
 10
338.694000
 20
328.140045
 11
338.694000
 21
326.140045
  0
LINE
  8
0
  6
CONTINUOUS
 10
368.694000
 20
328.140045
 11
368.694000
 21
326.140045
  0
LINE
  8
0
  6
CONTINUOUS
 10
336.694000
 20
318.140045
 11
304.708862
 21
318.140045
  0
LINE
  8
0
  6
CONTINUOUS
 10
340.277588
 20
321.140045
 11
336.694000
 21
321.140045
  0
LINE
  8
0
  6
CONTINUOUS
 10
340.277588
 20
321.140045
 11
340.277588
 21
281.140045
  0
LINE
  8
0
  6
CONTINUOUS
 10
336.694000
 20
281.140045
 11
336.694000
 21
321.140045
  0
LINE
  8
0
  6
CONTINUOUS
 10
353.694000
 20
444.140045
 11
304.708862
 21
444.140045
  0
LINE
  8
0
  6
CONTINUOUS
 10
436.194000
 20
445.140045
 11
428.691956
 21
445.140045
  0
ARC
  8
0
  6
CONTINUOUS
 10
428.691956
 20
440.140045
 40
5.000000
 50
90.000000
 51
165.000031
  0
ARC
  8
0
  6
CONTINUOUS
 10
428.838470
 20
322.140045
 40
5.000000
 50
194.999847
 51
270.000000
  0
LINE
  8
0
  6
CONTINUOUS
 10
416.194000
 20
381.140045
 11
415.599609
 21
347.087708
  0
LINE
  8
0
  6
CONTINUOUS
 10
416.194000
 20
381.140045
 11
415.599609
 21
415.192413
  0
ARC
  8
0
  6
CONTINUOUS
 10
412.600067
 20
347.140045
 40
3.000000
 50
270.000000
 51
359.000000
  0
ARC
  8
0
  6
CONTINUOUS
 10
412.600067
 20
415.140045
 40
3.000000
 50
1.000000
 51
90.000000
  0
LINE
  8
0
  6
CONTINUOUS
 10
37.347610
 20
31.039053
 11
56.858387
 21
34.791115
  0
ARC
  8
0
  6
CONTINUOUS
 10
97.102997
 20
99.415077
 40
64.000099
 50
-54.681290
 51
20.105476
  0
ARC
  8
0
  6
CONTINUOUS
 10
97.102997
 20
99.415077
 40
64.000099
 50
145.906479
 51
234.681290
  0
ARC
  8
0
  6
CONTINUOUS
 10
38.103001
 20
26.415077
 40
4.000000
 50
90.000000
 51
180.000000
  0
ARC
  8
0
  6
CONTINUOUS
 10
38.103001
 20
27.111015
 40
4.000000
 50
100.885529
 51
180.000000
  0
ARC
  8
0
  6
CONTINUOUS
 10
56.103001
 20
38.719139
 40
4.000000
 50
-79.114502
 51
0.000000
  0
ARC
  8
0
  6
CONTINUOUS
 10
56.103001
 20
34.415077
 40
4.000000
 50
-90.000000
 51
0.000000
  0
LINE
  8
0
  6
CONTINUOUS
 10
156.858383
 20
31.039053
 11
137.347610
 21
34.791115
  0
ARC
  8
0
  6
CONTINUOUS
 10
156.102997
 20
26.415077
 40
4.000000
 50
0.000000
 51
90.000000
  0
ARC
  8
0
  6
CONTINUOUS
 10
156.102997
 20
27.111015
 40
4.000000
 50
0.000000
 51
79.114471
  0
ARC
  8
0
  6
CONTINUOUS
 10
138.102997
 20
38.719139
 40
4.000000
 50
180.000000
 51
259.114502
  0
ARC
  8
0
  6
CONTINUOUS
 10
138.102997
 20
34.415077
 40
4.000000
 50
180.000000
 51
270.000000
  0
LINE
  8
0
  6
CONTINUOUS
 10
436.194000
 20
317.140045
 11
436.194000
 21
445.140045
  0
LINE
  8
0
  6
CONTINUOUS
 10
490.694000
 20
65.909081
 11
446.694000
 21
65.909081
  0
LINE
  8
0
  6
CONTINUOUS
 10
490.694000
 20
50.896076
 11
436.194000
 21
50.896080
  0
LINE
  8
0
  6
CONTINUOUS
 10
444.126038
 20
58.848080
 11
436.194000
 21
58.848080
  0
LINE
  8
0
  6
CONTINUOUS
 10
444.694000
 20
60.062813
 11
444.694000
 21
161.415207
  0
ARC
  8
0
  6
CONTINUOUS
 10
447.193939
 20
37.394501
 40
2.500000
 50
92.000000
 51
179.739227
  0
ARC
  8
0
  6
CONTINUOUS
 10
447.194000
 20
140.950607
 40
2.500000
 50
180.000000
 51
225.000000
  0
ARC
  8
0
  6
CONTINUOUS
 10
452.908508
 20
135.236099
 40
2.500000
 50
-135.000000
 51
-92.000000
  0
LINE
  8
0
  6
CONTINUOUS
 10
444.694000
 20
443.140045
 11
444.694000
 21
319.140045
  0
LINE
  8
0
  6
CONTINUOUS
 10
490.694000
 20
336.140045
 11
447.130371
 21
334.618774
  0
LINE
  8
0
  6
CONTINUOUS
 10
490.694000
 20
426.140045
 11
447.130371
 21
427.661316
  0
LINE
  8
0
  6
CONTINUOUS
 10
490.694000
 20
332.128052
 11
490.694000
 21
430.152039
  0
LINE
  8
0
  6
CONTINUOUS
 10
442.694000
 20
317.140045
 11
436.194000
 21
317.140045
  0
LINE
  8
0
  6
CONTINUOUS
 10
442.694000
 20
445.140045
 11
436.194000
 21
445.140045
  0
LINE
  8
0
  6
CONTINUOUS
 10
451.837006
 20
357.140045
 11
444.722015
 21
357.140045
  0
LINE
  8
0
  6
CONTINUOUS
 10
451.231842
 20
405.140045
 11
444.722015
 21
405.140045
  0
LINE
  8
0
  6
CONTINUOUS
 10
451.837006
 20
359.344543
 11
451.837006
 21
403.057129
  0
LINE
  8
0
  6
CONTINUOUS
 10
499.694000
 20
338.140045
 11
499.694000
 21
352.140045
  0
LINE
  8
0
  6
CONTINUOUS
 10
609.693970
 20
336.140045
 11
490.694000
 21
336.140045
  0
LINE
  8
0
  6
CONTINUOUS
 10
609.693970
 20
426.140045
 11
490.694000
 21
426.140045
  0
LINE
  8
0
  6
CONTINUOUS
 10
609.693970
 20
336.140045
 11
609.693970
 21
374.274017
  0
LINE
  8
0
  6
CONTINUOUS
 10
609.693970
 20
352.140045
 11
499.694000
 21
352.140045
  0
LINE
  8
0
  6
CONTINUOUS
 10
609.693970
 20
410.140045
 11
499.694000
 21
410.140045
  0
ARC
  8
0
  6
CONTINUOUS
 10
497.694000
 20
338.140045
 40
2.000000
 50
-90.000000
 51
0.000000
  0
ARC
  8
0
  6
CONTINUOUS
 10
497.694000
 20
424.140045
 40
2.000000
 50
0.000000
 51
90.000000
  0
LINE
  8
0
  6
CONTINUOUS
 10
630.193970
 20
416.140045
 11
630.193970
 21
346.140045
  0
LINE
  8
0
  6
CONTINUOUS
 10
625.652527
 20
336.140045
 11
609.693970
 21
336.140045
  0
LINE
  8
0
  6
CONTINUOUS
 10
629.693970
 20
339.140045
 11
629.693970
 21
423.140045
  0
LINE
  8
0
  6
CONTINUOUS
 10
609.693970
 20
352.140045
 11
627.943970
 21
352.140045
  0
LINE
  8
0
  6
CONTINUOUS
 10
629.116638
 20
338.140076
 11
629.693970
 21
339.140045
  0
ARC
  8
0
  6
CONTINUOUS
 10
625.652527
 20
340.140045
 40
4.000000
 50
270.000000
 51
330.000397
  0
LINE
  8
0
  6
CONTINUOUS
 10
625.652527
 20
426.140045
 11
609.693970
 21
426.140045
  0
LINE
  8
0
  6
CONTINUOUS
 10
609.693970
 20
410.140045
 11
627.943970
 21
410.140045
  0
LINE
  8
0
  6
CONTINUOUS
 10
629.116638
 20
424.140045
 11
629.693970
 21
423.140045
  0
ARC
  8
0
  6
CONTINUOUS
 10
625.652527
 20
422.140076
 40
4.000000
 50
29.999599
 51
90.000000
  0
LINE
  8
0
  6
CONTINUOUS
 10
630.193970
 20
346.140045
 11
629.693970
 21
345.640045
  0
LINE
  8
0
  6
CONTINUOUS
 10
630.193970
 20
416.140045
 11
629.693970
 21
416.640045
  0
LINE
  8
0
  6
CONTINUOUS
 10
490.694000
 20
336.140045
 11
490.694000
 21
426.140045
  0
ARC
  8
0
  6
CONTINUOUS
 10
442.694000
 20
319.140045
 40
2.000000
 50
-90.000000
 51
0.000000
  0
ARC
  8
0
  6
CONTINUOUS
 10
442.694000
 20
443.140045
 40
2.000000
 50
0.000000
 51
90.000000
  0
ARC
  8
0
  6
CONTINUOUS
 10
447.217621
 20
332.120300
 40
2.500000
 50
92.000000
 51
179.895706
  0
ARC
  8
0
  6
CONTINUOUS
 10
447.217621
 20
430.159790
 40
2.500000
 50
180.104294
 51
268.000000
  0
LINE
  8
0
  6
CONTINUOUS
 10
444.694000
 20
334.533691
 11
444.722015
 21
334.534668
  0
LINE
  8
0
  6
CONTINUOUS
 10
490.194305
 20
331.610596
 11
444.694000
 21
330.021698
  0
LINE
  8
0
  6
CONTINUOUS
 10
490.694000
 20
332.128052
 11
490.194305
 21
331.610596
  0
LINE
  8
0
  6
CONTINUOUS
 10
490.194305
 20
430.669495
 11
444.694000
 21
432.258392
  0
LINE
  8
0
  6
CONTINUOUS
 10
490.694000
 20
430.152039
 11
490.194305
 21
430.669495
  0
LINE
  8
0
  6
CONTINUOUS
 10
616.193970
 20
387.140045
 11
616.193970
 21
375.140045
  0
LINE
  8
0
  6
CONTINUOUS
 10
609.193970
 20
387.140045
 11
609.193970
 21
375.140045
  0
LINE
  8
0
  6
CONTINUOUS
 10
615.193970
 20
374.140045
 11
610.193970
 21
374.140045
  0
LINE
  8
0
  6
CONTINUOUS
 10
610.193970
 20
388.140045
 11
615.193970
 21
388.140045
  0
ARC
  8
0
  6
CONTINUOUS
 10
610.193970
 20
375.140045
 40
1.000000
 50
180.000000
 51
270.000000
  0
ARC
  8
0
  6
CONTINUOUS
 10
615.193970
 20
375.140045
 40
1.000000
 50
-90.000000
 51
0.000000
  0
ARC
  8
0
  6
CONTINUOUS
 10
615.193970
 20
387.140045
 40
1.000000
 50
0.000000
 51
90.000000
  0
ARC
  8
0
  6
CONTINUOUS
 10
610.193970
 20
387.140045
 40
1.000000
 50
90.000000
 51
180.000000
  0
LINE
  8
0
  6
CONTINUOUS
 10
611.693970
 20
384.640045
 11
611.693970
 21
377.640045
  0
LINE
  8
0
  6
CONTINUOUS
 10
613.693970
 20
384.640045
 11
613.693970
 21
377.640045
  0
ARC
  8
0
  6
CONTINUOUS
 10
612.693970
 20
377.640045
 40
1.000000
 50
-90.000000
 51
0.000000
  0
ARC
  8
0
  6
CONTINUOUS
 10
612.693970
 20
377.640045
 40
1.000000
 50
180.000000
 51
270.000000
  0
ARC
  8
0
  6
CONTINUOUS
 10
612.693970
 20
384.640045
 40
1.000000
 50
0.000000
 51
90.000000
  0
ARC
  8
0
  6
CONTINUOUS
 10
612.693970
 20
384.640045
 40
1.000000
 50
90.000000
 51
180.000000
  0
LINE
  8
0
  6
CONTINUOUS
 10
609.693970
 20
388.006073
 11
609.693970
 21
426.140045
  0
LINE
  8
0
  6
CONTINUOUS
 10
291.194000
 20
160.786697
 11
291.194000
 21
15.415078
  0
LINE
  8
0
  6
CONTINUOUS
 10
416.194000
 20
15.415078
 11
291.194000
 21
15.415078
  0
LINE
  8
0
  6
CENTER
 10
402.703125
 20
135.415085
 11
302.270325
 21
135.415085
  0
LINE
  8
0
  6
CENTER
 10
353.694000
 20
206.915039
 11
353.694000
 21
4.665078
  0
LINE
  8
0
  6
CONTINUOUS
 10
376.139587
 20
189.915039
 11
331.248383
 21
189.915039
  0
LINE
  8
0
  6
CONTINUOUS
 10
328.413605
 20
189.033737
 11
293.359192
 21
164.905319
  0
LINE
  8
0
  6
CONTINUOUS
 10
413.194000
 20
30.415077
 11
294.194000
 21
30.415077
  0
LINE
  8
0
  6
CONTINUOUS
 10
301.194000
 20
28.877581
 11
301.194000
 21
15.415078
  0
LINE
  8
0
  6
CONTINUOUS
 10
405.194000
 20
28.877581
 11
405.194000
 21
15.415078
  0
LINE
  8
0
  6
CENTER
 10
313.694000
 20
37.665077
 11
313.694000
 21
8.665078
  0
LINE
  8
0
  6
CENTER
 10
393.694000
 20
37.665077
 11
393.694000
 21
9.915078
  0
LINE
  8
0
  6
DASHED
 10
308.194000
 20
30.415077
 11
308.194000
 21
15.415078
  0
LINE
  8
0
  6
DASHED
 10
319.194000
 20
30.415077
 11
319.194000
 21
15.415078
  0
LINE
  8
0
  6
DASHED
 10
388.194000
 20
30.415077
 11
388.194000
 21
15.415078
  0
LINE
  8
0
  6
DASHED
 10
399.194000
 20
30.415077
 11
399.194000
 21
15.415078
  0
ARC
  8
0
  6
CONTINUOUS
 10
373.694000
 20
85.415077
 40
26.500000
 50
-90.000000
 51
9.470901
  0
ARC
  8
0
  6
CONTINUOUS
 10
333.694000
 20
85.415077
 40
26.500000
 50
170.529099
 51
270.000000
  0
LINE
  8
0
  6
CONTINUOUS
 10
399.832794
 20
89.775551
 11
391.175995
 21
141.667801
  0
LINE
  8
0
  6
CONTINUOUS
 10
316.212006
 20
141.667923
 11
307.555206
 21
89.775581
  0
LINE
  8
0
  6
CONTINUOUS
 10
373.694000
 20
58.915077
 11
333.694000
 21
58.915077
  0
ARC
  8
0
  6
CONTINUOUS
 10
296.194000
 20
160.786636
 40
5.000000
 50
124.539902
 51
180.000000
  0
ARC
  8
0
  6
CONTINUOUS
 10
331.248383
 20
184.915039
 40
5.000000
 50
90.000000
 51
124.539902
  0
ARC
  8
0
  6
CONTINUOUS
 10
376.105591
 20
184.915039
 40
5.000000
 50
88.961128
 51
90.000000
  0
LINE
  8
0
  6
CONTINUOUS
 10
416.194000
 20
15.415078
 11
416.194000
 21
47.815098
  0
ARC
  8
0
  6
CONTINUOUS
 10
373.694000
 20
85.415077
 40
24.000000
 50
-90.000000
 51
9.470790
  0
ARC
  8
0
  6
CONTINUOUS
 10
333.694000
 20
85.415077
 40
24.000000
 50
170.528992
 51
271.534393
  0
LINE
  8
0
  6
CONTINUOUS
 10
373.694000
 20
61.415077
 11
333.694000
 21
61.415077
  0
CIRCLE
  8
0
  6
CONTINUOUS
 10
353.694000
 20
135.415085
 40
33.500000
  0
ARC
  8
0
  6
CONTINUOUS
 10
353.694000
 20
135.415085
 40
38.000000
 50
9.471016
 51
170.529007
  0
ARC
  8
0
  6
CONTINUOUS
 10
353.694000
 20
135.415085
 40
35.500000
 50
-189.597305
 51
7.618591
  0
LINE
  8
0
  6
CONTINUOUS
 10
397.366791
 20
89.364174
 11
388.710205
 21
141.256485
  0
LINE
  8
0
  6
CONTINUOUS
 10
318.678009
 20
141.256516
 11
310.021210
 21
89.364227
  0
LINE
  8
0
  6
CONTINUOUS
 10
417.748352
 20
163.415176
 11
436.194000
 21
163.415176
  0
LINE
  8
0
  6
CONTINUOUS
 10
436.194000
 20
35.414982
 11
421.194000
 21
35.414982
  0
LINE
  8
0
  6
CONTINUOUS
 10
414.913452
 20
164.296524
 11
378.974396
 21
189.033707
  0
ARC
  8
0
  6
CONTINUOUS
 10
376.139587
 20
184.915039
 40
5.000000
 50
55.459671
 51
90.000000
  0
ARC
  8
0
  6
CONTINUOUS
 10
411.194000
 20
160.786682
 40
5.000000
 50
0.000000
 51
55.459560
  0
ARC
  8
0
  6
CONTINUOUS
 10
421.194000
 20
30.414963
 40
5.000000
 50
90.000000
 51
180.000000
  0
ARC
  8
0
  6
CONTINUOUS
 10
413.194000
 20
27.415100
 40
3.000000
 50
0.000000
 51
90.000000
  0
ARC
  8
0
  6
CONTINUOUS
 10
294.194000
 20
27.415077
 40
3.000000
 50
90.000000
 51
180.000000
  0
LINE
  8
0
  6
CONTINUOUS
 10
343.397583
 20
71.415077
 11
339.237183
 21
71.415077
  0
LINE
  8
0
  6
CONTINUOUS
 10
345.694000
 20
78.383820
 11
345.694000
 21
71.415077
  0
LINE
  8
0
  6
CONTINUOUS
 10
349.694000
 20
80.915077
 11
349.694000
 21
83.415077
  0
LINE
  8
0
  6
CONTINUOUS
 10
357.694000
 20
80.915077
 11
357.694000
 21
83.415077
  0
LINE
  8
0
  6
CONTINUOUS
 10
352.912781
 20
81.946327
 11
352.912781
 21
72.727577
  0
LINE
  8
0
  6
CONTINUOUS
 10
354.412781
 20
81.946327
 11
354.412781
 21
72.727577
  0
LINE
  8
0
  6
CONTINUOUS
 10
362.287781
 20
81.946327
 11
362.287781
 21
72.665077
  0
LINE
  8
0
  6
CONTINUOUS
 10
363.662781
 20
77.024460
 11
363.662781
 21
72.665077
  0
LINE
  8
0
  6
CONTINUOUS
 10
343.795990
 20
81.821327
 11
339.941010
 21
81.821327
  0
LINE
  8
0
  6
CONTINUOUS
 10
339.941010
 20
81.821327
 11
339.037781
 21
80.701332
  0
LINE
  8
0
  6
CONTINUOUS
 10
339.146393
 20
83.415077
 11
337.694000
 21
81.555321
  0
LINE
  8
0
  6
CONTINUOUS
 10
339.037781
 20
73.787994
 11
339.955383
 21
72.821320
  0
LINE
  8
0
  6
CONTINUOUS
 10
337.694000
 20
72.972237
 11
339.237183
 21
71.415077
  0
LINE
  8
0
  6
CONTINUOUS
 10
337.694000
 20
81.555321
 11
337.694000
 21
72.972237
  0
LINE
  8
0
  6
CONTINUOUS
 10
339.037781
 20
80.701332
 11
339.037781
 21
73.787994
  0
LINE
  8
0
  6
CONTINUOUS
 10
344.537781
 20
81.104225
 11
343.780792
 21
81.821327
  0
LINE
  8
0
  6
CONTINUOUS
 10
344.525787
 20
83.415077
 11
345.694000
 21
82.118591
  0
LINE
  8
0
  6
CONTINUOUS
 10
344.537781
 20
80.915077
 11
345.694000
 21
80.915077
  0
LINE
  8
0
  6
CONTINUOUS
 10
339.146393
 20
83.415077
 11
344.525787
 21
83.415077
  0
LINE
  8
0
  6
CONTINUOUS
 10
342.444000
 20
78.383820
 11
345.694000
 21
78.383820
  0
LINE
  8
0
  6
CONTINUOUS
 10
344.537781
 20
77.071320
 11
342.444000
 21
77.071320
  0
LINE
  8
0
  6
CONTINUOUS
 10
342.037781
 20
72.821320
 11
339.955383
 21
72.821320
  0
LINE
  8
0
  6
CONTINUOUS
 10
344.537781
 20
75.821320
 11
344.537781
 21
76.821320
  0
ARC
  8
0
  6
CONTINUOUS
 10
342.037781
 20
75.321320
 40
2.500000
 50
-89.999786
 51
0.000109
  0
LINE
  8
0
  6
CONTINUOUS
 10
344.537781
 20
72.371635
 11
344.537781
 21
71.415077
  0
LINE
  8
0
  6
CONTINUOUS
 10
345.694000
 20
82.118591
 11
345.694000
 21
80.915077
  0
LINE
  8
0
  6
CONTINUOUS
 10
344.537781
 20
77.071320
 11
344.537781
 21
75.321320
  0
LINE
  8
0
  6
CONTINUOUS
 10
342.444000
 20
78.383820
 11
342.444000
 21
77.071320
  0
LINE
  8
0
  6
CONTINUOUS
 10
344.537781
 20
71.415077
 11
345.694000
 21
71.415077
  0
LINE
  8
0
  6
CONTINUOUS
 10
344.537781
 20
72.371635
 11
343.397583
 21
71.415077
  0
LINE
  8
0
  6
CONTINUOUS
 10
354.412781
 20
72.727577
 11
354.912781
 21
72.727577
  0
LINE
  8
0
  6
CONTINUOUS
 10
352.319000
 20
72.727577
 11
352.319000
 21
71.415077
  0
LINE
  8
0
  6
CONTINUOUS
 10
354.912781
 20
72.727577
 11
354.912781
 21
71.415077
  0
LINE
  8
0
  6
CONTINUOUS
 10
356.859589
 20
80.915077
 11
357.694000
 21
80.915077
  0
LINE
  8
0
  6
CONTINUOUS
 10
349.694000
 20
80.915077
 11
350.582001
 21
80.915077
  0
LINE
  8
0
  6
CONTINUOUS
 10
349.694000
 20
83.415077
 11
357.694000
 21
83.415077
  0
LINE
  8
0
  6
CONTINUOUS
 10
352.319000
 20
71.415077
 11
354.912781
 21
71.415077
  0
LINE
  8
0
  6
CONTINUOUS
 10
352.319000
 20
72.727577
 11
352.912781
 21
72.727577
  0
ARC
  8
0
  6
CONTINUOUS
 10
366.490997
 20
80.211952
 40
3.203128
 50
-73.981873
 51
90.003510
  0
ARC
  8
0
  6
CONTINUOUS
 10
366.490997
 20
80.211952
 40
1.954124
 50
-82.585274
 51
62.411850
  0
LINE
  8
0
  6
CONTINUOUS
 10
361.694000
 20
83.415077
 11
366.490997
 21
83.415077
  0
LINE
  8
0
  6
CONTINUOUS
 10
366.742981
 20
78.274155
 11
363.662781
 21
78.274155
  0
LINE
  8
0
  6
CONTINUOUS
 10
361.694000
 20
83.415077
 11
361.694000
 21
81.946327
  0
LINE
  8
0
  6
CONTINUOUS
 10
363.662781
 20
81.946327
 11
363.662781
 21
78.274155
  0
LINE
  8
0
  6
CONTINUOUS
 10
367.374786
 20
77.133202
 11
369.357391
 21
72.665077
  0
LINE
  8
0
  6
CONTINUOUS
 10
366.223206
 20
77.024460
 11
368.099396
 21
72.665077
  0
LINE
  8
0
  6
CONTINUOUS
 10
361.694000
 20
72.665077
 11
362.287781
 21
72.665077
  0
LINE
  8
0
  6
CONTINUOUS
 10
363.662781
 20
72.665077
 11
364.209595
 21
72.665077
  0
LINE
  8
0
  6
CONTINUOUS
 10
364.209595
 20
71.415077
 11
361.694000
 21
71.415077
  0
LINE
  8
0
  6
CONTINUOUS
 10
367.850189
 20
72.665077
 11
368.099396
 21
72.665077
  0
LINE
  8
0
  6
CONTINUOUS
 10
369.357391
 20
72.665077
 11
369.694000
 21
72.665077
  0
LINE
  8
0
  6
CONTINUOUS
 10
367.850189
 20
71.415077
 11
369.694000
 21
71.415077
  0
LINE
  8
0
  6
CONTINUOUS
 10
369.694000
 20
72.665077
 11
369.694000
 21
71.415077
  0
LINE
  8
0
  6
CONTINUOUS
 10
367.850189
 20
72.665077
 11
367.850189
 21
71.415077
  0
LINE
  8
0
  6
CONTINUOUS
 10
364.209595
 20
72.665077
 11
364.209595
 21
71.415077
  0
LINE
  8
0
  6
CONTINUOUS
 10
361.694000
 20
72.665077
 11
361.694000
 21
71.415077
  0
LINE
  8
0
  6
CONTINUOUS
 10
351.011810
 20
81.946327
 11
350.582001
 21
80.915077
  0
LINE
  8
0
  6
CONTINUOUS
 10
356.497192
 20
81.946327
 11
356.859589
 21
80.915077
  0
LINE
  8
0
  6
CONTINUOUS
 10
354.412781
 20
81.946327
 11
356.497192
 21
81.946327
  0
LINE
  8
0
  6
CONTINUOUS
 10
352.912781
 20
81.946327
 11
351.011810
 21
81.946327
  0
LINE
  8
0
  6
CONTINUOUS
 10
363.662781
 20
77.024460
 11
366.223206
 21
77.024460
  0
LINE
  8
0
  6
CONTINUOUS
 10
361.694000
 20
81.946327
 11
362.287781
 21
81.946327
  0
LINE
  8
0
  6
CONTINUOUS
 10
363.662781
 20
81.946327
 11
367.395782
 21
81.943901
  0
LINE
  8
0
  6
CONTINUOUS
 10
344.537781
 20
81.104225
 11
344.537781
 21
80.915077
  0
ARC
  8
0
  6
CONTINUOUS
 10
353.694000
 20
113.415085
 40
73.000000
 50
47.590931
 51
132.409302
  0
ARC
  8
0
  6
CONTINUOUS
 10
353.694000
 20
113.415085
 40
73.000000
 50
227.591095
 51
312.409393
  0
LINE
  8
0
  6
CONTINUOUS
 10
412.694000
 20
145.164093
 11
412.694000
 21
81.666069
  0
LINE
  8
0
  6
CONTINUOUS
 10
294.694000
 20
145.164093
 11
294.694000
 21
81.666069
  0
ARC
  8
0
  6
CONTINUOUS
 10
382.694000
 20
145.164093
 40
30.000000
 50
0.000000
 51
47.590950
  0
ARC
  8
0
  6
CONTINUOUS
 10
382.694000
 20
81.666069
 40
30.000000
 50
-47.590061
 51
0.000000
  0
ARC
  8
0
  6
CONTINUOUS
 10
324.694000
 20
145.164093
 40
30.000000
 50
132.409500
 51
180.000000
  0
ARC
  8
0
  6
CONTINUOUS
 10
324.694000
 20
81.666069
 40
30.000000
 50
180.000000
 51
227.591400
  0
LINE
  8
0
  6
CONTINUOUS
 10
343.694000
 20
139.415085
 11
343.694000
 21
131.415085
  0
LINE
  8
0
  6
CONTINUOUS
 10
336.694000
 20
139.415085
 11
336.694000
 21
131.415085
  0
LINE
  8
0
  6
CONTINUOUS
 10
336.694000
 20
139.415085
 11
343.694000
 21
139.415085
  0
LINE
  8
0
  6
CONTINUOUS
 10
336.694000
 20
131.415085
 11
343.694000
 21
131.415085
  0
ARC
  8
0
  6
CONTINUOUS
 10
353.694000
 20
135.415085
 40
14.000000
 50
-163.398499
 51
163.398499
  0
LINE
  8
0
  6
CONTINUOUS
 10
333.694000
 20
35.045853
 11
333.694000
 21
30.415077
  0
LINE
  8
0
  6
CONTINUOUS
 10
335.135864
 20
35.415077
 11
372.252106
 21
35.415077
  0
LINE
  8
0
  6
CONTINUOUS
 10
332.793274
 20
34.289150
 11
330.594757
 21
31.541004
  0
ARC
  8
0
  6
CONTINUOUS
 10
328.252136
 20
33.415077
 40
3.000000
 50
270.000000
 51
321.340454
  0
ARC
  8
0
  6
CONTINUOUS
 10
335.135864
 20
32.415077
 40
3.000000
 50
90.000000
 51
141.340454
  0
LINE
  8
0
  6
CONTINUOUS
 10
373.694000
 20
35.045853
 11
373.694000
 21
30.415077
  0
LINE
  8
0
  6
CONTINUOUS
 10
374.594727
 20
34.289150
 11
376.793213
 21
31.541004
  0
ARC
  8
0
  6
CONTINUOUS
 10
379.135834
 20
33.415077
 40
3.000000
 50
-141.340454
 51
-90.000000
  0
ARC
  8
0
  6
CONTINUOUS
 10
372.252106
 20
32.415077
 40
3.000000
 50
38.659546
 51
90.000000
  0
LINE
  8
0
  6
CONTINUOUS
 10
417.694000
 20
151.015076
 11
417.694000
 21
47.815098
  0
LINE
  8
0
  6
CONTINUOUS
 10
417.694000
 20
151.015076
 11
416.194000
 21
151.015076
  0
LINE
  8
0
  6
CONTINUOUS
 10
417.694000
 20
47.815098
 11
416.194000
 21
47.815098
  0
ARC
  8
0
  6
CONTINUOUS
 10
233.740799
 20
99.415077
 40
191.053177
 50
-15.669100
 51
15.669100
  0
ARC
  8
0
  6
CONTINUOUS
 10
233.740799
 20
99.415077
 40
190.053177
 50
-1.478500
 51
1.451400
  0
LINE
  8
0
  6
CONTINUOUS
 10
421.694000
 20
104.415077
 11
422.698792
 21
104.415077
  0
LINE
  8
0
  6
CONTINUOUS
 10
419.194000
 20
101.915077
 11
419.194000
 21
96.915077
  0
ARC
  8
0
  6
CONTINUOUS
 10
422.698792
 20
105.413475
 40
1.000000
 50
-90.000000
 51
1.817900
  0
ARC
  8
0
  6
CONTINUOUS
 10
421.694000
 20
101.915077
 40
2.500000
 50
90.000000
 51
180.000000
  0
LINE
  8
0
  6
CONTINUOUS
 10
421.694000
 20
94.415077
 11
422.698792
 21
94.415077
  0
ARC
  8
0
  6
CONTINUOUS
 10
422.698792
 20
93.416679
 40
1.000000
 50
-1.817900
 51
90.000000
  0
ARC
  8
0
  6
CONTINUOUS
 10
421.694000
 20
96.915077
 40
2.500000
 50
180.000000
 51
270.000000
  0
LINE
  8
0
  6
CONTINUOUS
 10
416.194000
 20
151.015076
 11
416.194000
 21
160.786667
  0
ARC
  8
0
  6
CONTINUOUS
 10
417.748352
 20
168.415176
 40
5.000000
 50
235.460007
 51
270.000000
  0
LINE
  8
0
  6
CONTINUOUS
 10
499.694000
 20
410.140045
 11
499.694000
 21
424.140076
  0
TEXT
  8
0
 10
25.000000
 20
-1.000000
 40
4.000000
 41
1.000000
  1
HLM-28L-600~900-T60
 50
0.000000
  0
ENDSEC
  0
EOF
