  0
SECTION
  2
HEADER
  9
$CLAYER
  8
1
  9
$LTSCALE
 40
3.0
  0
ENDSEC
  0
SECTION
  2
TABLES
  0
TABLE
  2
LTYPE
 70
     4
  0
LTYPE
  2
CONTINUOUS
  3
solid line
 70
    64
 72
    65
 73
     0
 40
0.0
  0
LTYPE
  2
DASHED
  3
__ __ __ __ __ __ __ __ __ __ __ __ __ __ __
 70
    64
 72
    65
 73
     2
 40
0.75
 49
0.5
 49
-0.25
  0
LTYPE
  2
CENTER
  3
____ _ ____ _ ____ _ ____ _ ____ _ ____ _ ____
 70
    64
 72
    65
 73
     4
 40
2.0
 49
1.25
 49
-0.25
 49
0.25
 49
-0.25
  0
LTYPE
  2
PHANTOM
  3
_____ _ _ _____ _ _ _____ _ _ _____ _ _ ____
 70
    64
 72
    65
 73
     6
 40
2.5
 49
1.25
 49
-0.25
 49
0.25
 49
-0.25
 49
0.25
 49
-0.25
  0
ENDTAB
  0
TABLE
  2
LAYER
 70
     1
  0
LAYER
  2
0
 70
    64
 62
     7
  6
CONTINUOUS
  0
ENDTAB
  0
TABLE
  2
STYLE
 70
     1
  0
STYLE
  2
STANDARD
 70
     0
 40
0.000000
 41
1.000000
 50
0.000000
 71
     0
 42
3.000000
  3
txt
  4
BIGFONT
  0
ENDTAB
  0
ENDSEC
  0
SECTION
  2
BLOCKS
  0
ENDSEC
  0
SECTION
  2
ENTITIES
  0
LINE
  8
0
  6
CONTINUOUS
 10
476.462738
 20
126.317581
 11
476.462738
 21
40.317558
  0
LINE
  8
0
  6
CONTINUOUS
 10
586.462769
 20
128.317581
 11
467.462738
 21
128.317581
  0
LINE
  8
0
  6
CONTINUOUS
 10
586.462769
 20
38.317577
 11
467.462738
 21
38.317577
  0
LINE
  8
0
  6
CONTINUOUS
 10
586.462769
 20
128.317581
 11
586.462769
 21
38.317577
  0
LINE
  8
0
  6
CONTINUOUS
 10
586.462769
 20
117.726875
 11
477.500427
 21
117.726875
  0
LINE
  8
0
  6
CONTINUOUS
 10
586.462769
 20
48.908279
 11
477.500427
 21
48.908279
  0
ARC
  8
0
  6
CONTINUOUS
 10
474.462738
 20
126.317596
 40
2.000000
 50
0.000000
 51
90.000000
  0
ARC
  8
0
  6
CONTINUOUS
 10
474.462738
 20
40.317577
 40
2.000000
 50
-90.000000
 51
0.000000
  0
LINE
  8
0
  6
CONTINUOUS
 10
606.962769
 20
48.317577
 11
606.962769
 21
118.317581
  0
LINE
  8
0
  6
CONTINUOUS
 10
602.421326
 20
128.317581
 11
586.462769
 21
128.317581
  0
LINE
  8
0
  6
CONTINUOUS
 10
606.462769
 20
125.317581
 11
606.462769
 21
41.317577
  0
LINE
  8
0
  6
CONTINUOUS
 10
586.462769
 20
117.726875
 11
604.712769
 21
117.726875
  0
LINE
  8
0
  6
CONTINUOUS
 10
605.885376
 20
126.317558
 11
606.462769
 21
125.317581
  0
ARC
  8
0
  6
CONTINUOUS
 10
602.421265
 20
124.317581
 40
4.000000
 50
29.999599
 51
90.000000
  0
LINE
  8
0
  6
CONTINUOUS
 10
602.421326
 20
38.317577
 11
586.462769
 21
38.317577
  0
LINE
  8
0
  6
CONTINUOUS
 10
586.462769
 20
48.908279
 11
604.712769
 21
48.908279
  0
LINE
  8
0
  6
CONTINUOUS
 10
605.885376
 20
40.317577
 11
606.462769
 21
41.317577
  0
ARC
  8
0
  6
CONTINUOUS
 10
602.421265
 20
42.317558
 40
4.000000
 50
270.000000
 51
330.000397
  0
LINE
  8
0
  6
CONTINUOUS
 10
606.962769
 20
118.317581
 11
606.462769
 21
118.817581
  0
LINE
  8
0
  6
CONTINUOUS
 10
606.962769
 20
48.317577
 11
606.462769
 21
47.817577
  0
LINE
  8
0
  6
CENTER
 10
495.600006
 20
96.317581
 11
369.212738
 21
96.317581
  0
LINE
  8
0
  6
CONTINUOUS
 10
412.962738
 20
96.317581
 11
412.962738
 21
32.317478
  0
LINE
  8
0
  6
CONTINUOUS
 10
412.962738
 20
96.317581
 11
412.962738
 21
160.317673
  0
LINE
  8
0
  6
CONTINUOUS
 10
110.715500
 20
43.317577
 11
110.715500
 21
47.296299
  0
LINE
  8
0
  6
CONTINUOUS
 10
20.715500
 20
43.317577
 11
20.715500
 21
47.296238
  0
LINE
  8
0
  6
CONTINUOUS
 10
25.715500
 20
38.317577
 11
28.715500
 21
38.317577
  0
LINE
  8
0
  6
CONTINUOUS
 10
105.715500
 20
38.317577
 11
102.715500
 21
38.317577
  0
ARC
  8
0
  6
CONTINUOUS
 10
25.715500
 20
43.317577
 40
5.000000
 50
180.000000
 51
270.000000
  0
ARC
  8
0
  6
CONTINUOUS
 10
105.715500
 20
43.317577
 40
5.000000
 50
-90.000000
 51
0.000000
  0
ARC
  8
0
  6
CONTINUOUS
 10
106.727898
 20
55.305618
 40
8.000000
 50
306.780975
 51
358.958740
  0
ARC
  8
0
  6
CONTINUOUS
 10
24.703300
 20
55.305359
 40
8.000000
 50
181.041107
 51
233.216995
  0
ARC
  8
0
  6
CONTINUOUS
 10
112.715500
 20
47.296318
 40
2.000000
 50
126.781197
 51
180.000000
  0
ARC
  8
0
  6
CONTINUOUS
 10
18.715500
 20
47.296238
 40
2.000000
 50
0.000000
 51
53.217121
  0
LINE
  8
0
  6
CENTER
 10
65.715500
 20
-5.011262
 11
65.715500
 21
208.236893
  0
LINE
  8
0
  6
CENTER
 10
-4.593250
 20
132.317581
 11
182.752502
 21
132.317581
  0
LINE
  8
0
  6
CONTINUOUS
 10
2.715500
 20
12.317578
 11
38.215500
 21
12.317578
  0
LINE
  8
0
  6
CONTINUOUS
 10
6.715500
 20
27.317577
 11
24.715500
 21
27.317577
  0
LINE
  8
0
  6
CONTINUOUS
 10
124.715500
 20
27.317577
 11
106.715500
 21
27.317577
  0
LINE
  8
0
  6
CONTINUOUS
 10
30.215500
 20
160.317581
 11
100.965500
 21
160.317581
  0
LINE
  8
0
  6
CONTINUOUS
 10
99.767899
 20
186.223465
 11
65.715500
 21
186.817581
  0
LINE
  8
0
  6
CONTINUOUS
 10
31.663099
 20
186.223053
 11
65.715500
 21
186.817581
  0
LINE
  8
0
  6
CONTINUOUS
 10
102.715500
 20
183.223923
 11
102.715500
 21
12.317558
  0
LINE
  8
0
  6
CONTINUOUS
 10
28.715500
 20
183.223511
 11
28.715500
 21
12.317578
  0
LINE
  8
0
  6
CONTINUOUS
 10
12.715500
 20
102.605309
 11
12.715500
 21
162.029816
  0
LINE
  8
0
  6
CONTINUOUS
 10
118.715500
 20
162.029831
 11
118.715500
 21
102.605316
  0
LINE
  8
0
  6
CONTINUOUS
 10
19.715500
 20
62.117996
 11
19.715500
 21
134.817581
  0
LINE
  8
0
  6
CONTINUOUS
 10
111.715500
 20
62.117996
 11
111.715500
 21
134.817581
  0
LINE
  8
0
  6
CONTINUOUS
 10
128.715500
 20
24.013515
 11
128.715500
 21
12.317578
  0
LINE
  8
0
  6
CONTINUOUS
 10
2.715500
 20
24.013515
 11
2.715500
 21
12.317578
  0
LINE
  8
0
  6
CENTER
 10
15.715500
 20
35.317577
 11
15.715500
 21
0.964178
  0
LINE
  8
0
  6
CENTER
 10
115.715500
 20
35.817577
 11
115.715500
 21
0.964178
  0
LINE
  8
0
  6
DASHED
 10
10.215500
 20
27.317577
 11
10.215500
 21
12.317578
  0
LINE
  8
0
  6
DASHED
 10
21.215500
 20
27.317577
 11
21.215500
 21
12.317578
  0
LINE
  8
0
  6
DASHED
 10
110.215500
 20
27.317577
 11
110.215500
 21
12.317578
  0
LINE
  8
0
  6
DASHED
 10
121.215500
 20
27.317577
 11
121.215500
 21
12.317578
  0
ARC
  8
0
  6
CONTINUOUS
 10
31.715500
 20
183.223541
 40
3.000000
 50
91.000526
 51
180.000000
  0
ARC
  8
0
  6
CONTINUOUS
 10
99.715500
 20
183.223892
 40
3.000000
 50
0.000000
 51
89.000580
  0
LINE
  8
0
  6
CONTINUOUS
 10
93.215500
 20
12.317578
 11
128.715500
 21
12.317578
  0
LINE
  8
0
  6
CONTINUOUS
 10
39.215500
 20
13.317578
 11
92.215500
 21
13.317578
  0
LINE
  8
0
  6
CONTINUOUS
 10
16.361700
 20
166.843094
 11
25.069099
 21
169.292053
  0
LINE
  8
0
  6
CONTINUOUS
 10
16.361700
 20
97.792061
 11
17.527700
 21
97.464127
  0
LINE
  8
0
  6
CONTINUOUS
 10
23.377300
 20
57.300419
 11
25.053699
 21
56.834740
  0
LINE
  8
0
  6
CONTINUOUS
 10
108.053703
 20
57.300419
 11
106.377296
 21
56.834740
  0
LINE
  8
0
  6
CONTINUOUS
 10
115.069099
 20
97.792061
 11
113.903297
 21
97.464134
  0
LINE
  8
0
  6
CONTINUOUS
 10
115.069099
 20
166.843094
 11
106.361900
 21
169.292053
  0
ARC
  8
0
  6
CONTINUOUS
 10
17.715500
 20
162.029861
 40
5.000000
 50
105.709000
 51
180.000000
  0
ARC
  8
0
  6
CONTINUOUS
 10
17.715500
 20
102.605347
 40
5.000000
 50
180.000000
 51
254.291702
  0
ARC
  8
0
  6
CONTINUOUS
 10
24.715500
 20
62.118038
 40
5.000000
 50
180.000000
 51
254.476196
  0
ARC
  8
0
  6
CONTINUOUS
 10
106.715500
 20
62.117996
 40
5.000000
 50
-74.475708
 51
0.000000
  0
ARC
  8
0
  6
CONTINUOUS
 10
113.715500
 20
102.605309
 40
5.000000
 50
-74.291199
 51
0.000000
  0
ARC
  8
0
  6
CONTINUOUS
 10
113.715500
 20
162.029816
 40
5.000000
 50
0.000000
 51
74.291527
  0
ARC
  8
0
  6
CONTINUOUS
 10
114.715500
 20
94.576195
 40
3.000000
 50
105.709000
 51
180.000000
  0
ARC
  8
0
  6
CONTINUOUS
 10
16.715500
 20
94.576164
 40
3.000000
 50
0.000000
 51
74.291397
  0
ARC
  8
0
  6
CONTINUOUS
 10
23.715500
 20
174.105316
 40
5.000000
 50
-74.291199
 51
0.000000
  0
ARC
  8
0
  6
CONTINUOUS
 10
107.715500
 20
174.105331
 40
5.000000
 50
180.000000
 51
254.291702
  0
ARC
  8
0
  6
CONTINUOUS
 10
107.715500
 20
52.017178
 40
5.000000
 50
105.524399
 51
180.000000
  0
ARC
  8
0
  6
CONTINUOUS
 10
23.715500
 20
52.017139
 40
5.000000
 50
0.000000
 51
74.475952
  0
LINE
  8
0
  6
CONTINUOUS
 10
93.215500
 20
12.317578
 11
92.215500
 21
13.317578
  0
LINE
  8
0
  6
CONTINUOUS
 10
38.215500
 20
12.317578
 11
39.215500
 21
13.317578
  0
LINE
  8
0
  6
CENTER
 10
-11.183250
 20
96.317574
 11
145.236755
 21
96.317574
  0
LINE
  8
0
  6
CONTINUOUS
 10
165.715500
 20
118.317581
 11
165.715500
 21
146.317581
  0
LINE
  8
0
  6
CONTINUOUS
 10
120.715500
 20
146.317581
 11
165.715500
 21
146.317581
  0
LINE
  8
0
  6
CONTINUOUS
 10
120.715500
 20
118.317581
 11
165.715500
 21
118.317581
  0
LINE
  8
0
  6
CONTINUOUS
 10
120.715500
 20
147.317581
 11
120.715500
 21
117.317581
  0
LINE
  8
0
  6
CONTINUOUS
 10
118.715500
 20
117.317581
 11
120.715500
 21
117.317581
  0
ARC
  8
0
  6
CONTINUOUS
 10
129.715500
 20
132.317581
 40
4.000000
 50
90.000000
 51
270.000000
  0
LINE
  8
0
  6
CONTINUOUS
 10
129.715500
 20
136.317581
 11
165.715500
 21
136.317581
  0
LINE
  8
0
  6
CONTINUOUS
 10
129.715500
 20
128.317581
 11
165.715500
 21
128.317581
  0
LINE
  8
0
  6
CONTINUOUS
 10
118.715500
 20
147.317581
 11
120.715500
 21
147.317581
  0
LINE
  8
0
  6
CONTINUOUS
 10
419.462738
 20
160.317673
 11
412.962738
 21
160.317673
  0
LINE
  8
0
  6
CONTINUOUS
 10
419.462738
 20
32.317478
 11
412.962738
 21
32.317478
  0
LINE
  8
0
  6
CONTINUOUS
 10
467.462738
 20
128.317581
 11
421.462738
 21
129.923935
  0
LINE
  8
0
  6
CONTINUOUS
 10
412.962738
 20
36.414394
 11
467.462738
 21
38.317577
  0
ARC
  8
0
  6
CONTINUOUS
 10
419.462738
 20
158.317703
 40
2.000000
 50
0.000000
 51
90.000000
  0
ARC
  8
0
  6
CONTINUOUS
 10
419.462738
 20
34.317478
 40
2.000000
 50
-90.000000
 51
-0.260773
  0
LINE
  8
0
  6
CENTER
 10
620.981506
 20
83.317581
 11
369.212738
 21
83.317581
  0
LINE
  8
0
  6
CONTINUOUS
 10
467.462738
 20
128.317581
 11
467.462738
 21
38.317577
  0
LINE
  8
0
  6
CONTINUOUS
 10
422.194977
 20
136.085342
 11
427.909485
 21
130.370834
  0
LINE
  8
0
  6
CONTINUOUS
 10
390.699371
 20
341.042542
 11
271.556671
 21
341.042542
  0
ARC
  8
0
  6
CONTINUOUS
 10
271.556671
 20
344.042542
 40
3.000000
 50
181.000000
 51
270.000000
  0
LINE
  8
0
  6
CONTINUOUS
 10
285.468475
 20
335.688812
 11
284.578064
 21
338.854797
  0
ARC
  8
0
  6
CONTINUOUS
 10
281.690094
 20
338.042542
 40
3.000000
 50
15.708648
 51
90.000000
  0
ARC
  8
0
  6
CONTINUOUS
 10
398.885132
 20
323.815979
 40
3.000000
 50
181.500198
 51
257.801208
  0
LINE
  8
0
  6
CONTINUOUS
 10
395.886139
 20
323.737427
 11
395.530151
 21
337.332214
  0
ARC
  8
0
  6
CONTINUOUS
 10
397.617340
 20
317.951447
 40
3.000000
 50
15.000100
 51
77.801201
  0
LINE
  8
0
  6
CENTER
 10
621.253723
 20
378.042542
 11
252.558868
 21
378.042542
  0
LINE
  8
0
  6
CONTINUOUS
 10
379.447876
 20
441.042542
 11
330.462738
 21
441.042542
  0
LINE
  8
0
  6
CONTINUOUS
 10
267.962738
 20
378.042542
 11
268.608582
 21
341.042542
  0
LINE
  8
0
  6
CONTINUOUS
 10
276.772858
 20
318.349884
 11
268.608582
 21
341.042542
  0
ARC
  8
0
  6
CONTINUOUS
 10
281.477631
 20
320.042542
 40
5.000000
 50
199.787491
 51
270.000000
  0
LINE
  8
0
  6
CONTINUOUS
 10
267.962738
 20
378.042542
 11
268.608582
 21
415.042542
  0
LINE
  8
0
  6
CONTINUOUS
 10
276.772858
 20
437.735199
 11
268.608582
 21
415.042542
  0
ARC
  8
0
  6
CONTINUOUS
 10
281.477631
 20
436.042542
 40
5.000000
 50
90.000000
 51
160.212509
  0
LINE
  8
0
  6
CONTINUOUS
 10
390.699371
 20
341.042542
 11
271.556671
 21
341.042542
  0
LINE
  8
0
  6
CENTER
 10
330.462738
 20
457.161255
 11
330.462738
 21
266.936340
  0
ARC
  8
0
  6
CONTINUOUS
 10
271.556671
 20
344.042542
 40
3.000000
 50
181.000000
 51
270.000000
  0
ARC
  8
0
  6
CONTINUOUS
 10
271.556671
 20
412.042542
 40
3.000000
 50
90.000000
 51
179.000000
  0
LINE
  8
0
  6
CONTINUOUS
 10
390.626160
 20
415.042542
 11
271.556671
 21
415.042542
  0
LINE
  8
0
  6
CONTINUOUS
 10
300.750488
 20
325.042542
 11
360.175018
 21
325.042542
  0
LINE
  8
0
  6
CONTINUOUS
 10
295.937225
 20
328.688812
 11
294.993988
 21
332.042542
  0
ARC
  8
0
  6
CONTINUOUS
 10
300.750488
 20
330.042542
 40
5.000000
 50
195.708633
 51
270.000000
  0
LINE
  8
0
  6
CONTINUOUS
 10
294.993988
 20
332.042542
 11
290.281738
 21
332.042542
  0
ARC
  8
0
  6
CONTINUOUS
 10
290.281738
 20
337.042542
 40
5.000000
 50
195.708633
 51
270.000000
  0
LINE
  8
0
  6
CONTINUOUS
 10
364.988251
 20
328.688812
 11
365.931488
 21
332.042542
  0
ARC
  8
0
  6
CONTINUOUS
 10
360.175018
 20
330.042542
 40
5.000000
 50
270.000000
 51
344.291351
  0
LINE
  8
0
  6
CONTINUOUS
 10
365.931488
 20
332.042542
 11
370.643768
 21
332.042542
  0
LINE
  8
0
  6
CONTINUOUS
 10
375.457001
 20
335.688812
 11
376.347443
 21
338.854797
  0
ARC
  8
0
  6
CONTINUOUS
 10
370.643768
 20
337.042542
 40
5.000000
 50
270.000000
 51
344.291351
  0
ARC
  8
0
  6
CONTINUOUS
 10
379.235382
 20
338.042542
 40
3.000000
 50
90.000000
 51
164.291367
  0
LINE
  8
0
  6
CONTINUOUS
 10
300.750488
 20
431.042542
 11
360.175018
 21
431.042542
  0
LINE
  8
0
  6
CONTINUOUS
 10
295.937225
 20
427.396271
 11
294.993988
 21
424.042542
  0
ARC
  8
0
  6
CONTINUOUS
 10
300.750488
 20
426.042542
 40
5.000000
 50
90.000000
 51
164.291367
  0
LINE
  8
0
  6
CONTINUOUS
 10
294.993988
 20
424.042542
 11
290.281738
 21
424.042542
  0
LINE
  8
0
  6
CONTINUOUS
 10
285.468475
 20
420.396271
 11
284.578064
 21
417.230316
  0
ARC
  8
0
  6
CONTINUOUS
 10
290.281738
 20
419.042542
 40
5.000000
 50
90.000000
 51
164.291367
  0
ARC
  8
0
  6
CONTINUOUS
 10
281.690094
 20
418.042542
 40
3.000000
 50
-90.000000
 51
-15.708638
  0
LINE
  8
0
  6
CONTINUOUS
 10
364.988251
 20
427.396271
 11
365.931488
 21
424.042542
  0
ARC
  8
0
  6
CONTINUOUS
 10
360.175018
 20
426.042542
 40
5.000000
 50
15.708638
 51
90.000000
  0
LINE
  8
0
  6
CONTINUOUS
 10
365.931488
 20
424.042542
 11
370.643768
 21
424.042542
  0
LINE
  8
0
  6
CONTINUOUS
 10
375.457001
 20
420.396271
 11
376.347443
 21
417.230316
  0
ARC
  8
0
  6
CONTINUOUS
 10
370.643768
 20
419.042542
 40
5.000000
 50
15.708638
 51
90.000000
  0
ARC
  8
0
  6
CONTINUOUS
 10
379.235382
 20
418.042542
 40
3.000000
 50
195.708633
 51
270.000000
  0
LINE
  8
0
  6
CONTINUOUS
 10
384.152649
 20
318.349884
 11
392.230499
 21
340.802338
  0
ARC
  8
0
  6
CONTINUOUS
 10
379.447876
 20
320.042542
 40
5.000000
 50
270.000000
 51
340.212524
  0
LINE
  8
0
  6
CONTINUOUS
 10
384.152649
 20
437.735199
 11
392.214630
 21
415.326782
  0
ARC
  8
0
  6
CONTINUOUS
 10
379.447876
 20
436.042542
 40
5.000000
 50
19.787489
 51
90.000000
  0
LINE
  8
0
  6
CONTINUOUS
 10
379.447876
 20
315.042542
 11
344.462738
 21
315.042542
  0
LINE
  8
0
  6
CENTER
 10
290.462738
 20
316.929260
 11
290.462738
 21
336.370667
  0
LINE
  8
0
  6
CENTER
 10
300.373627
 20
328.042542
 11
281.855072
 21
328.042542
  0
ARC
  8
0
  6
CONTINUOUS
 10
290.462738
 20
328.042542
 40
5.500000
 50
-239.465683
 51
7.598493
  0
ARC
  8
0
  6
CONTINUOUS
 10
370.462738
 20
328.042542
 40
5.500000
 50
-187.598602
 51
59.465683
  0
LINE
  8
0
  6
CENTER
 10
370.462738
 20
316.929260
 11
370.462738
 21
336.370667
  0
LINE
  8
0
  6
CENTER
 10
360.551849
 20
328.042542
 11
379.070404
 21
328.042542
  0
ARC
  8
0
  6
CONTINUOUS
 10
370.462738
 20
428.042542
 40
5.500000
 50
-59.465683
 51
187.598602
  0
LINE
  8
0
  6
CENTER
 10
360.551849
 20
428.042542
 11
379.070404
 21
428.042542
  0
LINE
  8
0
  6
CENTER
 10
370.462738
 20
439.155823
 11
370.462738
 21
419.714417
  0
LINE
  8
0
  6
CENTER
 10
290.462738
 20
439.155823
 11
290.462738
 21
419.714417
  0
LINE
  8
0
  6
CENTER
 10
300.373627
 20
428.042542
 11
281.855072
 21
428.042542
  0
ARC
  8
0
  6
CONTINUOUS
 10
290.462738
 20
428.042542
 40
5.500000
 50
-7.598608
 51
239.465683
  0
LINE
  8
0
  6
CONTINUOUS
 10
306.462738
 20
412.042542
 11
306.462738
 21
344.042542
  0
LINE
  8
0
  6
CONTINUOUS
 10
354.462738
 20
412.042542
 11
354.462738
 21
344.042542
  0
LINE
  8
0
  6
CONTINUOUS
 10
395.382446
 20
418.748444
 11
400.631073
 21
438.336639
  0
LINE
  8
0
  6
CONTINUOUS
 10
395.886139
 20
432.894592
 11
395.530151
 21
419.299774
  0
ARC
  8
0
  6
CONTINUOUS
 10
398.885132
 20
432.815979
 40
3.000000
 50
102.198799
 51
178.499802
  0
ARC
  8
0
  6
CONTINUOUS
 10
397.617340
 20
438.680573
 40
3.000000
 50
282.198792
 51
345.000031
  0
ARC
  8
0
  6
CONTINUOUS
 10
398.885132
 20
323.815979
 40
3.000000
 50
181.500198
 51
257.801208
  0
LINE
  8
0
  6
CONTINUOUS
 10
395.886139
 20
323.737427
 11
395.530151
 21
337.332214
  0
ARC
  8
0
  6
CONTINUOUS
 10
397.617340
 20
317.951447
 40
3.000000
 50
15.000100
 51
77.801201
  0
LINE
  8
0
  6
CONTINUOUS
 10
405.533936
 20
314.042542
 11
412.962738
 21
314.042542
  0
LINE
  8
0
  6
CONTINUOUS
 10
400.777588
 20
317.748474
 11
395.455750
 21
337.610046
  0
ARC
  8
0
  6
CONTINUOUS
 10
390.552826
 20
420.042542
 40
5.000000
 50
270.000000
 51
345.000031
  0
ARC
  8
0
  6
CONTINUOUS
 10
390.699371
 20
336.042542
 40
5.000000
 50
14.999843
 51
90.000000
  0
LINE
  8
0
  6
CONTINUOUS
 10
313.462738
 20
278.042542
 11
344.462738
 21
278.042542
  0
LINE
  8
0
  6
CONTINUOUS
 10
344.462738
 20
323.042542
 11
344.462738
 21
278.042542
  0
LINE
  8
0
  6
CONTINUOUS
 10
316.462738
 20
323.042542
 11
316.462738
 21
318.042542
  0
LINE
  8
0
  6
CONTINUOUS
 10
345.462738
 20
323.042542
 11
315.462738
 21
323.042542
  0
LINE
  8
0
  6
CONTINUOUS
 10
315.462738
 20
325.042542
 11
315.462738
 21
323.042542
  0
LINE
  8
0
  6
CONTINUOUS
 10
345.462738
 20
325.042542
 11
345.462738
 21
323.042542
  0
LINE
  8
0
  6
CONTINUOUS
 10
313.462738
 20
315.042542
 11
281.477631
 21
315.042542
  0
LINE
  8
0
  6
CONTINUOUS
 10
317.046326
 20
318.042542
 11
313.462738
 21
318.042542
  0
LINE
  8
0
  6
CONTINUOUS
 10
317.046326
 20
318.042542
 11
317.046326
 21
278.042542
  0
LINE
  8
0
  6
CONTINUOUS
 10
313.462738
 20
278.042542
 11
313.462738
 21
318.042542
  0
LINE
  8
0
  6
CONTINUOUS
 10
330.462738
 20
441.042542
 11
281.477631
 21
441.042542
  0
LINE
  8
0
  6
CONTINUOUS
 10
412.962738
 20
442.042542
 11
405.460724
 21
442.042542
  0
ARC
  8
0
  6
CONTINUOUS
 10
405.460724
 20
437.042542
 40
5.000000
 50
90.000000
 51
165.000031
  0
ARC
  8
0
  6
CONTINUOUS
 10
405.607208
 20
319.042542
 40
5.000000
 50
194.999847
 51
270.000000
  0
LINE
  8
0
  6
CONTINUOUS
 10
392.962738
 20
378.042542
 11
392.368347
 21
343.990204
  0
LINE
  8
0
  6
CONTINUOUS
 10
392.962738
 20
378.042542
 11
392.368347
 21
412.094910
  0
ARC
  8
0
  6
CONTINUOUS
 10
389.368805
 20
344.042542
 40
3.000000
 50
270.000000
 51
359.000000
  0
ARC
  8
0
  6
CONTINUOUS
 10
389.368805
 20
412.042542
 40
3.000000
 50
1.000000
 51
90.000000
  0
LINE
  8
0
  6
CONTINUOUS
 10
5.960110
 20
27.941553
 11
25.470886
 21
31.693615
  0
ARC
  8
0
  6
CONTINUOUS
 10
65.715500
 20
96.317581
 40
64.000099
 50
-54.681290
 51
20.105476
  0
ARC
  8
0
  6
CONTINUOUS
 10
65.715500
 20
96.317581
 40
64.000099
 50
145.906479
 51
234.681290
  0
ARC
  8
0
  6
CONTINUOUS
 10
6.715500
 20
23.317577
 40
4.000000
 50
90.000000
 51
180.000000
  0
ARC
  8
0
  6
CONTINUOUS
 10
6.715500
 20
24.013515
 40
4.000000
 50
100.885529
 51
180.000000
  0
ARC
  8
0
  6
CONTINUOUS
 10
24.715500
 20
35.621639
 40
4.000000
 50
-79.114502
 51
0.000000
  0
ARC
  8
0
  6
CONTINUOUS
 10
24.715500
 20
31.317577
 40
4.000000
 50
-90.000000
 51
0.000000
  0
LINE
  8
0
  6
CONTINUOUS
 10
125.470886
 20
27.941553
 11
105.960114
 21
31.693615
  0
ARC
  8
0
  6
CONTINUOUS
 10
124.715500
 20
23.317577
 40
4.000000
 50
0.000000
 51
90.000000
  0
ARC
  8
0
  6
CONTINUOUS
 10
124.715500
 20
24.013515
 40
4.000000
 50
0.000000
 51
79.114471
  0
ARC
  8
0
  6
CONTINUOUS
 10
106.715500
 20
35.621639
 40
4.000000
 50
180.000000
 51
259.114502
  0
ARC
  8
0
  6
CONTINUOUS
 10
106.715500
 20
31.317577
 40
4.000000
 50
180.000000
 51
270.000000
  0
LINE
  8
0
  6
CONTINUOUS
 10
412.962738
 20
314.042542
 11
412.962738
 21
442.042542
  0
LINE
  8
0
  6
CONTINUOUS
 10
467.462738
 20
62.811577
 11
423.462738
 21
62.811577
  0
LINE
  8
0
  6
CONTINUOUS
 10
467.462738
 20
47.798576
 11
412.962738
 21
47.798580
  0
LINE
  8
0
  6
CONTINUOUS
 10
420.894775
 20
55.750580
 11
412.962738
 21
55.750580
  0
LINE
  8
0
  6
CONTINUOUS
 10
421.462738
 20
56.965313
 11
421.462738
 21
158.317703
  0
ARC
  8
0
  6
CONTINUOUS
 10
423.962708
 20
34.297001
 40
2.500000
 50
92.000000
 51
179.739227
  0
ARC
  8
0
  6
CONTINUOUS
 10
423.962738
 20
137.853119
 40
2.500000
 50
180.000000
 51
225.000000
  0
ARC
  8
0
  6
CONTINUOUS
 10
429.677246
 20
132.138596
 40
2.500000
 50
-135.000000
 51
-92.000000
  0
LINE
  8
0
  6
CONTINUOUS
 10
421.462738
 20
440.042542
 11
421.462738
 21
316.042542
  0
LINE
  8
0
  6
CONTINUOUS
 10
467.462738
 20
333.042542
 11
423.899139
 21
331.521271
  0
LINE
  8
0
  6
CONTINUOUS
 10
467.462738
 20
423.042542
 11
423.899139
 21
424.563812
  0
LINE
  8
0
  6
CONTINUOUS
 10
467.462738
 20
329.030548
 11
467.462738
 21
427.054535
  0
LINE
  8
0
  6
CONTINUOUS
 10
419.462738
 20
314.042542
 11
412.962738
 21
314.042542
  0
LINE
  8
0
  6
CONTINUOUS
 10
419.462738
 20
442.042542
 11
412.962738
 21
442.042542
  0
LINE
  8
0
  6
CONTINUOUS
 10
428.605743
 20
354.042542
 11
421.490753
 21
354.042542
  0
LINE
  8
0
  6
CONTINUOUS
 10
428.000610
 20
402.042542
 11
421.490753
 21
402.042542
  0
LINE
  8
0
  6
CONTINUOUS
 10
428.605743
 20
356.247040
 11
428.605743
 21
399.959625
  0
LINE
  8
0
  6
CONTINUOUS
 10
476.462738
 20
335.042542
 11
476.462738
 21
349.042542
  0
LINE
  8
0
  6
CONTINUOUS
 10
586.462769
 20
333.042542
 11
467.462738
 21
333.042542
  0
LINE
  8
0
  6
CONTINUOUS
 10
586.462769
 20
423.042542
 11
467.462738
 21
423.042542
  0
LINE
  8
0
  6
CONTINUOUS
 10
586.462769
 20
333.042542
 11
586.462769
 21
353.042572
  0
LINE
  8
0
  6
CONTINUOUS
 10
586.462769
 20
349.042542
 11
476.462738
 21
349.042542
  0
LINE
  8
0
  6
CONTINUOUS
 10
586.462769
 20
407.042542
 11
476.462738
 21
407.042542
  0
ARC
  8
0
  6
CONTINUOUS
 10
474.462738
 20
335.042542
 40
2.000000
 50
-90.000000
 51
0.000000
  0
ARC
  8
0
  6
CONTINUOUS
 10
474.462738
 20
421.042542
 40
2.000000
 50
0.000000
 51
90.000000
  0
LINE
  8
0
  6
CONTINUOUS
 10
606.962769
 20
413.042542
 11
606.962769
 21
343.042542
  0
LINE
  8
0
  6
CONTINUOUS
 10
602.421326
 20
333.042542
 11
586.462769
 21
333.042542
  0
LINE
  8
0
  6
CONTINUOUS
 10
606.462769
 20
336.042542
 11
606.462769
 21
420.042542
  0
LINE
  8
0
  6
CONTINUOUS
 10
586.462769
 20
349.042542
 11
604.712769
 21
349.042542
  0
LINE
  8
0
  6
CONTINUOUS
 10
605.885376
 20
335.042572
 11
606.462769
 21
336.042542
  0
ARC
  8
0
  6
CONTINUOUS
 10
602.421265
 20
337.042542
 40
4.000000
 50
270.000000
 51
330.000397
  0
LINE
  8
0
  6
CONTINUOUS
 10
602.421326
 20
423.042542
 11
586.462769
 21
423.042542
  0
LINE
  8
0
  6
CONTINUOUS
 10
586.462769
 20
407.042542
 11
604.712769
 21
407.042542
  0
LINE
  8
0
  6
CONTINUOUS
 10
605.885376
 20
421.042542
 11
606.462769
 21
420.042542
  0
ARC
  8
0
  6
CONTINUOUS
 10
602.421265
 20
419.042572
 40
4.000000
 50
29.999599
 51
90.000000
  0
LINE
  8
0
  6
CONTINUOUS
 10
606.962769
 20
343.042542
 11
606.462769
 21
342.542542
  0
LINE
  8
0
  6
CONTINUOUS
 10
606.962769
 20
413.042542
 11
606.462769
 21
413.542542
  0
LINE
  8
0
  6
CONTINUOUS
 10
467.462738
 20
333.042542
 11
467.462738
 21
423.042542
  0
ARC
  8
0
  6
CONTINUOUS
 10
419.462738
 20
316.042542
 40
2.000000
 50
-90.000000
 51
0.000000
  0
ARC
  8
0
  6
CONTINUOUS
 10
419.462738
 20
440.042542
 40
2.000000
 50
0.000000
 51
90.000000
  0
ARC
  8
0
  6
CONTINUOUS
 10
423.986389
 20
329.022797
 40
2.500000
 50
92.000000
 51
179.895706
  0
ARC
  8
0
  6
CONTINUOUS
 10
423.986389
 20
427.062317
 40
2.500000
 50
180.104294
 51
268.000000
  0
LINE
  8
0
  6
CONTINUOUS
 10
421.462738
 20
331.436188
 11
421.490753
 21
331.437164
  0
LINE
  8
0
  6
CONTINUOUS
 10
466.963043
 20
328.513092
 11
421.462738
 21
326.924194
  0
LINE
  8
0
  6
CONTINUOUS
 10
467.462738
 20
329.030548
 11
466.963043
 21
328.513092
  0
LINE
  8
0
  6
CONTINUOUS
 10
466.963043
 20
427.571991
 11
421.462738
 21
429.160919
  0
LINE
  8
0
  6
CONTINUOUS
 10
467.462738
 20
427.054535
 11
466.963043
 21
427.571991
  0
LINE
  8
0
  6
CONTINUOUS
 10
586.462769
 20
403.042572
 11
586.462769
 21
423.042542
  0
LINE
  8
0
  6
CONTINUOUS
 10
267.962738
 20
157.689194
 11
267.962738
 21
12.317578
  0
LINE
  8
0
  6
CONTINUOUS
 10
392.962738
 20
12.317578
 11
267.962738
 21
12.317578
  0
LINE
  8
0
  6
CENTER
 10
373.395081
 20
132.317581
 11
288.422760
 21
132.317581
  0
LINE
  8
0
  6
CENTER
 10
330.462738
 20
203.817535
 11
330.462738
 21
1.567578
  0
LINE
  8
0
  6
CONTINUOUS
 10
352.908356
 20
186.817535
 11
308.017151
 21
186.817535
  0
LINE
  8
0
  6
CONTINUOUS
 10
305.182343
 20
185.936234
 11
270.127960
 21
161.807816
  0
LINE
  8
0
  6
CONTINUOUS
 10
389.962738
 20
27.317577
 11
270.962738
 21
27.317577
  0
LINE
  8
0
  6
CONTINUOUS
 10
277.962738
 20
25.780081
 11
277.962738
 21
12.317578
  0
LINE
  8
0
  6
CONTINUOUS
 10
381.962738
 20
25.780081
 11
381.962738
 21
12.317578
  0
LINE
  8
0
  6
CENTER
 10
290.462738
 20
34.567577
 11
290.462738
 21
5.567578
  0
LINE
  8
0
  6
CENTER
 10
370.462738
 20
34.567577
 11
370.462738
 21
6.817578
  0
LINE
  8
0
  6
DASHED
 10
284.962738
 20
27.317577
 11
284.962738
 21
12.317578
  0
LINE
  8
0
  6
DASHED
 10
295.962738
 20
27.317577
 11
295.962738
 21
12.317578
  0
LINE
  8
0
  6
DASHED
 10
364.962738
 20
27.317577
 11
364.962738
 21
12.317578
  0
LINE
  8
0
  6
DASHED
 10
375.962738
 20
27.317577
 11
375.962738
 21
12.317578
  0
ARC
  8
0
  6
CONTINUOUS
 10
350.462738
 20
82.317581
 40
26.500000
 50
-90.000000
 51
9.470901
  0
ARC
  8
0
  6
CONTINUOUS
 10
310.462738
 20
82.317581
 40
26.500000
 50
170.529099
 51
270.000000
  0
LINE
  8
0
  6
CONTINUOUS
 10
376.601532
 20
86.678055
 11
367.944733
 21
138.570297
  0
LINE
  8
0
  6
CONTINUOUS
 10
292.980743
 20
138.570419
 11
284.323944
 21
86.678085
  0
LINE
  8
0
  6
CONTINUOUS
 10
350.462738
 20
55.817577
 11
310.462738
 21
55.817577
  0
ARC
  8
0
  6
CONTINUOUS
 10
272.962738
 20
157.689133
 40
5.000000
 50
124.539902
 51
180.000000
  0
ARC
  8
0
  6
CONTINUOUS
 10
308.017151
 20
181.817535
 40
5.000000
 50
90.000000
 51
124.539902
  0
ARC
  8
0
  6
CONTINUOUS
 10
352.874359
 20
181.817535
 40
5.000000
 50
88.961128
 51
90.000000
  0
LINE
  8
0
  6
CONTINUOUS
 10
392.962738
 20
12.317578
 11
392.962738
 21
44.717598
  0
ARC
  8
0
  6
CONTINUOUS
 10
350.462738
 20
82.317581
 40
24.000000
 50
-90.000000
 51
9.470790
  0
ARC
  8
0
  6
CONTINUOUS
 10
310.462738
 20
82.317581
 40
24.000000
 50
170.528992
 51
271.534393
  0
LINE
  8
0
  6
CONTINUOUS
 10
350.462738
 20
58.317577
 11
310.462738
 21
58.317577
  0
CIRCLE
  8
0
  6
CONTINUOUS
 10
330.462738
 20
132.317581
 40
33.500000
  0
ARC
  8
0
  6
CONTINUOUS
 10
330.462738
 20
132.317581
 40
38.000000
 50
9.471016
 51
170.529007
  0
ARC
  8
0
  6
CONTINUOUS
 10
330.462738
 20
132.317581
 40
35.500000
 50
-189.597305
 51
7.618591
  0
LINE
  8
0
  6
CONTINUOUS
 10
374.135559
 20
86.266670
 11
365.478943
 21
138.158981
  0
LINE
  8
0
  6
CONTINUOUS
 10
295.446747
 20
138.159012
 11
286.789948
 21
86.266731
  0
LINE
  8
0
  6
CONTINUOUS
 10
394.517090
 20
160.317673
 11
412.962738
 21
160.317673
  0
LINE
  8
0
  6
CONTINUOUS
 10
412.962738
 20
32.317478
 11
397.962738
 21
32.317478
  0
LINE
  8
0
  6
CONTINUOUS
 10
391.682190
 20
161.199020
 11
355.743134
 21
185.936203
  0
ARC
  8
0
  6
CONTINUOUS
 10
352.908356
 20
181.817535
 40
5.000000
 50
55.459671
 51
90.000000
  0
ARC
  8
0
  6
CONTINUOUS
 10
387.962738
 20
157.689178
 40
5.000000
 50
0.000000
 51
55.459560
  0
ARC
  8
0
  6
CONTINUOUS
 10
397.962738
 20
27.317463
 40
5.000000
 50
90.000000
 51
180.000000
  0
ARC
  8
0
  6
CONTINUOUS
 10
389.962738
 20
24.317600
 40
3.000000
 50
0.000000
 51
90.000000
  0
ARC
  8
0
  6
CONTINUOUS
 10
270.962738
 20
24.317577
 40
3.000000
 50
90.000000
 51
180.000000
  0
LINE
  8
0
  6
CONTINUOUS
 10
320.166351
 20
68.317581
 11
316.005951
 21
68.317581
  0
LINE
  8
0
  6
CONTINUOUS
 10
322.462738
 20
75.286324
 11
322.462738
 21
68.317581
  0
LINE
  8
0
  6
CONTINUOUS
 10
326.462738
 20
77.817581
 11
326.462738
 21
80.317581
  0
LINE
  8
0
  6
CONTINUOUS
 10
334.462738
 20
77.817581
 11
334.462738
 21
80.317581
  0
LINE
  8
0
  6
CONTINUOUS
 10
329.681549
 20
78.848831
 11
329.681549
 21
69.630081
  0
LINE
  8
0
  6
CONTINUOUS
 10
331.181549
 20
78.848831
 11
331.181549
 21
69.630081
  0
LINE
  8
0
  6
CONTINUOUS
 10
339.056549
 20
78.848831
 11
339.056549
 21
69.567581
  0
LINE
  8
0
  6
CONTINUOUS
 10
340.431549
 20
73.926964
 11
340.431549
 21
69.567581
  0
LINE
  8
0
  6
CONTINUOUS
 10
320.564758
 20
78.723831
 11
316.709747
 21
78.723831
  0
LINE
  8
0
  6
CONTINUOUS
 10
316.709747
 20
78.723831
 11
315.806549
 21
77.603828
  0
LINE
  8
0
  6
CONTINUOUS
 10
315.915161
 20
80.317581
 11
314.462738
 21
78.457817
  0
LINE
  8
0
  6
CONTINUOUS
 10
315.806549
 20
70.690498
 11
316.724152
 21
69.723816
  0
LINE
  8
0
  6
CONTINUOUS
 10
314.462738
 20
69.874741
 11
316.005951
 21
68.317581
  0
LINE
  8
0
  6
CONTINUOUS
 10
314.462738
 20
78.457817
 11
314.462738
 21
69.874741
  0
LINE
  8
0
  6
CONTINUOUS
 10
315.806549
 20
77.603828
 11
315.806549
 21
70.690498
  0
LINE
  8
0
  6
CONTINUOUS
 10
321.306549
 20
78.006721
 11
320.549561
 21
78.723831
  0
LINE
  8
0
  6
CONTINUOUS
 10
321.294556
 20
80.317581
 11
322.462738
 21
79.021088
  0
LINE
  8
0
  6
CONTINUOUS
 10
321.306549
 20
77.817581
 11
322.462738
 21
77.817581
  0
LINE
  8
0
  6
CONTINUOUS
 10
315.915161
 20
80.317581
 11
321.294556
 21
80.317581
  0
LINE
  8
0
  6
CONTINUOUS
 10
319.212738
 20
75.286324
 11
322.462738
 21
75.286324
  0
LINE
  8
0
  6
CONTINUOUS
 10
321.306549
 20
73.973816
 11
319.212738
 21
73.973816
  0
LINE
  8
0
  6
CONTINUOUS
 10
318.806549
 20
69.723816
 11
316.724152
 21
69.723816
  0
LINE
  8
0
  6
CONTINUOUS
 10
321.306549
 20
72.723816
 11
321.306549
 21
73.723816
  0
ARC
  8
0
  6
CONTINUOUS
 10
318.806549
 20
72.223816
 40
2.500000
 50
-89.999786
 51
0.000109
  0
LINE
  8
0
  6
CONTINUOUS
 10
321.306549
 20
69.274139
 11
321.306549
 21
68.317581
  0
LINE
  8
0
  6
CONTINUOUS
 10
322.462738
 20
79.021088
 11
322.462738
 21
77.817581
  0
LINE
  8
0
  6
CONTINUOUS
 10
321.306549
 20
73.973816
 11
321.306549
 21
72.223816
  0
LINE
  8
0
  6
CONTINUOUS
 10
319.212738
 20
75.286324
 11
319.212738
 21
73.973816
  0
LINE
  8
0
  6
CONTINUOUS
 10
321.306549
 20
68.317581
 11
322.462738
 21
68.317581
  0
LINE
  8
0
  6
CONTINUOUS
 10
321.306549
 20
69.274139
 11
320.166351
 21
68.317581
  0
LINE
  8
0
  6
CONTINUOUS
 10
331.181549
 20
69.630081
 11
331.681549
 21
69.630081
  0
LINE
  8
0
  6
CONTINUOUS
 10
329.087738
 20
69.630081
 11
329.087738
 21
68.317581
  0
LINE
  8
0
  6
CONTINUOUS
 10
331.681549
 20
69.630081
 11
331.681549
 21
68.317581
  0
LINE
  8
0
  6
CONTINUOUS
 10
333.628357
 20
77.817581
 11
334.462738
 21
77.817581
  0
LINE
  8
0
  6
CONTINUOUS
 10
326.462738
 20
77.817581
 11
327.350739
 21
77.817581
  0
LINE
  8
0
  6
CONTINUOUS
 10
326.462738
 20
80.317581
 11
334.462738
 21
80.317581
  0
LINE
  8
0
  6
CONTINUOUS
 10
329.087738
 20
68.317581
 11
331.681549
 21
68.317581
  0
LINE
  8
0
  6
CONTINUOUS
 10
329.087738
 20
69.630081
 11
329.681549
 21
69.630081
  0
ARC
  8
0
  6
CONTINUOUS
 10
343.259735
 20
77.114456
 40
3.203128
 50
-73.981873
 51
90.003510
  0
ARC
  8
0
  6
CONTINUOUS
 10
343.259735
 20
77.114456
 40
1.954124
 50
-82.585274
 51
62.411850
  0
LINE
  8
0
  6
CONTINUOUS
 10
338.462738
 20
80.317581
 11
343.259735
 21
80.317581
  0
LINE
  8
0
  6
CONTINUOUS
 10
343.511749
 20
75.176659
 11
340.431549
 21
75.176659
  0
LINE
  8
0
  6
CONTINUOUS
 10
338.462738
 20
80.317581
 11
338.462738
 21
78.848831
  0
LINE
  8
0
  6
CONTINUOUS
 10
340.431549
 20
78.848831
 11
340.431549
 21
75.176659
  0
LINE
  8
0
  6
CONTINUOUS
 10
344.143555
 20
74.035698
 11
346.126160
 21
69.567581
  0
LINE
  8
0
  6
CONTINUOUS
 10
342.991943
 20
73.926964
 11
344.868134
 21
69.567581
  0
LINE
  8
0
  6
CONTINUOUS
 10
338.462738
 20
69.567581
 11
339.056549
 21
69.567581
  0
LINE
  8
0
  6
CONTINUOUS
 10
340.431549
 20
69.567581
 11
340.978333
 21
69.567581
  0
LINE
  8
0
  6
CONTINUOUS
 10
340.978333
 20
68.317581
 11
338.462738
 21
68.317581
  0
LINE
  8
0
  6
CONTINUOUS
 10
344.618958
 20
69.567581
 11
344.868134
 21
69.567581
  0
LINE
  8
0
  6
CONTINUOUS
 10
346.126160
 20
69.567581
 11
346.462738
 21
69.567581
  0
LINE
  8
0
  6
CONTINUOUS
 10
344.618958
 20
68.317581
 11
346.462738
 21
68.317581
  0
LINE
  8
0
  6
CONTINUOUS
 10
346.462738
 20
69.567581
 11
346.462738
 21
68.317581
  0
LINE
  8
0
  6
CONTINUOUS
 10
344.618958
 20
69.567581
 11
344.618958
 21
68.317581
  0
LINE
  8
0
  6
CONTINUOUS
 10
340.978333
 20
69.567581
 11
340.978333
 21
68.317581
  0
LINE
  8
0
  6
CONTINUOUS
 10
338.462738
 20
69.567581
 11
338.462738
 21
68.317581
  0
LINE
  8
0
  6
CONTINUOUS
 10
327.780548
 20
78.848831
 11
327.350739
 21
77.817581
  0
LINE
  8
0
  6
CONTINUOUS
 10
333.265961
 20
78.848831
 11
333.628357
 21
77.817581
  0
LINE
  8
0
  6
CONTINUOUS
 10
331.181549
 20
78.848831
 11
333.265961
 21
78.848831
  0
LINE
  8
0
  6
CONTINUOUS
 10
329.681549
 20
78.848831
 11
327.780548
 21
78.848831
  0
LINE
  8
0
  6
CONTINUOUS
 10
340.431549
 20
73.926964
 11
342.991943
 21
73.926964
  0
LINE
  8
0
  6
CONTINUOUS
 10
338.462738
 20
78.848831
 11
339.056549
 21
78.848831
  0
LINE
  8
0
  6
CONTINUOUS
 10
340.431549
 20
78.848831
 11
344.164551
 21
78.846397
  0
LINE
  8
0
  6
CONTINUOUS
 10
321.306549
 20
78.006721
 11
321.306549
 21
77.817581
  0
ARC
  8
0
  6
CONTINUOUS
 10
330.462738
 20
110.317581
 40
73.000000
 50
47.590931
 51
132.409302
  0
ARC
  8
0
  6
CONTINUOUS
 10
330.462738
 20
110.317581
 40
73.000000
 50
227.591095
 51
312.409393
  0
LINE
  8
0
  6
CONTINUOUS
 10
389.462738
 20
142.066605
 11
389.462738
 21
78.568565
  0
LINE
  8
0
  6
CONTINUOUS
 10
271.462738
 20
142.066605
 11
271.462738
 21
78.568565
  0
ARC
  8
0
  6
CONTINUOUS
 10
359.462738
 20
142.066605
 40
30.000000
 50
0.000000
 51
47.590950
  0
ARC
  8
0
  6
CONTINUOUS
 10
359.462738
 20
78.568565
 40
30.000000
 50
-47.590061
 51
0.000000
  0
ARC
  8
0
  6
CONTINUOUS
 10
301.462738
 20
142.066605
 40
30.000000
 50
132.409500
 51
180.000000
  0
ARC
  8
0
  6
CONTINUOUS
 10
301.462738
 20
78.568565
 40
30.000000
 50
180.000000
 51
227.591400
  0
LINE
  8
0
  6
CONTINUOUS
 10
320.462738
 20
136.317581
 11
320.462738
 21
128.317581
  0
LINE
  8
0
  6
CONTINUOUS
 10
313.462738
 20
136.317581
 11
313.462738
 21
128.317581
  0
LINE
  8
0
  6
CONTINUOUS
 10
313.462738
 20
136.317581
 11
320.462738
 21
136.317581
  0
LINE
  8
0
  6
CONTINUOUS
 10
313.462738
 20
128.317581
 11
320.462738
 21
128.317581
  0
ARC
  8
0
  6
CONTINUOUS
 10
330.462738
 20
132.317581
 40
14.000000
 50
-163.398499
 51
163.398499
  0
LINE
  8
0
  6
CONTINUOUS
 10
310.462738
 20
31.948353
 11
310.462738
 21
27.317577
  0
LINE
  8
0
  6
CONTINUOUS
 10
311.904633
 20
32.317577
 11
349.020874
 21
32.317577
  0
LINE
  8
0
  6
CONTINUOUS
 10
309.562012
 20
31.191652
 11
307.363525
 21
28.443504
  0
ARC
  8
0
  6
CONTINUOUS
 10
305.020905
 20
30.317577
 40
3.000000
 50
270.000000
 51
321.340454
  0
ARC
  8
0
  6
CONTINUOUS
 10
311.904633
 20
29.317577
 40
3.000000
 50
90.000000
 51
141.340454
  0
LINE
  8
0
  6
CONTINUOUS
 10
350.462738
 20
31.948353
 11
350.462738
 21
27.317577
  0
LINE
  8
0
  6
CONTINUOUS
 10
351.363464
 20
31.191652
 11
353.561981
 21
28.443504
  0
ARC
  8
0
  6
CONTINUOUS
 10
355.904602
 20
30.317577
 40
3.000000
 50
-141.340454
 51
-90.000000
  0
ARC
  8
0
  6
CONTINUOUS
 10
349.020874
 20
29.317577
 40
3.000000
 50
38.659546
 51
90.000000
  0
LINE
  8
0
  6
CONTINUOUS
 10
394.462738
 20
147.917572
 11
394.462738
 21
44.717598
  0
LINE
  8
0
  6
CONTINUOUS
 10
394.462738
 20
147.917572
 11
392.962738
 21
147.917572
  0
LINE
  8
0
  6
CONTINUOUS
 10
394.462738
 20
44.717598
 11
392.962738
 21
44.717598
  0
ARC
  8
0
  6
CONTINUOUS
 10
210.509552
 20
96.317581
 40
191.053177
 50
-15.669100
 51
15.669100
  0
ARC
  8
0
  6
CONTINUOUS
 10
210.509552
 20
96.317581
 40
190.053177
 50
-1.478500
 51
1.451400
  0
LINE
  8
0
  6
CONTINUOUS
 10
398.462738
 20
101.317581
 11
399.467560
 21
101.317581
  0
LINE
  8
0
  6
CONTINUOUS
 10
395.962738
 20
98.817581
 11
395.962738
 21
93.817581
  0
ARC
  8
0
  6
CONTINUOUS
 10
399.467560
 20
102.315979
 40
1.000000
 50
-90.000000
 51
1.817900
  0
ARC
  8
0
  6
CONTINUOUS
 10
398.462738
 20
98.817581
 40
2.500000
 50
90.000000
 51
180.000000
  0
LINE
  8
0
  6
CONTINUOUS
 10
398.462738
 20
91.317581
 11
399.467560
 21
91.317581
  0
ARC
  8
0
  6
CONTINUOUS
 10
399.467560
 20
90.319176
 40
1.000000
 50
-1.817900
 51
90.000000
  0
ARC
  8
0
  6
CONTINUOUS
 10
398.462738
 20
93.817581
 40
2.500000
 50
180.000000
 51
270.000000
  0
LINE
  8
0
  6
CONTINUOUS
 10
392.962738
 20
147.917572
 11
392.962738
 21
157.689163
  0
ARC
  8
0
  6
CONTINUOUS
 10
394.517090
 20
165.317673
 40
5.000000
 50
235.460007
 51
270.000000
  0
LINE
  8
0
  6
CONTINUOUS
 10
595.462769
 20
401.042572
 11
595.462769
 21
355.042572
  0
LINE
  8
0
  6
CONTINUOUS
 10
593.462769
 20
353.042572
 11
595.462769
 21
355.042572
  0
LINE
  8
0
  6
CONTINUOUS
 10
593.462769
 20
353.042572
 11
547.462769
 21
353.042572
  0
LINE
  8
0
  6
CONTINUOUS
 10
552.962769
 20
357.542572
 11
552.962769
 21
353.042572
  0
ARC
  8
0
  6
CONTINUOUS
 10
549.962769
 20
357.542572
 40
3.000000
 50
0.000000
 51
90.000000
  0
LINE
  8
0
  6
CONTINUOUS
 10
549.962769
 20
360.542572
 11
545.462769
 21
360.542572
  0
CIRCLE
  8
0
  6
CONTINUOUS
 10
548.962769
 20
356.542572
 40
2.250000
  0
LINE
  8
0
  6
CONTINUOUS
 10
545.462769
 20
401.042572
 11
545.462769
 21
355.042572
  0
LINE
  8
0
  6
CONTINUOUS
 10
547.462769
 20
353.042572
 11
545.462769
 21
355.042572
  0
LINE
  8
0
  6
CONTINUOUS
 10
547.462769
 20
403.042572
 11
545.462769
 21
401.042572
  0
LINE
  8
0
  6
CONTINUOUS
 10
547.462769
 20
403.042572
 11
593.462769
 21
403.042572
  0
LINE
  8
0
  6
CONTINUOUS
 10
595.462769
 20
401.042572
 11
593.462769
 21
403.042572
  0
LINE
  8
0
  6
CONTINUOUS
 10
590.962769
 20
395.542572
 11
595.462708
 21
395.542572
  0
CIRCLE
  8
0
  6
CONTINUOUS
 10
591.962769
 20
399.542572
 40
2.250000
  0
ARC
  8
0
  6
CONTINUOUS
 10
590.962769
 20
398.542572
 40
3.000000
 50
180.000000
 51
270.000000
  0
LINE
  8
0
  6
CONTINUOUS
 10
587.962769
 20
398.542572
 11
587.962769
 21
403.042572
  0
LINE
  8
0
  6
CENTER
 10
570.462769
 20
410.508362
 11
570.462769
 21
346.376312
  0
LINE
  8
0
  6
CONTINUOUS
 10
594.462769
 20
395.542542
 11
594.462769
 21
360.542542
  0
LINE
  8
0
  6
CONTINUOUS
 10
552.962769
 20
354.042542
 11
587.962708
 21
354.042542
  0
LINE
  8
0
  6
CONTINUOUS
 10
546.462769
 20
360.542542
 11
546.462769
 21
395.542542
  0
LINE
  8
0
  6
CONTINUOUS
 10
587.962769
 20
402.042542
 11
552.962769
 21
402.042542
  0
LINE
  8
0
  6
CONTINUOUS
 10
590.962708
 20
360.542542
 11
595.462708
 21
360.542542
  0
ARC
  8
0
  6
CONTINUOUS
 10
590.962708
 20
357.542542
 40
3.000000
 50
90.000000
 51
180.000000
  0
LINE
  8
0
  6
CONTINUOUS
 10
587.962708
 20
357.542542
 11
587.962708
 21
353.042572
  0
CIRCLE
  8
0
  6
CONTINUOUS
 10
591.962708
 20
356.542542
 40
2.250000
  0
LINE
  8
0
  6
CONTINUOUS
 10
549.962769
 20
395.542542
 11
545.462769
 21
395.542542
  0
ARC
  8
0
  6
CONTINUOUS
 10
549.962769
 20
398.542542
 40
3.000000
 50
-90.000000
 51
0.000000
  0
LINE
  8
0
  6
CONTINUOUS
 10
552.962769
 20
398.542542
 11
552.962769
 21
403.042542
  0
CIRCLE
  8
0
  6
CONTINUOUS
 10
548.962769
 20
399.542542
 40
2.250000
  0
LINE
  8
0
  6
CONTINUOUS
 10
593.962769
 20
129.817581
 11
547.462769
 21
129.817581
  0
LINE
  8
0
  6
CONTINUOUS
 10
545.462769
 20
173.817581
 11
545.462769
 21
131.817581
  0
LINE
  8
0
  6
CONTINUOUS
 10
595.462769
 20
173.817581
 11
595.462769
 21
131.817581
  0
LINE
  8
0
  6
CONTINUOUS
 10
595.462769
 20
141.817581
 11
545.462769
 21
141.817581
  0
LINE
  8
0
  6
CONTINUOUS
 10
547.462769
 20
129.817581
 11
545.462769
 21
131.817581
  0
LINE
  8
0
  6
CONTINUOUS
 10
595.462769
 20
131.817581
 11
593.462769
 21
129.817581
  0
LINE
  8
0
  6
CONTINUOUS
 10
595.462769
 20
131.817581
 11
545.462769
 21
131.817581
  0
LINE
  8
0
  6
CONTINUOUS
 10
595.462769
 20
142.817581
 11
545.462769
 21
142.817581
  0
LINE
  8
0
  6
CONTINUOUS
 10
594.462769
 20
174.817581
 11
546.462769
 21
174.817581
  0
LINE
  8
0
  6
CONTINUOUS
 10
546.462769
 20
174.817581
 11
545.462769
 21
173.817581
  0
LINE
  8
0
  6
CONTINUOUS
 10
594.462769
 20
174.817581
 11
595.462769
 21
173.817581
  0
LINE
  8
0
  6
CONTINUOUS
 10
595.462769
 20
173.817581
 11
545.462769
 21
173.817581
  0
LINE
  8
0
  6
CENTER
 10
570.462769
 20
123.428070
 11
570.462769
 21
180.128067
  0
LINE
  8
0
  6
CENTER
 10
597.837769
 20
157.817581
 11
593.212769
 21
157.817581
  0
LINE
  8
0
  6
CONTINUOUS
 10
593.962769
 20
129.817581
 11
593.962769
 21
128.317581
  0
LINE
  8
0
  6
CONTINUOUS
 10
547.962769
 20
129.817581
 11
547.962769
 21
128.317581
  0
LINE
  8
0
  6
CONTINUOUS
 10
596.337769
 20
168.317581
 11
594.337769
 21
168.317581
  0
LINE
  8
0
  6
CONTINUOUS
 10
596.337769
 20
147.317581
 11
594.337769
 21
147.317581
  0
LINE
  8
0
  6
CONTINUOUS
 10
476.462738
 20
407.042542
 11
476.462738
 21
421.042572
  0
TEXT
  8
0
 10
-17.000000
 20
-5.000000
 40
4.000000
 41
1.000000
  1
HLM-28L-300~450-T90K
 50
0.000000
  0
ENDSEC
  0
EOF
