  0
SECTION
  2
HEADER
  9
$CLAYER
  8
1
  9
$LTSCALE
 40
3.0
  0
ENDSEC
  0
SECTION
  2
TABLES
  0
TABLE
  2
LTYPE
 70
     4
  0
LTYPE
  2
CONTINUOUS
  3
solid line
 70
    64
 72
    65
 73
     0
 40
0.0
  0
LTYPE
  2
DASHED
  3
__ __ __ __ __ __ __ __ __ __ __ __ __ __ __
 70
    64
 72
    65
 73
     2
 40
0.75
 49
0.5
 49
-0.25
  0
LTYPE
  2
CENTER
  3
____ _ ____ _ ____ _ ____ _ ____ _ ____ _ ____
 70
    64
 72
    65
 73
     4
 40
2.0
 49
1.25
 49
-0.25
 49
0.25
 49
-0.25
  0
LTYPE
  2
PHANTOM
  3
_____ _ _ _____ _ _ _____ _ _ _____ _ _ ____
 70
    64
 72
    65
 73
     6
 40
2.5
 49
1.25
 49
-0.25
 49
0.25
 49
-0.25
 49
0.25
 49
-0.25
  0
ENDTAB
  0
TABLE
  2
LAYER
 70
     1
  0
LAYER
  2
0
 70
    64
 62
     7
  6
CONTINUOUS
  0
ENDTAB
  0
TABLE
  2
STYLE
 70
     1
  0
STYLE
  2
STANDARD
 70
     0
 40
0.000000
 41
1.000000
 50
0.000000
 71
     0
 42
3.000000
  3
txt
  4
BIGFONT
  0
ENDTAB
  0
ENDSEC
  0
SECTION
  2
BLOCKS
  0
ENDSEC
  0
SECTION
  2
ENTITIES
  0
LINE
  8
0
  6
CONTINUOUS
 10
132.398743
 20
120.496330
 11
132.398743
 21
34.496307
  0
LINE
  8
0
  6
CONTINUOUS
 10
22.398750
 20
122.496330
 11
141.398743
 21
122.496330
  0
LINE
  8
0
  6
CONTINUOUS
 10
22.398750
 20
32.496326
 11
141.398743
 21
32.496326
  0
LINE
  8
0
  6
CONTINUOUS
 10
22.398750
 20
122.496330
 11
22.398750
 21
32.496326
  0
LINE
  8
0
  6
CONTINUOUS
 10
22.398750
 20
111.905624
 11
131.361069
 21
111.905624
  0
LINE
  8
0
  6
CONTINUOUS
 10
22.398750
 20
43.087029
 11
131.361069
 21
43.087029
  0
ARC
  8
0
  6
CONTINUOUS
 10
134.398743
 20
120.496346
 40
2.000000
 50
90.000000
 51
180.000000
  0
ARC
  8
0
  6
CONTINUOUS
 10
134.398743
 20
34.496326
 40
2.000000
 50
180.000000
 51
270.000000
  0
LINE
  8
0
  6
CONTINUOUS
 10
1.898750
 20
42.496326
 11
1.898750
 21
112.496330
  0
LINE
  8
0
  6
CONTINUOUS
 10
6.440192
 20
122.496330
 11
22.398750
 21
122.496330
  0
LINE
  8
0
  6
CONTINUOUS
 10
2.398750
 20
119.496330
 11
2.398750
 21
35.496326
  0
LINE
  8
0
  6
CONTINUOUS
 10
22.398750
 20
111.905624
 11
4.148750
 21
111.905624
  0
LINE
  8
0
  6
CONTINUOUS
 10
2.976096
 20
120.496307
 11
2.398750
 21
119.496330
  0
ARC
  8
0
  6
CONTINUOUS
 10
6.440208
 20
118.496330
 40
4.000000
 50
90.000000
 51
150.000397
  0
LINE
  8
0
  6
CONTINUOUS
 10
6.440192
 20
32.496326
 11
22.398750
 21
32.496326
  0
LINE
  8
0
  6
CONTINUOUS
 10
22.398750
 20
43.087029
 11
4.148750
 21
43.087029
  0
LINE
  8
0
  6
CONTINUOUS
 10
2.976096
 20
34.496326
 11
2.398750
 21
35.496326
  0
ARC
  8
0
  6
CONTINUOUS
 10
6.440208
 20
36.496307
 40
4.000000
 50
-150.000397
 51
-90.000000
  0
LINE
  8
0
  6
CONTINUOUS
 10
1.898750
 20
112.496330
 11
2.398750
 21
112.996330
  0
LINE
  8
0
  6
CONTINUOUS
 10
1.898750
 20
42.496326
 11
2.398750
 21
41.996326
  0
LINE
  8
0
  6
CONTINUOUS
 10
340.898743
 20
151.867950
 11
340.898743
 21
6.496328
  0
LINE
  8
0
  6
CONTINUOUS
 10
215.898743
 20
6.496328
 11
340.898743
 21
6.496328
  0
LINE
  8
0
  6
CENTER
 10
224.943542
 20
126.496330
 11
336.109985
 21
126.496330
  0
LINE
  8
0
  6
CENTER
 10
278.398743
 20
197.996292
 11
278.398743
 21
-2.003672
  0
LINE
  8
0
  6
CONTINUOUS
 10
255.953156
 20
180.996292
 11
300.844360
 21
180.996292
  0
LINE
  8
0
  6
CONTINUOUS
 10
303.679138
 20
180.114990
 11
338.733551
 21
155.986572
  0
LINE
  8
0
  6
CONTINUOUS
 10
218.898743
 20
21.496328
 11
337.898743
 21
21.496328
  0
LINE
  8
0
  6
CONTINUOUS
 10
330.898743
 20
19.958828
 11
330.898743
 21
6.496328
  0
LINE
  8
0
  6
CONTINUOUS
 10
226.898743
 20
19.958828
 11
226.898743
 21
6.496328
  0
LINE
  8
0
  6
CENTER
 10
318.398743
 20
28.746328
 11
318.398743
 21
-0.253672
  0
LINE
  8
0
  6
CENTER
 10
238.398743
 20
28.746328
 11
238.398743
 21
0.996328
  0
LINE
  8
0
  6
DASHED
 10
323.898743
 20
21.496328
 11
323.898743
 21
6.496328
  0
LINE
  8
0
  6
DASHED
 10
312.898743
 20
21.496328
 11
312.898743
 21
6.496328
  0
LINE
  8
0
  6
DASHED
 10
243.898743
 20
21.496328
 11
243.898743
 21
6.496328
  0
LINE
  8
0
  6
DASHED
 10
232.898743
 20
21.496328
 11
232.898743
 21
6.496328
  0
ARC
  8
0
  6
CONTINUOUS
 10
258.398743
 20
76.496330
 40
26.500000
 50
170.529099
 51
270.000000
  0
ARC
  8
0
  6
CONTINUOUS
 10
298.398743
 20
76.496330
 40
26.500000
 50
-90.000000
 51
9.470950
  0
LINE
  8
0
  6
CONTINUOUS
 10
232.259949
 20
80.856804
 11
240.916748
 21
132.749161
  0
LINE
  8
0
  6
CONTINUOUS
 10
315.880737
 20
132.749161
 11
324.537537
 21
80.856834
  0
LINE
  8
0
  6
CONTINUOUS
 10
258.398743
 20
49.996326
 11
298.398743
 21
49.996326
  0
ARC
  8
0
  6
CONTINUOUS
 10
335.898743
 20
151.867889
 40
5.000000
 50
0.000000
 51
55.460110
  0
ARC
  8
0
  6
CONTINUOUS
 10
300.844360
 20
175.996292
 40
5.000000
 50
55.460079
 51
90.000000
  0
ARC
  8
0
  6
CONTINUOUS
 10
255.987152
 20
175.996292
 40
5.000000
 50
90.000000
 51
91.038872
  0
LINE
  8
0
  6
CONTINUOUS
 10
258.398743
 20
26.127102
 11
258.398743
 21
21.496328
  0
LINE
  8
0
  6
CONTINUOUS
 10
298.398743
 20
26.127102
 11
298.398743
 21
21.496328
  0
LINE
  8
0
  6
CONTINUOUS
 10
215.898743
 20
6.496328
 11
215.898743
 21
151.867905
  0
ARC
  8
0
  6
CONTINUOUS
 10
258.398743
 20
76.496330
 40
24.000000
 50
169.576294
 51
270.000000
  0
ARC
  8
0
  6
CONTINUOUS
 10
298.398743
 20
76.496330
 40
24.000000
 50
-90.000000
 51
9.471373
  0
LINE
  8
0
  6
CONTINUOUS
 10
258.398743
 20
52.496326
 11
298.398743
 21
52.496326
  0
CIRCLE
  8
0
  6
CONTINUOUS
 10
278.398743
 20
126.496330
 40
33.500000
  0
ARC
  8
0
  6
CONTINUOUS
 10
278.398743
 20
126.496330
 40
38.000000
 50
9.470961
 51
170.529099
  0
ARC
  8
0
  6
CONTINUOUS
 10
278.398743
 20
126.496330
 40
38.000000
 50
9.470963
 51
170.529007
  0
ARC
  8
0
  6
CONTINUOUS
 10
278.398743
 20
126.496330
 40
35.500000
 50
-189.470795
 51
9.471022
  0
LINE
  8
0
  6
CONTINUOUS
 10
234.725952
 20
80.445427
 11
243.382553
 21
132.337662
  0
LINE
  8
0
  6
CONTINUOUS
 10
313.414764
 20
132.337784
 11
322.071564
 21
80.445641
  0
LINE
  8
0
  6
CENTER
 10
117.682503
 20
90.496330
 11
239.648743
 21
90.496330
  0
LINE
  8
0
  6
CONTINUOUS
 10
195.898743
 20
90.496330
 11
195.898743
 21
26.496229
  0
LINE
  8
0
  6
CONTINUOUS
 10
195.898743
 20
90.496330
 11
195.898743
 21
154.496429
  0
LINE
  8
0
  6
CONTINUOUS
 10
218.063751
 20
155.986542
 11
253.118347
 21
180.114944
  0
ARC
  8
0
  6
CONTINUOUS
 10
255.953156
 20
175.996292
 40
5.000000
 50
90.000000
 51
124.540298
  0
ARC
  8
0
  6
CONTINUOUS
 10
220.898743
 20
151.867935
 40
5.000000
 50
124.540398
 51
180.000000
  0
ARC
  8
0
  6
CONTINUOUS
 10
218.898743
 20
18.496347
 40
3.000000
 50
90.000000
 51
180.000000
  0
ARC
  8
0
  6
CONTINUOUS
 10
337.898743
 20
18.496328
 40
3.000000
 50
0.000000
 51
90.000000
  0
LINE
  8
0
  6
CONTINUOUS
 10
268.102356
 20
62.496326
 11
263.941956
 21
62.496326
  0
LINE
  8
0
  6
CONTINUOUS
 10
270.398743
 20
69.465065
 11
270.398743
 21
62.496326
  0
LINE
  8
0
  6
CONTINUOUS
 10
274.398743
 20
71.996330
 11
274.398743
 21
74.496330
  0
LINE
  8
0
  6
CONTINUOUS
 10
282.398743
 20
71.996330
 11
282.398743
 21
74.496330
  0
LINE
  8
0
  6
CONTINUOUS
 10
277.617554
 20
73.027580
 11
277.617554
 21
63.808826
  0
LINE
  8
0
  6
CONTINUOUS
 10
279.117554
 20
73.027580
 11
279.117554
 21
63.808826
  0
LINE
  8
0
  6
CONTINUOUS
 10
286.992554
 20
73.027580
 11
286.992554
 21
63.746326
  0
LINE
  8
0
  6
CONTINUOUS
 10
288.367554
 20
68.105705
 11
288.367554
 21
63.746326
  0
LINE
  8
0
  6
CONTINUOUS
 10
268.500763
 20
72.902580
 11
264.645752
 21
72.902580
  0
LINE
  8
0
  6
CONTINUOUS
 10
264.645752
 20
72.902580
 11
263.742554
 21
71.782578
  0
LINE
  8
0
  6
CONTINUOUS
 10
263.851135
 20
74.496330
 11
262.398743
 21
72.636566
  0
LINE
  8
0
  6
CONTINUOUS
 10
263.742554
 20
64.869247
 11
264.660156
 21
63.902569
  0
LINE
  8
0
  6
CONTINUOUS
 10
262.398743
 20
64.053490
 11
263.941956
 21
62.496326
  0
LINE
  8
0
  6
CONTINUOUS
 10
262.398743
 20
72.636566
 11
262.398743
 21
64.053490
  0
LINE
  8
0
  6
CONTINUOUS
 10
263.742554
 20
71.782578
 11
263.742554
 21
64.869247
  0
LINE
  8
0
  6
CONTINUOUS
 10
269.242554
 20
72.185471
 11
268.485565
 21
72.902580
  0
LINE
  8
0
  6
CONTINUOUS
 10
269.230560
 20
74.496330
 11
270.398743
 21
73.199837
  0
LINE
  8
0
  6
CONTINUOUS
 10
269.242554
 20
71.996330
 11
270.398743
 21
71.996330
  0
LINE
  8
0
  6
CONTINUOUS
 10
263.851135
 20
74.496330
 11
269.230560
 21
74.496330
  0
LINE
  8
0
  6
CONTINUOUS
 10
267.148743
 20
69.465065
 11
270.398743
 21
69.465065
  0
LINE
  8
0
  6
CONTINUOUS
 10
269.242554
 20
68.152565
 11
267.148743
 21
68.152565
  0
LINE
  8
0
  6
CONTINUOUS
 10
266.742554
 20
63.902569
 11
264.660156
 21
63.902569
  0
LINE
  8
0
  6
CONTINUOUS
 10
269.242554
 20
66.902565
 11
269.242554
 21
67.902565
  0
ARC
  8
0
  6
CONTINUOUS
 10
266.742554
 20
66.402565
 40
2.500000
 50
-89.999786
 51
0.000109
  0
LINE
  8
0
  6
CONTINUOUS
 10
269.242554
 20
63.452888
 11
269.242554
 21
62.496326
  0
LINE
  8
0
  6
CONTINUOUS
 10
270.398743
 20
73.199837
 11
270.398743
 21
71.996330
  0
LINE
  8
0
  6
CONTINUOUS
 10
269.242554
 20
68.152565
 11
269.242554
 21
66.402565
  0
LINE
  8
0
  6
CONTINUOUS
 10
267.148743
 20
69.465065
 11
267.148743
 21
68.152565
  0
LINE
  8
0
  6
CONTINUOUS
 10
269.242554
 20
62.496326
 11
270.398743
 21
62.496326
  0
LINE
  8
0
  6
CONTINUOUS
 10
269.242554
 20
63.452888
 11
268.102356
 21
62.496326
  0
LINE
  8
0
  6
CONTINUOUS
 10
279.117554
 20
63.808826
 11
279.617554
 21
63.808826
  0
LINE
  8
0
  6
CONTINUOUS
 10
277.023743
 20
63.808826
 11
277.023743
 21
62.496326
  0
LINE
  8
0
  6
CONTINUOUS
 10
279.617554
 20
63.808826
 11
279.617554
 21
62.496326
  0
LINE
  8
0
  6
CONTINUOUS
 10
281.564362
 20
71.996330
 11
282.398743
 21
71.996330
  0
LINE
  8
0
  6
CONTINUOUS
 10
274.398743
 20
71.996330
 11
275.286743
 21
71.996330
  0
LINE
  8
0
  6
CONTINUOUS
 10
274.398743
 20
74.496330
 11
282.398743
 21
74.496330
  0
LINE
  8
0
  6
CONTINUOUS
 10
277.023743
 20
62.496326
 11
279.617554
 21
62.496326
  0
LINE
  8
0
  6
CONTINUOUS
 10
277.023743
 20
63.808826
 11
277.617554
 21
63.808826
  0
ARC
  8
0
  6
CONTINUOUS
 10
291.195557
 20
71.293205
 40
3.203126
 50
-73.981873
 51
90.003510
  0
ARC
  8
0
  6
CONTINUOUS
 10
291.195557
 20
71.293205
 40
1.954124
 50
-82.585274
 51
62.411850
  0
LINE
  8
0
  6
CONTINUOUS
 10
286.398743
 20
74.496330
 11
291.195557
 21
74.496330
  0
LINE
  8
0
  6
CONTINUOUS
 10
291.447754
 20
69.355408
 11
288.367554
 21
69.355408
  0
LINE
  8
0
  6
CONTINUOUS
 10
286.398743
 20
74.496330
 11
286.398743
 21
73.027580
  0
LINE
  8
0
  6
CONTINUOUS
 10
288.367554
 20
73.027580
 11
288.367554
 21
69.355408
  0
LINE
  8
0
  6
CONTINUOUS
 10
292.079559
 20
68.214447
 11
294.061951
 21
63.746326
  0
LINE
  8
0
  6
CONTINUOUS
 10
290.927948
 20
68.105705
 11
292.804138
 21
63.746326
  0
LINE
  8
0
  6
CONTINUOUS
 10
286.398743
 20
63.746326
 11
286.992554
 21
63.746326
  0
LINE
  8
0
  6
CONTINUOUS
 10
288.367554
 20
63.746326
 11
288.914337
 21
63.746326
  0
LINE
  8
0
  6
CONTINUOUS
 10
288.914337
 20
62.496326
 11
286.398743
 21
62.496326
  0
LINE
  8
0
  6
CONTINUOUS
 10
292.554962
 20
63.746326
 11
292.804138
 21
63.746326
  0
LINE
  8
0
  6
CONTINUOUS
 10
294.061951
 20
63.746326
 11
294.398743
 21
63.746326
  0
LINE
  8
0
  6
CONTINUOUS
 10
292.554962
 20
62.496326
 11
294.398743
 21
62.496326
  0
LINE
  8
0
  6
CONTINUOUS
 10
294.398743
 20
63.746326
 11
294.398743
 21
62.496326
  0
LINE
  8
0
  6
CONTINUOUS
 10
292.554962
 20
63.746326
 11
292.554962
 21
62.496326
  0
LINE
  8
0
  6
CONTINUOUS
 10
288.914337
 20
63.746326
 11
288.914337
 21
62.496326
  0
LINE
  8
0
  6
CONTINUOUS
 10
286.398743
 20
63.746326
 11
286.398743
 21
62.496326
  0
LINE
  8
0
  6
CONTINUOUS
 10
275.716553
 20
73.027580
 11
275.286743
 21
71.996330
  0
LINE
  8
0
  6
CONTINUOUS
 10
281.201935
 20
73.027580
 11
281.564362
 21
71.996330
  0
LINE
  8
0
  6
CONTINUOUS
 10
279.117554
 20
73.027580
 11
281.201935
 21
73.027580
  0
LINE
  8
0
  6
CONTINUOUS
 10
277.617554
 20
73.027580
 11
275.716553
 21
73.027580
  0
LINE
  8
0
  6
CONTINUOUS
 10
288.367554
 20
68.105705
 11
290.927948
 21
68.105705
  0
LINE
  8
0
  6
CONTINUOUS
 10
286.398743
 20
73.027580
 11
286.992554
 21
73.027580
  0
LINE
  8
0
  6
CONTINUOUS
 10
288.367554
 20
73.027580
 11
292.100555
 21
73.025146
  0
LINE
  8
0
  6
CONTINUOUS
 10
269.242554
 20
72.185471
 11
269.242554
 21
71.996330
  0
LINE
  8
0
  6
CONTINUOUS
 10
577.313477
 20
37.496326
 11
577.313477
 21
41.475048
  0
LINE
  8
0
  6
CONTINUOUS
 10
487.313507
 20
37.496326
 11
487.313507
 21
41.474987
  0
LINE
  8
0
  6
CONTINUOUS
 10
492.313507
 20
32.496326
 11
495.313507
 21
32.496326
  0
LINE
  8
0
  6
CONTINUOUS
 10
572.313477
 20
32.496326
 11
569.313477
 21
32.496326
  0
ARC
  8
0
  6
CONTINUOUS
 10
492.313507
 20
37.496326
 40
5.000000
 50
180.000000
 51
270.000000
  0
ARC
  8
0
  6
CONTINUOUS
 10
572.313477
 20
37.496326
 40
5.000000
 50
-90.000000
 51
0.000000
  0
ARC
  8
0
  6
CONTINUOUS
 10
573.325928
 20
49.484367
 40
8.000000
 50
306.780975
 51
358.958740
  0
ARC
  8
0
  6
CONTINUOUS
 10
491.301300
 20
49.484108
 40
8.000000
 50
181.041107
 51
233.216995
  0
ARC
  8
0
  6
CONTINUOUS
 10
579.313477
 20
41.475067
 40
2.000000
 50
126.781197
 51
180.000000
  0
ARC
  8
0
  6
CONTINUOUS
 10
485.313507
 20
41.474987
 40
2.000000
 50
0.000000
 51
53.217121
  0
LINE
  8
0
  6
CENTER
 10
532.313477
 20
-10.832512
 11
532.313477
 21
202.415649
  0
LINE
  8
0
  6
CENTER
 10
415.042511
 20
126.496330
 11
599.554749
 21
126.496330
  0
LINE
  8
0
  6
CONTINUOUS
 10
469.313507
 20
6.496328
 11
504.813507
 21
6.496328
  0
LINE
  8
0
  6
CONTINUOUS
 10
473.313507
 20
21.496328
 11
491.313507
 21
21.496328
  0
LINE
  8
0
  6
CONTINUOUS
 10
591.313477
 20
21.496328
 11
573.313477
 21
21.496328
  0
LINE
  8
0
  6
CONTINUOUS
 10
496.813507
 20
154.496323
 11
567.563477
 21
154.496323
  0
LINE
  8
0
  6
CONTINUOUS
 10
566.365906
 20
180.402206
 11
532.313477
 21
180.996323
  0
LINE
  8
0
  6
CONTINUOUS
 10
498.261108
 20
180.401810
 11
532.313477
 21
180.996323
  0
LINE
  8
0
  6
CONTINUOUS
 10
569.313477
 20
177.402664
 11
569.313477
 21
6.496308
  0
LINE
  8
0
  6
CONTINUOUS
 10
495.313507
 20
177.402267
 11
495.313507
 21
6.496328
  0
LINE
  8
0
  6
CONTINUOUS
 10
479.313507
 20
96.784065
 11
479.313507
 21
156.208572
  0
LINE
  8
0
  6
CONTINUOUS
 10
585.313477
 20
156.208588
 11
585.313477
 21
96.784065
  0
LINE
  8
0
  6
CONTINUOUS
 10
486.313507
 20
56.296749
 11
486.313507
 21
128.996323
  0
LINE
  8
0
  6
CONTINUOUS
 10
578.313477
 20
56.296749
 11
578.313477
 21
128.996323
  0
LINE
  8
0
  6
CONTINUOUS
 10
595.313477
 20
18.192266
 11
595.313477
 21
6.496328
  0
LINE
  8
0
  6
CONTINUOUS
 10
469.313507
 20
18.192266
 11
469.313507
 21
6.496328
  0
LINE
  8
0
  6
CENTER
 10
482.313507
 20
29.496328
 11
482.313507
 21
-4.857072
  0
LINE
  8
0
  6
CENTER
 10
582.313477
 20
29.996328
 11
582.313477
 21
-4.857072
  0
LINE
  8
0
  6
DASHED
 10
476.813507
 20
21.496328
 11
476.813507
 21
6.496328
  0
LINE
  8
0
  6
DASHED
 10
487.813507
 20
21.496328
 11
487.813507
 21
6.496328
  0
LINE
  8
0
  6
DASHED
 10
576.813477
 20
21.496328
 11
576.813477
 21
6.496328
  0
LINE
  8
0
  6
DASHED
 10
587.813477
 20
21.496328
 11
587.813477
 21
6.496328
  0
ARC
  8
0
  6
CONTINUOUS
 10
498.313507
 20
177.402283
 40
3.000000
 50
91.000526
 51
180.000000
  0
ARC
  8
0
  6
CONTINUOUS
 10
566.313477
 20
177.402649
 40
3.000000
 50
0.000000
 51
89.000580
  0
LINE
  8
0
  6
CONTINUOUS
 10
559.813477
 20
6.496328
 11
595.313477
 21
6.496328
  0
LINE
  8
0
  6
CONTINUOUS
 10
505.813507
 20
7.496328
 11
558.813477
 21
7.496328
  0
LINE
  8
0
  6
CONTINUOUS
 10
482.959686
 20
161.021851
 11
491.667114
 21
163.470810
  0
LINE
  8
0
  6
CONTINUOUS
 10
482.959686
 20
91.970810
 11
484.125702
 21
91.642876
  0
LINE
  8
0
  6
CONTINUOUS
 10
489.975311
 20
51.479168
 11
491.651703
 21
51.013489
  0
LINE
  8
0
  6
CONTINUOUS
 10
574.651672
 20
51.479168
 11
572.975281
 21
51.013489
  0
LINE
  8
0
  6
CONTINUOUS
 10
581.667114
 20
91.970810
 11
580.501282
 21
91.642883
  0
LINE
  8
0
  6
CONTINUOUS
 10
581.667114
 20
161.021851
 11
572.959900
 21
163.470810
  0
ARC
  8
0
  6
CONTINUOUS
 10
484.313507
 20
156.208603
 40
5.000000
 50
105.709000
 51
180.000000
  0
ARC
  8
0
  6
CONTINUOUS
 10
484.313507
 20
96.784103
 40
5.000000
 50
180.000000
 51
254.291702
  0
ARC
  8
0
  6
CONTINUOUS
 10
491.313507
 20
56.296787
 40
5.000000
 50
180.000000
 51
254.476196
  0
ARC
  8
0
  6
CONTINUOUS
 10
573.313477
 20
56.296749
 40
5.000000
 50
-74.475708
 51
0.000000
  0
ARC
  8
0
  6
CONTINUOUS
 10
580.313477
 20
96.784058
 40
5.000000
 50
-74.291199
 51
0.000000
  0
ARC
  8
0
  6
CONTINUOUS
 10
580.313477
 20
156.208572
 40
5.000000
 50
0.000000
 51
74.291527
  0
ARC
  8
0
  6
CONTINUOUS
 10
581.313477
 20
88.754951
 40
3.000000
 50
105.709000
 51
180.000000
  0
ARC
  8
0
  6
CONTINUOUS
 10
483.313507
 20
88.754913
 40
3.000000
 50
0.000000
 51
74.291397
  0
ARC
  8
0
  6
CONTINUOUS
 10
490.313507
 20
168.284073
 40
5.000000
 50
-74.291199
 51
0.000000
  0
ARC
  8
0
  6
CONTINUOUS
 10
574.313477
 20
168.284088
 40
5.000000
 50
180.000000
 51
254.291702
  0
ARC
  8
0
  6
CONTINUOUS
 10
574.313477
 20
46.195927
 40
5.000000
 50
105.524399
 51
180.000000
  0
ARC
  8
0
  6
CONTINUOUS
 10
490.313507
 20
46.195889
 40
5.000000
 50
0.000000
 51
74.475952
  0
LINE
  8
0
  6
CONTINUOUS
 10
559.813477
 20
6.496328
 11
558.813477
 21
7.496328
  0
LINE
  8
0
  6
CONTINUOUS
 10
504.813507
 20
6.496328
 11
505.813507
 21
7.496328
  0
LINE
  8
0
  6
CENTER
 10
455.414764
 20
90.496323
 11
611.834778
 21
90.496323
  0
LINE
  8
0
  6
CONTINUOUS
 10
288.398743
 20
122.496368
 11
288.398743
 21
130.496368
  0
LINE
  8
0
  6
CONTINUOUS
 10
295.398743
 20
122.496391
 11
295.398743
 21
130.496384
  0
LINE
  8
0
  6
CONTINUOUS
 10
295.398743
 20
122.496391
 11
288.398743
 21
122.496368
  0
LINE
  8
0
  6
CONTINUOUS
 10
295.398743
 20
130.496384
 11
288.398743
 21
130.496368
  0
ARC
  8
0
  6
CONTINUOUS
 10
278.398743
 20
126.496330
 40
14.000000
 50
16.601500
 51
343.398499
  0
LINE
  8
0
  6
CONTINUOUS
 10
432.313507
 20
112.496330
 11
432.313507
 21
140.496323
  0
LINE
  8
0
  6
CONTINUOUS
 10
477.313507
 20
140.496323
 11
432.313507
 21
140.496323
  0
LINE
  8
0
  6
CONTINUOUS
 10
477.313507
 20
112.496330
 11
432.313507
 21
112.496330
  0
LINE
  8
0
  6
CONTINUOUS
 10
477.313507
 20
141.496323
 11
477.313507
 21
111.496330
  0
LINE
  8
0
  6
CONTINUOUS
 10
479.313507
 20
111.496330
 11
477.313507
 21
111.496330
  0
ARC
  8
0
  6
CONTINUOUS
 10
468.313507
 20
126.496330
 40
4.000000
 50
-90.000000
 51
90.000000
  0
LINE
  8
0
  6
CONTINUOUS
 10
468.313507
 20
130.496323
 11
432.313507
 21
130.496323
  0
LINE
  8
0
  6
CONTINUOUS
 10
468.313507
 20
122.496330
 11
432.313507
 21
122.496330
  0
LINE
  8
0
  6
CONTINUOUS
 10
479.313507
 20
141.496323
 11
477.313507
 21
141.496323
  0
LINE
  8
0
  6
CONTINUOUS
 10
189.398743
 20
154.496429
 11
195.898743
 21
154.496429
  0
LINE
  8
0
  6
CONTINUOUS
 10
189.398743
 20
26.496229
 11
195.898743
 21
26.496229
  0
LINE
  8
0
  6
CONTINUOUS
 10
141.398743
 20
122.496330
 11
187.398743
 21
124.102684
  0
LINE
  8
0
  6
CONTINUOUS
 10
195.898743
 20
30.593145
 11
141.398743
 21
32.496326
  0
ARC
  8
0
  6
CONTINUOUS
 10
189.398773
 20
152.496445
 40
2.000000
 50
90.000000
 51
180.000000
  0
ARC
  8
0
  6
CONTINUOUS
 10
189.398743
 20
28.496229
 40
2.000000
 50
180.260773
 51
270.000000
  0
LINE
  8
0
  6
CENTER
 10
-12.120039
 20
77.496330
 11
239.648743
 21
77.496330
  0
LINE
  8
0
  6
CONTINUOUS
 10
141.398743
 20
122.496330
 11
141.398743
 21
32.496326
  0
LINE
  8
0
  6
CONTINUOUS
 10
186.666519
 20
130.264099
 11
180.952011
 21
124.549583
  0
LINE
  8
0
  6
CONTINUOUS
 10
218.162125
 20
409.221313
 11
337.304810
 21
409.221313
  0
ARC
  8
0
  6
CONTINUOUS
 10
337.304810
 20
406.221313
 40
3.000000
 50
1.000000
 51
90.000000
  0
LINE
  8
0
  6
CONTINUOUS
 10
323.393005
 20
414.575043
 11
324.283447
 21
411.409058
  0
ARC
  8
0
  6
CONTINUOUS
 10
327.171387
 20
412.221313
 40
3.000000
 50
195.708649
 51
270.000000
  0
ARC
  8
0
  6
CONTINUOUS
 10
209.976349
 20
426.447876
 40
3.000000
 50
1.500200
 51
77.801201
  0
LINE
  8
0
  6
CONTINUOUS
 10
212.975357
 20
426.526428
 11
213.331345
 21
412.931641
  0
ARC
  8
0
  6
CONTINUOUS
 10
211.244156
 20
432.312408
 40
3.000000
 50
-164.999893
 51
-102.198799
  0
LINE
  8
0
  6
CENTER
 10
-12.392227
 20
372.221313
 11
356.302612
 21
372.221313
  0
LINE
  8
0
  6
CONTINUOUS
 10
229.413620
 20
309.221313
 11
264.398743
 21
309.221313
  0
LINE
  8
0
  6
CONTINUOUS
 10
340.898743
 20
372.221313
 11
340.252899
 21
409.221313
  0
LINE
  8
0
  6
CONTINUOUS
 10
332.088654
 20
431.913971
 11
340.252899
 21
409.221313
  0
ARC
  8
0
  6
CONTINUOUS
 10
327.383881
 20
430.221313
 40
5.000000
 50
19.787489
 51
90.000000
  0
LINE
  8
0
  6
CONTINUOUS
 10
340.898743
 20
372.221313
 11
340.252899
 21
335.221313
  0
LINE
  8
0
  6
CONTINUOUS
 10
332.088654
 20
312.528625
 11
340.252899
 21
335.221313
  0
ARC
  8
0
  6
CONTINUOUS
 10
327.383881
 20
314.221313
 40
5.000000
 50
-90.000000
 51
-19.787489
  0
LINE
  8
0
  6
CONTINUOUS
 10
218.162125
 20
409.221313
 11
337.304810
 21
409.221313
  0
LINE
  8
0
  6
CENTER
 10
278.398743
 20
252.983749
 11
278.398743
 21
448.295013
  0
ARC
  8
0
  6
CONTINUOUS
 10
337.304810
 20
406.221313
 40
3.000000
 50
1.000000
 51
90.000000
  0
ARC
  8
0
  6
CONTINUOUS
 10
337.304810
 20
338.221313
 40
3.000000
 50
-90.000000
 51
-1.000000
  0
LINE
  8
0
  6
CONTINUOUS
 10
218.235352
 20
335.221313
 11
337.304810
 21
335.221313
  0
LINE
  8
0
  6
CONTINUOUS
 10
308.111023
 20
425.221313
 11
248.686493
 21
425.221313
  0
LINE
  8
0
  6
CONTINUOUS
 10
312.924255
 20
421.575012
 11
313.867493
 21
418.221313
  0
ARC
  8
0
  6
CONTINUOUS
 10
308.111023
 20
420.221313
 40
5.000000
 50
15.708638
 51
90.000000
  0
LINE
  8
0
  6
CONTINUOUS
 10
313.867493
 20
418.221313
 11
318.579773
 21
418.221313
  0
ARC
  8
0
  6
CONTINUOUS
 10
318.579773
 20
413.221313
 40
5.000000
 50
15.708638
 51
90.000000
  0
LINE
  8
0
  6
CONTINUOUS
 10
243.873230
 20
421.575012
 11
242.929993
 21
418.221313
  0
ARC
  8
0
  6
CONTINUOUS
 10
248.686493
 20
420.221313
 40
5.000000
 50
90.000000
 51
164.291367
  0
LINE
  8
0
  6
CONTINUOUS
 10
242.929993
 20
418.221313
 11
238.217743
 21
418.221313
  0
LINE
  8
0
  6
CONTINUOUS
 10
233.404480
 20
414.575012
 11
232.514053
 21
411.409058
  0
ARC
  8
0
  6
CONTINUOUS
 10
238.217743
 20
413.221313
 40
5.000000
 50
90.000000
 51
164.291367
  0
ARC
  8
0
  6
CONTINUOUS
 10
229.626099
 20
412.221313
 40
3.000000
 50
-90.000000
 51
-15.708638
  0
LINE
  8
0
  6
CONTINUOUS
 10
308.111023
 20
319.221313
 11
248.686493
 21
319.221313
  0
LINE
  8
0
  6
CONTINUOUS
 10
312.924255
 20
322.867584
 11
313.867493
 21
326.221313
  0
ARC
  8
0
  6
CONTINUOUS
 10
308.111023
 20
324.221313
 40
5.000000
 50
-90.000000
 51
-15.708638
  0
LINE
  8
0
  6
CONTINUOUS
 10
313.867493
 20
326.221313
 11
318.579773
 21
326.221313
  0
LINE
  8
0
  6
CONTINUOUS
 10
323.393005
 20
329.867584
 11
324.283447
 21
333.033539
  0
ARC
  8
0
  6
CONTINUOUS
 10
318.579773
 20
331.221313
 40
5.000000
 50
-90.000000
 51
-15.708638
  0
ARC
  8
0
  6
CONTINUOUS
 10
327.171387
 20
332.221313
 40
3.000000
 50
-270.000000
 51
-195.708633
  0
LINE
  8
0
  6
CONTINUOUS
 10
243.873230
 20
322.867584
 11
242.929993
 21
326.221313
  0
ARC
  8
0
  6
CONTINUOUS
 10
248.686493
 20
324.221313
 40
5.000000
 50
-164.291367
 51
-90.000000
  0
LINE
  8
0
  6
CONTINUOUS
 10
242.929993
 20
326.221313
 11
238.217743
 21
326.221313
  0
LINE
  8
0
  6
CONTINUOUS
 10
233.404480
 20
329.867584
 11
232.514053
 21
333.033539
  0
ARC
  8
0
  6
CONTINUOUS
 10
238.217743
 20
331.221313
 40
5.000000
 50
-164.291367
 51
-90.000000
  0
ARC
  8
0
  6
CONTINUOUS
 10
229.626099
 20
332.221313
 40
3.000000
 50
15.708638
 51
90.000000
  0
LINE
  8
0
  6
CONTINUOUS
 10
224.708847
 20
431.913971
 11
216.631012
 21
409.461487
  0
ARC
  8
0
  6
CONTINUOUS
 10
229.413620
 20
430.221313
 40
5.000000
 50
90.000000
 51
160.212509
  0
LINE
  8
0
  6
CONTINUOUS
 10
224.708847
 20
312.528625
 11
216.646851
 21
334.937042
  0
ARC
  8
0
  6
CONTINUOUS
 10
229.413620
 20
314.221313
 40
5.000000
 50
199.787491
 51
270.000000
  0
LINE
  8
0
  6
CONTINUOUS
 10
229.413620
 20
435.221313
 11
278.398743
 21
435.221313
  0
LINE
  8
0
  6
CENTER
 10
318.398743
 20
433.334595
 11
318.398743
 21
413.893158
  0
LINE
  8
0
  6
CENTER
 10
308.487854
 20
422.221313
 11
327.006409
 21
422.221313
  0
ARC
  8
0
  6
CONTINUOUS
 10
318.398743
 20
422.221313
 40
5.500000
 50
-59.465683
 51
187.598495
  0
ARC
  8
0
  6
CONTINUOUS
 10
238.398743
 20
422.221313
 40
5.500000
 50
-7.598608
 51
239.465683
  0
LINE
  8
0
  6
CENTER
 10
238.398743
 20
433.334595
 11
238.398743
 21
413.893158
  0
LINE
  8
0
  6
CENTER
 10
248.309631
 20
422.221313
 11
229.791077
 21
422.221313
  0
ARC
  8
0
  6
CONTINUOUS
 10
238.398743
 20
322.221313
 40
5.500000
 50
-239.465683
 51
7.598608
  0
LINE
  8
0
  6
CENTER
 10
248.309631
 20
322.221313
 11
229.791077
 21
322.221313
  0
LINE
  8
0
  6
CENTER
 10
238.398743
 20
311.108032
 11
238.398743
 21
330.549438
  0
LINE
  8
0
  6
CENTER
 10
318.398743
 20
311.108032
 11
318.398743
 21
330.549438
  0
LINE
  8
0
  6
CENTER
 10
308.487854
 20
322.221313
 11
327.006409
 21
322.221313
  0
ARC
  8
0
  6
CONTINUOUS
 10
318.398743
 20
322.221313
 40
5.500000
 50
-187.598602
 51
59.465683
  0
LINE
  8
0
  6
CONTINUOUS
 10
302.398743
 20
338.221313
 11
302.398743
 21
406.221313
  0
LINE
  8
0
  6
CONTINUOUS
 10
254.398743
 20
338.221313
 11
254.398743
 21
406.221313
  0
LINE
  8
0
  6
CONTINUOUS
 10
213.479050
 20
331.515381
 11
208.230423
 21
311.927216
  0
LINE
  8
0
  6
CONTINUOUS
 10
212.975357
 20
317.369263
 11
213.331345
 21
330.964050
  0
ARC
  8
0
  6
CONTINUOUS
 10
209.976349
 20
317.447876
 40
3.000000
 50
282.198792
 51
358.499786
  0
ARC
  8
0
  6
CONTINUOUS
 10
211.244156
 20
311.583252
 40
3.000000
 50
102.198799
 51
165.000031
  0
ARC
  8
0
  6
CONTINUOUS
 10
209.976349
 20
426.447876
 40
3.000000
 50
1.500200
 51
77.801201
  0
LINE
  8
0
  6
CONTINUOUS
 10
212.975357
 20
426.526428
 11
213.331345
 21
412.931641
  0
ARC
  8
0
  6
CONTINUOUS
 10
211.244156
 20
432.312408
 40
3.000000
 50
-164.999893
 51
-102.198799
  0
LINE
  8
0
  6
CONTINUOUS
 10
203.327545
 20
436.221313
 11
195.898743
 21
436.221313
  0
LINE
  8
0
  6
CONTINUOUS
 10
208.083908
 20
432.515381
 11
213.405746
 21
412.653809
  0
ARC
  8
0
  6
CONTINUOUS
 10
218.308670
 20
330.221313
 40
5.000000
 50
90.000000
 51
165.000031
  0
ARC
  8
0
  6
CONTINUOUS
 10
218.162125
 20
414.221313
 40
5.000000
 50
194.999847
 51
270.000000
  0
LINE
  8
0
  6
CONTINUOUS
 10
278.398743
 20
435.221313
 11
327.383881
 21
435.221313
  0
LINE
  8
0
  6
CONTINUOUS
 10
295.398743
 20
272.221313
 11
264.398743
 21
272.221313
  0
LINE
  8
0
  6
CONTINUOUS
 10
264.398743
 20
317.221313
 11
264.398743
 21
272.221313
  0
LINE
  8
0
  6
CONTINUOUS
 10
292.398743
 20
317.221313
 11
292.398743
 21
312.221313
  0
LINE
  8
0
  6
CONTINUOUS
 10
263.398743
 20
317.221313
 11
293.398743
 21
317.221313
  0
LINE
  8
0
  6
CONTINUOUS
 10
293.398743
 20
319.221313
 11
293.398743
 21
317.221313
  0
LINE
  8
0
  6
CONTINUOUS
 10
263.398743
 20
319.221313
 11
263.398743
 21
317.221313
  0
LINE
  8
0
  6
CONTINUOUS
 10
291.815155
 20
312.221313
 11
295.398743
 21
312.221313
  0
LINE
  8
0
  6
CONTINUOUS
 10
291.815155
 20
312.221313
 11
291.815155
 21
272.221313
  0
LINE
  8
0
  6
CONTINUOUS
 10
295.398743
 20
272.221313
 11
295.398743
 21
312.221313
  0
LINE
  8
0
  6
CONTINUOUS
 10
295.398743
 20
309.221313
 11
327.383881
 21
309.221313
  0
LINE
  8
0
  6
CONTINUOUS
 10
195.898743
 20
308.221313
 11
203.400787
 21
308.221313
  0
ARC
  8
0
  6
CONTINUOUS
 10
203.400787
 20
313.221313
 40
5.000000
 50
270.000000
 51
345.000031
  0
ARC
  8
0
  6
CONTINUOUS
 10
203.254288
 20
431.221313
 40
5.000000
 50
14.999846
 51
90.000000
  0
LINE
  8
0
  6
CONTINUOUS
 10
215.898743
 20
372.221313
 11
216.493134
 21
406.273651
  0
LINE
  8
0
  6
CONTINUOUS
 10
215.898743
 20
372.221313
 11
216.493134
 21
338.168945
  0
ARC
  8
0
  6
CONTINUOUS
 10
219.492676
 20
406.221313
 40
3.000000
 50
90.000000
 51
179.000000
  0
ARC
  8
0
  6
CONTINUOUS
 10
219.492676
 20
338.221313
 40
3.000000
 50
181.000000
 51
270.000000
  0
LINE
  8
0
  6
CONTINUOUS
 10
214.344391
 20
154.496429
 11
195.898743
 21
154.496429
  0
LINE
  8
0
  6
CONTINUOUS
 10
195.898743
 20
26.496229
 11
210.898743
 21
26.496229
  0
ARC
  8
0
  6
CONTINUOUS
 10
210.898773
 20
21.496212
 40
5.000000
 50
0.000000
 51
90.000000
  0
LINE
  8
0
  6
CONTINUOUS
 10
472.558105
 20
22.120302
 11
492.068878
 21
25.872366
  0
ARC
  8
0
  6
CONTINUOUS
 10
532.313477
 20
90.496330
 40
64.000099
 50
-54.681290
 51
34.093521
  0
ARC
  8
0
  6
CONTINUOUS
 10
532.313477
 20
90.496330
 40
64.000099
 50
159.894516
 51
234.681290
  0
ARC
  8
0
  6
CONTINUOUS
 10
473.313507
 20
17.496328
 40
4.000000
 50
90.000000
 51
180.000000
  0
ARC
  8
0
  6
CONTINUOUS
 10
473.313507
 20
18.192266
 40
4.000000
 50
100.885529
 51
180.000000
  0
ARC
  8
0
  6
CONTINUOUS
 10
491.313507
 20
29.800390
 40
4.000000
 50
-79.114502
 51
0.000000
  0
ARC
  8
0
  6
CONTINUOUS
 10
491.313507
 20
25.496328
 40
4.000000
 50
-90.000000
 51
0.000000
  0
LINE
  8
0
  6
CONTINUOUS
 10
592.068909
 20
22.120302
 11
572.558105
 21
25.872366
  0
ARC
  8
0
  6
CONTINUOUS
 10
591.313477
 20
17.496328
 40
4.000000
 50
0.000000
 51
90.000000
  0
ARC
  8
0
  6
CONTINUOUS
 10
591.313477
 20
18.192266
 40
4.000000
 50
0.000000
 51
79.114471
  0
ARC
  8
0
  6
CONTINUOUS
 10
573.313477
 20
29.800390
 40
4.000000
 50
180.000000
 51
259.114502
  0
ARC
  8
0
  6
CONTINUOUS
 10
573.313477
 20
25.496328
 40
4.000000
 50
180.000000
 51
270.000000
  0
LINE
  8
0
  6
CONTINUOUS
 10
259.840637
 20
26.496328
 11
296.956879
 21
26.496328
  0
LINE
  8
0
  6
CONTINUOUS
 10
257.498016
 20
25.370401
 11
255.299515
 21
22.622253
  0
ARC
  8
0
  6
CONTINUOUS
 10
252.956909
 20
24.496328
 40
3.000000
 50
270.000000
 51
321.340454
  0
ARC
  8
0
  6
CONTINUOUS
 10
259.840637
 20
23.496328
 40
3.000000
 50
90.000000
 51
141.340454
  0
LINE
  8
0
  6
CONTINUOUS
 10
299.299469
 20
25.370401
 11
301.497986
 21
22.622253
  0
ARC
  8
0
  6
CONTINUOUS
 10
303.840607
 20
24.496328
 40
3.000000
 50
-141.340454
 51
-90.000000
  0
ARC
  8
0
  6
CONTINUOUS
 10
296.956879
 20
23.496328
 40
3.000000
 50
38.659546
 51
90.000000
  0
ARC
  8
0
  6
CONTINUOUS
 10
214.344391
 20
159.496429
 40
5.000000
 50
270.000000
 51
304.539978
  0
LINE
  8
0
  6
CONTINUOUS
 10
195.898743
 20
436.221313
 11
195.898743
 21
308.221313
  0
LINE
  8
0
  6
CONTINUOUS
 10
214.398743
 20
142.096329
 11
215.898743
 21
142.096329
  0
LINE
  8
0
  6
CONTINUOUS
 10
214.398743
 20
38.896347
 11
215.898743
 21
38.896347
  0
ARC
  8
0
  6
CONTINUOUS
 10
398.351959
 20
90.496330
 40
191.053177
 50
164.330902
 51
195.669098
  0
ARC
  8
0
  6
CONTINUOUS
 10
398.351959
 20
90.496330
 40
190.053177
 50
178.548599
 51
181.478500
  0
LINE
  8
0
  6
CONTINUOUS
 10
210.398743
 20
95.496330
 11
209.393951
 21
95.496330
  0
LINE
  8
0
  6
CONTINUOUS
 10
212.898743
 20
92.996330
 11
212.898743
 21
87.996330
  0
ARC
  8
0
  6
CONTINUOUS
 10
209.393951
 20
96.494728
 40
1.000000
 50
178.182098
 51
270.000000
  0
ARC
  8
0
  6
CONTINUOUS
 10
210.398743
 20
92.996330
 40
2.500000
 50
0.000000
 51
90.000000
  0
LINE
  8
0
  6
CONTINUOUS
 10
210.398743
 20
85.496330
 11
209.393951
 21
85.496330
  0
ARC
  8
0
  6
CONTINUOUS
 10
209.393951
 20
84.497925
 40
1.000000
 50
-270.000000
 51
-178.182098
  0
ARC
  8
0
  6
CONTINUOUS
 10
210.398743
 20
87.996330
 40
2.500000
 50
-90.000000
 51
0.000000
  0
LINE
  8
0
  6
CONTINUOUS
 10
141.398743
 20
56.990330
 11
185.398743
 21
56.990330
  0
LINE
  8
0
  6
CONTINUOUS
 10
141.398743
 20
41.977329
 11
195.898743
 21
41.977329
  0
LINE
  8
0
  6
CONTINUOUS
 10
187.966721
 20
49.929329
 11
195.898743
 21
49.929329
  0
LINE
  8
0
  6
CONTINUOUS
 10
187.398743
 20
51.144062
 11
187.398743
 21
152.496445
  0
ARC
  8
0
  6
CONTINUOUS
 10
184.898804
 20
28.475748
 40
2.500000
 50
0.260773
 51
88.000000
  0
ARC
  8
0
  6
CONTINUOUS
 10
184.898743
 20
132.031860
 40
2.500000
 50
-45.000000
 51
0.000000
  0
ARC
  8
0
  6
CONTINUOUS
 10
179.184235
 20
126.317352
 40
2.500000
 50
272.000000
 51
315.000000
  0
LINE
  8
0
  6
CONTINUOUS
 10
187.398743
 20
310.221313
 11
187.398743
 21
434.221313
  0
LINE
  8
0
  6
CONTINUOUS
 10
141.398743
 20
417.221313
 11
184.962372
 21
418.742584
  0
LINE
  8
0
  6
CONTINUOUS
 10
141.398743
 20
327.221313
 11
184.962372
 21
325.700012
  0
LINE
  8
0
  6
CONTINUOUS
 10
141.398743
 20
421.233307
 11
141.398743
 21
323.209290
  0
LINE
  8
0
  6
CONTINUOUS
 10
189.398743
 20
436.221313
 11
195.898743
 21
436.221313
  0
LINE
  8
0
  6
CONTINUOUS
 10
189.398743
 20
308.221313
 11
195.898743
 21
308.221313
  0
LINE
  8
0
  6
CONTINUOUS
 10
180.255753
 20
396.221313
 11
187.370728
 21
396.221313
  0
LINE
  8
0
  6
CONTINUOUS
 10
180.860901
 20
348.221313
 11
187.370728
 21
348.221313
  0
LINE
  8
0
  6
CONTINUOUS
 10
180.255753
 20
394.016785
 11
180.255753
 21
350.304230
  0
LINE
  8
0
  6
CONTINUOUS
 10
132.398743
 20
415.221313
 11
132.398743
 21
401.221313
  0
LINE
  8
0
  6
CONTINUOUS
 10
22.398750
 20
417.221313
 11
141.398743
 21
417.221313
  0
LINE
  8
0
  6
CONTINUOUS
 10
22.398750
 20
327.221313
 11
141.398743
 21
327.221313
  0
LINE
  8
0
  6
CONTINUOUS
 10
22.398750
 20
417.221313
 11
22.398750
 21
397.221283
  0
LINE
  8
0
  6
CONTINUOUS
 10
22.398750
 20
401.221313
 11
132.398743
 21
401.221313
  0
LINE
  8
0
  6
CONTINUOUS
 10
22.398750
 20
343.221313
 11
132.398743
 21
343.221313
  0
ARC
  8
0
  6
CONTINUOUS
 10
134.398743
 20
415.221313
 40
2.000000
 50
90.000000
 51
180.000000
  0
ARC
  8
0
  6
CONTINUOUS
 10
134.398743
 20
329.221313
 40
2.000000
 50
180.000000
 51
270.000000
  0
LINE
  8
0
  6
CONTINUOUS
 10
1.898750
 20
337.221313
 11
1.898750
 21
407.221313
  0
LINE
  8
0
  6
CONTINUOUS
 10
6.440192
 20
417.221313
 11
22.398750
 21
417.221313
  0
LINE
  8
0
  6
CONTINUOUS
 10
2.398750
 20
414.221313
 11
2.398750
 21
330.221313
  0
LINE
  8
0
  6
CONTINUOUS
 10
22.398750
 20
401.221313
 11
4.148750
 21
401.221313
  0
LINE
  8
0
  6
CONTINUOUS
 10
2.976096
 20
415.221283
 11
2.398750
 21
414.221313
  0
ARC
  8
0
  6
CONTINUOUS
 10
6.440208
 20
413.221313
 40
4.000000
 50
90.000000
 51
150.000397
  0
LINE
  8
0
  6
CONTINUOUS
 10
6.440192
 20
327.221313
 11
22.398750
 21
327.221313
  0
LINE
  8
0
  6
CONTINUOUS
 10
22.398750
 20
343.221313
 11
4.148750
 21
343.221313
  0
LINE
  8
0
  6
CONTINUOUS
 10
2.976096
 20
329.221313
 11
2.398750
 21
330.221313
  0
ARC
  8
0
  6
CONTINUOUS
 10
6.440208
 20
331.221283
 40
4.000000
 50
-150.000397
 51
-90.000000
  0
LINE
  8
0
  6
CONTINUOUS
 10
1.898750
 20
407.221313
 11
2.398750
 21
407.721313
  0
LINE
  8
0
  6
CONTINUOUS
 10
1.898750
 20
337.221313
 11
2.398750
 21
336.721313
  0
LINE
  8
0
  6
CONTINUOUS
 10
141.398743
 20
417.221313
 11
141.398743
 21
327.221313
  0
ARC
  8
0
  6
CONTINUOUS
 10
189.398743
 20
434.221313
 40
2.000000
 50
90.000000
 51
180.000000
  0
ARC
  8
0
  6
CONTINUOUS
 10
189.398743
 20
310.221313
 40
2.000000
 50
180.000000
 51
270.000000
  0
ARC
  8
0
  6
CONTINUOUS
 10
184.875122
 20
421.241058
 40
2.500000
 50
272.000000
 51
359.895721
  0
ARC
  8
0
  6
CONTINUOUS
 10
184.875122
 20
323.201538
 40
2.500000
 50
0.104292
 51
88.000000
  0
LINE
  8
0
  6
CONTINUOUS
 10
187.398743
 20
418.827667
 11
187.370728
 21
418.826691
  0
LINE
  8
0
  6
CONTINUOUS
 10
141.898438
 20
421.750763
 11
187.398743
 21
423.339661
  0
LINE
  8
0
  6
CONTINUOUS
 10
141.398743
 20
421.233307
 11
141.898438
 21
421.750763
  0
LINE
  8
0
  6
CONTINUOUS
 10
141.898438
 20
322.691864
 11
187.398743
 21
321.102936
  0
LINE
  8
0
  6
CONTINUOUS
 10
141.398743
 20
323.209290
 11
141.898438
 21
322.691864
  0
LINE
  8
0
  6
CONTINUOUS
 10
22.398750
 20
347.221283
 11
22.398750
 21
327.221313
  0
LINE
  8
0
  6
CONTINUOUS
 10
13.398750
 20
349.221283
 11
13.398750
 21
395.221283
  0
LINE
  8
0
  6
CONTINUOUS
 10
15.398750
 20
397.221283
 11
13.398750
 21
395.221283
  0
LINE
  8
0
  6
CONTINUOUS
 10
15.398750
 20
397.221283
 11
61.398739
 21
397.221283
  0
LINE
  8
0
  6
CONTINUOUS
 10
55.898750
 20
392.721283
 11
55.898750
 21
397.221283
  0
ARC
  8
0
  6
CONTINUOUS
 10
58.898750
 20
392.721283
 40
3.000000
 50
180.000000
 51
270.000000
  0
LINE
  8
0
  6
CONTINUOUS
 10
58.898750
 20
389.721283
 11
63.398739
 21
389.721283
  0
CIRCLE
  8
0
  6
CONTINUOUS
 10
59.898750
 20
393.721283
 40
2.250000
  0
LINE
  8
0
  6
CONTINUOUS
 10
63.398743
 20
349.221283
 11
63.398739
 21
395.221283
  0
LINE
  8
0
  6
CONTINUOUS
 10
61.398739
 20
397.221283
 11
63.398739
 21
395.221283
  0
LINE
  8
0
  6
CONTINUOUS
 10
61.398743
 20
347.221283
 11
63.398743
 21
349.221283
  0
LINE
  8
0
  6
CONTINUOUS
 10
61.398743
 20
347.221283
 11
15.398750
 21
347.221283
  0
LINE
  8
0
  6
CONTINUOUS
 10
13.398750
 20
349.221283
 11
15.398750
 21
347.221283
  0
LINE
  8
0
  6
CONTINUOUS
 10
17.898750
 20
354.721283
 11
13.398760
 21
354.721283
  0
CIRCLE
  8
0
  6
CONTINUOUS
 10
16.898750
 20
350.721283
 40
2.250000
  0
ARC
  8
0
  6
CONTINUOUS
 10
17.898750
 20
351.721283
 40
3.000000
 50
0.000000
 51
90.000000
  0
LINE
  8
0
  6
CONTINUOUS
 10
20.898750
 20
351.721283
 11
20.898750
 21
347.221283
  0
LINE
  8
0
  6
CENTER
 10
38.398750
 20
339.755493
 11
38.398750
 21
403.887543
  0
LINE
  8
0
  6
CONTINUOUS
 10
14.398756
 20
354.721313
 11
14.398756
 21
389.721313
  0
LINE
  8
0
  6
CONTINUOUS
 10
55.898750
 20
396.221313
 11
20.898769
 21
396.221313
  0
LINE
  8
0
  6
CONTINUOUS
 10
62.398743
 20
389.721313
 11
62.398743
 21
354.721313
  0
LINE
  8
0
  6
CONTINUOUS
 10
20.898750
 20
348.221313
 11
55.898731
 21
348.221313
  0
LINE
  8
0
  6
CONTINUOUS
 10
17.898769
 20
389.721313
 11
13.398770
 21
389.721313
  0
ARC
  8
0
  6
CONTINUOUS
 10
17.898769
 20
392.721313
 40
3.000000
 50
-90.000000
 51
0.000000
  0
LINE
  8
0
  6
CONTINUOUS
 10
20.898769
 20
392.721313
 11
20.898769
 21
397.221283
  0
CIRCLE
  8
0
  6
CONTINUOUS
 10
16.898769
 20
393.721313
 40
2.250000
  0
LINE
  8
0
  6
CONTINUOUS
 10
58.898731
 20
354.721313
 11
63.398731
 21
354.721313
  0
ARC
  8
0
  6
CONTINUOUS
 10
58.898731
 20
351.721313
 40
3.000000
 50
90.000000
 51
180.000000
  0
LINE
  8
0
  6
CONTINUOUS
 10
55.898731
 20
351.721313
 11
55.898731
 21
347.221313
  0
CIRCLE
  8
0
  6
CONTINUOUS
 10
59.898731
 20
350.721313
 40
2.250000
  0
LINE
  8
0
  6
CONTINUOUS
 10
14.898750
 20
123.996330
 11
61.398750
 21
123.996330
  0
LINE
  8
0
  6
CONTINUOUS
 10
63.398731
 20
167.996323
 11
63.398750
 21
125.996330
  0
LINE
  8
0
  6
CONTINUOUS
 10
13.398750
 20
167.996323
 11
13.398750
 21
125.996330
  0
LINE
  8
0
  6
CONTINUOUS
 10
13.398750
 20
135.996323
 11
63.398750
 21
135.996323
  0
LINE
  8
0
  6
CONTINUOUS
 10
61.398750
 20
123.996330
 11
63.398750
 21
125.996330
  0
LINE
  8
0
  6
CONTINUOUS
 10
13.398750
 20
125.996330
 11
15.398750
 21
123.996330
  0
LINE
  8
0
  6
CONTINUOUS
 10
13.398750
 20
125.996330
 11
63.398750
 21
125.996330
  0
LINE
  8
0
  6
CONTINUOUS
 10
13.398750
 20
136.996323
 11
63.398739
 21
136.996323
  0
LINE
  8
0
  6
CONTINUOUS
 10
14.398750
 20
168.996323
 11
62.398731
 21
168.996323
  0
LINE
  8
0
  6
CONTINUOUS
 10
62.398731
 20
168.996323
 11
63.398731
 21
167.996323
  0
LINE
  8
0
  6
CONTINUOUS
 10
14.398750
 20
168.996323
 11
13.398750
 21
167.996323
  0
LINE
  8
0
  6
CONTINUOUS
 10
13.398750
 20
167.996323
 11
63.398731
 21
167.996323
  0
LINE
  8
0
  6
CENTER
 10
38.398750
 20
117.606819
 11
38.398750
 21
174.306824
  0
LINE
  8
0
  6
CENTER
 10
11.023750
 20
151.996323
 11
15.648750
 21
151.996323
  0
LINE
  8
0
  6
CONTINUOUS
 10
14.898750
 20
123.996330
 11
14.898750
 21
122.496330
  0
LINE
  8
0
  6
CONTINUOUS
 10
60.898750
 20
123.996330
 11
60.898750
 21
122.496330
  0
LINE
  8
0
  6
CONTINUOUS
 10
12.523750
 20
162.496323
 11
14.523750
 21
162.496323
  0
LINE
  8
0
  6
CONTINUOUS
 10
12.523750
 20
141.496323
 11
14.523750
 21
141.496323
  0
LINE
  8
0
  6
CONTINUOUS
 10
132.398743
 20
343.221313
 11
132.398743
 21
329.221283
  0
TEXT
  8
0
 10
-12.000000
 20
-10.000000
 40
4.000000
 41
1.000000
  1
HLM-28R-1200~1800-S25WK
 50
0.000000
  0
ENDSEC
  0
EOF
