  0
SECTION
  2
HEADER
  9
$CLAYER
  8
1
  9
$LTSCALE
 40
3.0
  0
ENDSEC
  0
SECTION
  2
TABLES
  0
TABLE
  2
LTYPE
 70
     4
  0
LTYPE
  2
CONTINUOUS
  3
solid line
 70
    64
 72
    65
 73
     0
 40
0.0
  0
LTYPE
  2
DASHED
  3
__ __ __ __ __ __ __ __ __ __ __ __ __ __ __
 70
    64
 72
    65
 73
     2
 40
0.75
 49
0.5
 49
-0.25
  0
LTYPE
  2
CENTER
  3
____ _ ____ _ ____ _ ____ _ ____ _ ____ _ ____
 70
    64
 72
    65
 73
     4
 40
2.0
 49
1.25
 49
-0.25
 49
0.25
 49
-0.25
  0
LTYPE
  2
PHANTOM
  3
_____ _ _ _____ _ _ _____ _ _ _____ _ _ ____
 70
    64
 72
    65
 73
     6
 40
2.5
 49
1.25
 49
-0.25
 49
0.25
 49
-0.25
 49
0.25
 49
-0.25
  0
ENDTAB
  0
TABLE
  2
LAYER
 70
     1
  0
LAYER
  2
0
 70
    64
 62
     7
  6
CONTINUOUS
  0
ENDTAB
  0
TABLE
  2
STYLE
 70
     1
  0
STYLE
  2
STANDARD
 70
     0
 40
0.000000
 41
1.000000
 50
0.000000
 71
     0
 42
3.000000
  3
txt
  4
BIGFONT
  0
ENDTAB
  0
ENDSEC
  0
SECTION
  2
BLOCKS
  0
ENDSEC
  0
SECTION
  2
ENTITIES
  0
LINE
  8
0
  6
CONTINUOUS
 10
130.872498
 20
121.671326
 11
130.872498
 21
35.671307
  0
LINE
  8
0
  6
CONTINUOUS
 10
20.872499
 20
123.671326
 11
139.872498
 21
123.671326
  0
LINE
  8
0
  6
CONTINUOUS
 10
20.872499
 20
33.671329
 11
139.872498
 21
33.671329
  0
LINE
  8
0
  6
CONTINUOUS
 10
20.872499
 20
123.671326
 11
20.872499
 21
33.671329
  0
LINE
  8
0
  6
CONTINUOUS
 10
20.872499
 20
113.080627
 11
129.834824
 21
113.080627
  0
LINE
  8
0
  6
CONTINUOUS
 10
20.872499
 20
44.262028
 11
129.834824
 21
44.262028
  0
ARC
  8
0
  6
CONTINUOUS
 10
132.872498
 20
121.671349
 40
2.000000
 50
90.000000
 51
180.000000
  0
ARC
  8
0
  6
CONTINUOUS
 10
132.872498
 20
35.671329
 40
2.000000
 50
180.000000
 51
270.000000
  0
LINE
  8
0
  6
CONTINUOUS
 10
0.372500
 20
43.671329
 11
0.372500
 21
113.671326
  0
LINE
  8
0
  6
CONTINUOUS
 10
4.913942
 20
123.671326
 11
20.872499
 21
123.671326
  0
LINE
  8
0
  6
CONTINUOUS
 10
0.872500
 20
120.671326
 11
0.872500
 21
36.671329
  0
LINE
  8
0
  6
CONTINUOUS
 10
20.872499
 20
113.080627
 11
2.622500
 21
113.080627
  0
LINE
  8
0
  6
CONTINUOUS
 10
1.449846
 20
121.671310
 11
0.872500
 21
120.671326
  0
ARC
  8
0
  6
CONTINUOUS
 10
4.913958
 20
119.671326
 40
4.000000
 50
90.000000
 51
150.000397
  0
LINE
  8
0
  6
CONTINUOUS
 10
4.913942
 20
33.671329
 11
20.872499
 21
33.671329
  0
LINE
  8
0
  6
CONTINUOUS
 10
20.872499
 20
44.262028
 11
2.622500
 21
44.262028
  0
LINE
  8
0
  6
CONTINUOUS
 10
1.449846
 20
35.671329
 11
0.872500
 21
36.671329
  0
ARC
  8
0
  6
CONTINUOUS
 10
4.913958
 20
37.671307
 40
4.000000
 50
-150.000397
 51
-90.000000
  0
LINE
  8
0
  6
CONTINUOUS
 10
0.372500
 20
113.671326
 11
0.872500
 21
114.171326
  0
LINE
  8
0
  6
CONTINUOUS
 10
0.372500
 20
43.671329
 11
0.872500
 21
43.171329
  0
LINE
  8
0
  6
CONTINUOUS
 10
339.372498
 20
153.042953
 11
339.372498
 21
7.671328
  0
LINE
  8
0
  6
CONTINUOUS
 10
214.372498
 20
7.671328
 11
339.372498
 21
7.671328
  0
LINE
  8
0
  6
CENTER
 10
223.417297
 20
127.671326
 11
334.583740
 21
127.671326
  0
LINE
  8
0
  6
CENTER
 10
276.872498
 20
199.171295
 11
276.872498
 21
-0.828672
  0
LINE
  8
0
  6
CONTINUOUS
 10
254.426895
 20
182.171295
 11
299.318115
 21
182.171295
  0
LINE
  8
0
  6
CONTINUOUS
 10
302.152893
 20
181.289993
 11
337.207306
 21
157.161575
  0
LINE
  8
0
  6
CONTINUOUS
 10
217.372498
 20
22.671328
 11
336.372498
 21
22.671328
  0
LINE
  8
0
  6
CONTINUOUS
 10
329.372498
 20
21.133827
 11
329.372498
 21
7.671328
  0
LINE
  8
0
  6
CONTINUOUS
 10
225.372498
 20
21.133827
 11
225.372498
 21
7.671328
  0
LINE
  8
0
  6
CENTER
 10
316.872498
 20
29.921328
 11
316.872498
 21
0.921328
  0
LINE
  8
0
  6
CENTER
 10
236.872498
 20
29.921328
 11
236.872498
 21
2.171328
  0
LINE
  8
0
  6
DASHED
 10
322.372498
 20
22.671328
 11
322.372498
 21
7.671328
  0
LINE
  8
0
  6
DASHED
 10
311.372498
 20
22.671328
 11
311.372498
 21
7.671328
  0
LINE
  8
0
  6
DASHED
 10
242.372498
 20
22.671328
 11
242.372498
 21
7.671328
  0
LINE
  8
0
  6
DASHED
 10
231.372498
 20
22.671328
 11
231.372498
 21
7.671328
  0
ARC
  8
0
  6
CONTINUOUS
 10
256.872498
 20
77.671326
 40
26.500000
 50
170.529099
 51
270.000000
  0
ARC
  8
0
  6
CONTINUOUS
 10
296.872498
 20
77.671326
 40
26.500000
 50
-90.000000
 51
9.470950
  0
LINE
  8
0
  6
CONTINUOUS
 10
230.733704
 20
82.031799
 11
239.390503
 21
133.924164
  0
LINE
  8
0
  6
CONTINUOUS
 10
314.354492
 20
133.924164
 11
323.011292
 21
82.031830
  0
LINE
  8
0
  6
CONTINUOUS
 10
256.872498
 20
51.171329
 11
296.872498
 21
51.171329
  0
ARC
  8
0
  6
CONTINUOUS
 10
334.372498
 20
153.042892
 40
5.000000
 50
0.000000
 51
55.460110
  0
ARC
  8
0
  6
CONTINUOUS
 10
299.318115
 20
177.171295
 40
5.000000
 50
55.460079
 51
90.000000
  0
ARC
  8
0
  6
CONTINUOUS
 10
254.460907
 20
177.171295
 40
5.000000
 50
90.000000
 51
91.038872
  0
LINE
  8
0
  6
CONTINUOUS
 10
256.872498
 20
27.302101
 11
256.872498
 21
22.671328
  0
LINE
  8
0
  6
CONTINUOUS
 10
296.872498
 20
27.302101
 11
296.872498
 21
22.671328
  0
LINE
  8
0
  6
CONTINUOUS
 10
214.372498
 20
7.671328
 11
214.372498
 21
153.042908
  0
ARC
  8
0
  6
CONTINUOUS
 10
256.872498
 20
77.671326
 40
24.000000
 50
169.576294
 51
270.000000
  0
ARC
  8
0
  6
CONTINUOUS
 10
296.872498
 20
77.671326
 40
24.000000
 50
-90.000000
 51
9.471373
  0
LINE
  8
0
  6
CONTINUOUS
 10
256.872498
 20
53.671329
 11
296.872498
 21
53.671329
  0
CIRCLE
  8
0
  6
CONTINUOUS
 10
276.872498
 20
127.671326
 40
33.500000
  0
ARC
  8
0
  6
CONTINUOUS
 10
276.872498
 20
127.671326
 40
38.000000
 50
9.470961
 51
170.529099
  0
ARC
  8
0
  6
CONTINUOUS
 10
276.872498
 20
127.671326
 40
38.000000
 50
9.470963
 51
170.529007
  0
ARC
  8
0
  6
CONTINUOUS
 10
276.872498
 20
127.671326
 40
35.500000
 50
-189.470795
 51
9.471022
  0
LINE
  8
0
  6
CONTINUOUS
 10
233.199707
 20
81.620422
 11
241.856293
 21
133.512665
  0
LINE
  8
0
  6
CONTINUOUS
 10
311.888489
 20
133.512787
 11
320.545288
 21
81.620636
  0
LINE
  8
0
  6
CENTER
 10
116.156250
 20
91.671326
 11
238.122498
 21
91.671326
  0
LINE
  8
0
  6
CONTINUOUS
 10
194.372498
 20
91.671326
 11
194.372498
 21
27.671230
  0
LINE
  8
0
  6
CONTINUOUS
 10
194.372498
 20
91.671326
 11
194.372498
 21
155.671432
  0
LINE
  8
0
  6
CONTINUOUS
 10
216.537506
 20
157.161545
 11
251.592102
 21
181.289948
  0
ARC
  8
0
  6
CONTINUOUS
 10
254.426895
 20
177.171295
 40
5.000000
 50
90.000000
 51
124.540298
  0
ARC
  8
0
  6
CONTINUOUS
 10
219.372498
 20
153.042923
 40
5.000000
 50
124.540398
 51
180.000000
  0
ARC
  8
0
  6
CONTINUOUS
 10
217.372498
 20
19.671349
 40
3.000000
 50
90.000000
 51
180.000000
  0
ARC
  8
0
  6
CONTINUOUS
 10
336.372498
 20
19.671328
 40
3.000000
 50
0.000000
 51
90.000000
  0
LINE
  8
0
  6
CONTINUOUS
 10
266.576111
 20
63.671329
 11
262.415710
 21
63.671329
  0
LINE
  8
0
  6
CONTINUOUS
 10
268.872498
 20
70.640068
 11
268.872498
 21
63.671329
  0
LINE
  8
0
  6
CONTINUOUS
 10
272.872498
 20
73.171326
 11
272.872498
 21
75.671326
  0
LINE
  8
0
  6
CONTINUOUS
 10
280.872498
 20
73.171326
 11
280.872498
 21
75.671326
  0
LINE
  8
0
  6
CONTINUOUS
 10
276.091309
 20
74.202576
 11
276.091309
 21
64.983826
  0
LINE
  8
0
  6
CONTINUOUS
 10
277.591309
 20
74.202576
 11
277.591309
 21
64.983826
  0
LINE
  8
0
  6
CONTINUOUS
 10
285.466309
 20
74.202576
 11
285.466309
 21
64.921326
  0
LINE
  8
0
  6
CONTINUOUS
 10
286.841309
 20
69.280708
 11
286.841309
 21
64.921326
  0
LINE
  8
0
  6
CONTINUOUS
 10
266.974487
 20
74.077576
 11
263.119507
 21
74.077576
  0
LINE
  8
0
  6
CONTINUOUS
 10
263.119507
 20
74.077576
 11
262.216309
 21
72.957581
  0
LINE
  8
0
  6
CONTINUOUS
 10
262.324890
 20
75.671326
 11
260.872498
 21
73.811569
  0
LINE
  8
0
  6
CONTINUOUS
 10
262.216309
 20
66.044250
 11
263.133911
 21
65.077568
  0
LINE
  8
0
  6
CONTINUOUS
 10
260.872498
 20
65.228485
 11
262.415710
 21
63.671329
  0
LINE
  8
0
  6
CONTINUOUS
 10
260.872498
 20
73.811569
 11
260.872498
 21
65.228485
  0
LINE
  8
0
  6
CONTINUOUS
 10
262.216309
 20
72.957581
 11
262.216309
 21
66.044250
  0
LINE
  8
0
  6
CONTINUOUS
 10
267.716309
 20
73.360474
 11
266.959290
 21
74.077576
  0
LINE
  8
0
  6
CONTINUOUS
 10
267.704315
 20
75.671326
 11
268.872498
 21
74.374840
  0
LINE
  8
0
  6
CONTINUOUS
 10
267.716309
 20
73.171326
 11
268.872498
 21
73.171326
  0
LINE
  8
0
  6
CONTINUOUS
 10
262.324890
 20
75.671326
 11
267.704315
 21
75.671326
  0
LINE
  8
0
  6
CONTINUOUS
 10
265.622498
 20
70.640068
 11
268.872498
 21
70.640068
  0
LINE
  8
0
  6
CONTINUOUS
 10
267.716309
 20
69.327568
 11
265.622498
 21
69.327568
  0
LINE
  8
0
  6
CONTINUOUS
 10
265.216309
 20
65.077568
 11
263.133911
 21
65.077568
  0
LINE
  8
0
  6
CONTINUOUS
 10
267.716309
 20
68.077568
 11
267.716309
 21
69.077568
  0
ARC
  8
0
  6
CONTINUOUS
 10
265.216309
 20
67.577568
 40
2.500000
 50
-89.999786
 51
0.000109
  0
LINE
  8
0
  6
CONTINUOUS
 10
267.716309
 20
64.627892
 11
267.716309
 21
63.671329
  0
LINE
  8
0
  6
CONTINUOUS
 10
268.872498
 20
74.374840
 11
268.872498
 21
73.171326
  0
LINE
  8
0
  6
CONTINUOUS
 10
267.716309
 20
69.327568
 11
267.716309
 21
67.577568
  0
LINE
  8
0
  6
CONTINUOUS
 10
265.622498
 20
70.640068
 11
265.622498
 21
69.327568
  0
LINE
  8
0
  6
CONTINUOUS
 10
267.716309
 20
63.671329
 11
268.872498
 21
63.671329
  0
LINE
  8
0
  6
CONTINUOUS
 10
267.716309
 20
64.627892
 11
266.576111
 21
63.671329
  0
LINE
  8
0
  6
CONTINUOUS
 10
277.591309
 20
64.983826
 11
278.091309
 21
64.983826
  0
LINE
  8
0
  6
CONTINUOUS
 10
275.497498
 20
64.983826
 11
275.497498
 21
63.671329
  0
LINE
  8
0
  6
CONTINUOUS
 10
278.091309
 20
64.983826
 11
278.091309
 21
63.671329
  0
LINE
  8
0
  6
CONTINUOUS
 10
280.038086
 20
73.171326
 11
280.872498
 21
73.171326
  0
LINE
  8
0
  6
CONTINUOUS
 10
272.872498
 20
73.171326
 11
273.760498
 21
73.171326
  0
LINE
  8
0
  6
CONTINUOUS
 10
272.872498
 20
75.671326
 11
280.872498
 21
75.671326
  0
LINE
  8
0
  6
CONTINUOUS
 10
275.497498
 20
63.671329
 11
278.091309
 21
63.671329
  0
LINE
  8
0
  6
CONTINUOUS
 10
275.497498
 20
64.983826
 11
276.091309
 21
64.983826
  0
ARC
  8
0
  6
CONTINUOUS
 10
289.669312
 20
72.468201
 40
3.203126
 50
-73.981873
 51
90.003510
  0
ARC
  8
0
  6
CONTINUOUS
 10
289.669312
 20
72.468201
 40
1.954124
 50
-82.585274
 51
62.411850
  0
LINE
  8
0
  6
CONTINUOUS
 10
284.872498
 20
75.671326
 11
289.669312
 21
75.671326
  0
LINE
  8
0
  6
CONTINUOUS
 10
289.921509
 20
70.530411
 11
286.841309
 21
70.530411
  0
LINE
  8
0
  6
CONTINUOUS
 10
284.872498
 20
75.671326
 11
284.872498
 21
74.202576
  0
LINE
  8
0
  6
CONTINUOUS
 10
286.841309
 20
74.202576
 11
286.841309
 21
70.530411
  0
LINE
  8
0
  6
CONTINUOUS
 10
290.553314
 20
69.389450
 11
292.535706
 21
64.921326
  0
LINE
  8
0
  6
CONTINUOUS
 10
289.401703
 20
69.280708
 11
291.277893
 21
64.921326
  0
LINE
  8
0
  6
CONTINUOUS
 10
284.872498
 20
64.921326
 11
285.466309
 21
64.921326
  0
LINE
  8
0
  6
CONTINUOUS
 10
286.841309
 20
64.921326
 11
287.388092
 21
64.921326
  0
LINE
  8
0
  6
CONTINUOUS
 10
287.388092
 20
63.671329
 11
284.872498
 21
63.671329
  0
LINE
  8
0
  6
CONTINUOUS
 10
291.028687
 20
64.921326
 11
291.277893
 21
64.921326
  0
LINE
  8
0
  6
CONTINUOUS
 10
292.535706
 20
64.921326
 11
292.872498
 21
64.921326
  0
LINE
  8
0
  6
CONTINUOUS
 10
291.028687
 20
63.671329
 11
292.872498
 21
63.671329
  0
LINE
  8
0
  6
CONTINUOUS
 10
292.872498
 20
64.921326
 11
292.872498
 21
63.671329
  0
LINE
  8
0
  6
CONTINUOUS
 10
291.028687
 20
64.921326
 11
291.028687
 21
63.671329
  0
LINE
  8
0
  6
CONTINUOUS
 10
287.388092
 20
64.921326
 11
287.388092
 21
63.671329
  0
LINE
  8
0
  6
CONTINUOUS
 10
284.872498
 20
64.921326
 11
284.872498
 21
63.671329
  0
LINE
  8
0
  6
CONTINUOUS
 10
274.190308
 20
74.202576
 11
273.760498
 21
73.171326
  0
LINE
  8
0
  6
CONTINUOUS
 10
279.675690
 20
74.202576
 11
280.038086
 21
73.171326
  0
LINE
  8
0
  6
CONTINUOUS
 10
277.591309
 20
74.202576
 11
279.675690
 21
74.202576
  0
LINE
  8
0
  6
CONTINUOUS
 10
276.091309
 20
74.202576
 11
274.190308
 21
74.202576
  0
LINE
  8
0
  6
CONTINUOUS
 10
286.841309
 20
69.280708
 11
289.401703
 21
69.280708
  0
LINE
  8
0
  6
CONTINUOUS
 10
284.872498
 20
74.202576
 11
285.466309
 21
74.202576
  0
LINE
  8
0
  6
CONTINUOUS
 10
286.841309
 20
74.202576
 11
290.574310
 21
74.200150
  0
LINE
  8
0
  6
CONTINUOUS
 10
267.716309
 20
73.360474
 11
267.716309
 21
73.171326
  0
LINE
  8
0
  6
CONTINUOUS
 10
577.335999
 20
38.671329
 11
577.335999
 21
42.650047
  0
LINE
  8
0
  6
CONTINUOUS
 10
487.335999
 20
38.671329
 11
487.335999
 21
42.649986
  0
LINE
  8
0
  6
CONTINUOUS
 10
492.335999
 20
33.671329
 11
495.335999
 21
33.671329
  0
LINE
  8
0
  6
CONTINUOUS
 10
572.335999
 20
33.671329
 11
569.335999
 21
33.671329
  0
ARC
  8
0
  6
CONTINUOUS
 10
492.335999
 20
38.671329
 40
5.000000
 50
180.000000
 51
270.000000
  0
ARC
  8
0
  6
CONTINUOUS
 10
572.335999
 20
38.671329
 40
5.000000
 50
-90.000000
 51
0.000000
  0
ARC
  8
0
  6
CONTINUOUS
 10
573.348389
 20
50.659367
 40
8.000000
 50
306.780975
 51
358.958740
  0
ARC
  8
0
  6
CONTINUOUS
 10
491.323792
 20
50.659107
 40
8.000000
 50
181.041107
 51
233.216995
  0
ARC
  8
0
  6
CONTINUOUS
 10
579.335999
 20
42.650066
 40
2.000000
 50
126.781197
 51
180.000000
  0
ARC
  8
0
  6
CONTINUOUS
 10
485.335999
 20
42.649986
 40
2.000000
 50
0.000000
 51
53.217121
  0
LINE
  8
0
  6
CENTER
 10
532.335999
 20
-9.657512
 11
532.335999
 21
203.590652
  0
LINE
  8
0
  6
CENTER
 10
415.065002
 20
127.671326
 11
599.577271
 21
127.671326
  0
LINE
  8
0
  6
CONTINUOUS
 10
469.335999
 20
7.671328
 11
504.835999
 21
7.671328
  0
LINE
  8
0
  6
CONTINUOUS
 10
473.335999
 20
22.671328
 11
491.335999
 21
22.671328
  0
LINE
  8
0
  6
CONTINUOUS
 10
591.335999
 20
22.671328
 11
573.335999
 21
22.671328
  0
LINE
  8
0
  6
CONTINUOUS
 10
496.835999
 20
155.671326
 11
567.585999
 21
155.671326
  0
LINE
  8
0
  6
CONTINUOUS
 10
566.388428
 20
181.577209
 11
532.335999
 21
182.171326
  0
LINE
  8
0
  6
CONTINUOUS
 10
498.283600
 20
181.576813
 11
532.335999
 21
182.171326
  0
LINE
  8
0
  6
CONTINUOUS
 10
569.335999
 20
178.577667
 11
569.335999
 21
7.671308
  0
LINE
  8
0
  6
CONTINUOUS
 10
495.335999
 20
178.577271
 11
495.335999
 21
7.671328
  0
LINE
  8
0
  6
CONTINUOUS
 10
479.335999
 20
97.959061
 11
479.335999
 21
157.383575
  0
LINE
  8
0
  6
CONTINUOUS
 10
585.335999
 20
157.383591
 11
585.335999
 21
97.959068
  0
LINE
  8
0
  6
CONTINUOUS
 10
486.335999
 20
57.471748
 11
486.335999
 21
130.171326
  0
LINE
  8
0
  6
CONTINUOUS
 10
578.335999
 20
57.471748
 11
578.335999
 21
130.171326
  0
LINE
  8
0
  6
CONTINUOUS
 10
595.335999
 20
19.367266
 11
595.335999
 21
7.671328
  0
LINE
  8
0
  6
CONTINUOUS
 10
469.335999
 20
19.367266
 11
469.335999
 21
7.671328
  0
LINE
  8
0
  6
CENTER
 10
482.335999
 20
30.671328
 11
482.335999
 21
-3.682072
  0
LINE
  8
0
  6
CENTER
 10
582.335999
 20
31.171328
 11
582.335999
 21
-3.682072
  0
LINE
  8
0
  6
DASHED
 10
476.835999
 20
22.671328
 11
476.835999
 21
7.671328
  0
LINE
  8
0
  6
DASHED
 10
487.835999
 20
22.671328
 11
487.835999
 21
7.671328
  0
LINE
  8
0
  6
DASHED
 10
576.835999
 20
22.671328
 11
576.835999
 21
7.671328
  0
LINE
  8
0
  6
DASHED
 10
587.835999
 20
22.671328
 11
587.835999
 21
7.671328
  0
ARC
  8
0
  6
CONTINUOUS
 10
498.335999
 20
178.577286
 40
3.000000
 50
91.000526
 51
180.000000
  0
ARC
  8
0
  6
CONTINUOUS
 10
566.335999
 20
178.577652
 40
3.000000
 50
0.000000
 51
89.000580
  0
LINE
  8
0
  6
CONTINUOUS
 10
559.835999
 20
7.671328
 11
595.335999
 21
7.671328
  0
LINE
  8
0
  6
CONTINUOUS
 10
505.835999
 20
8.671328
 11
558.835999
 21
8.671328
  0
LINE
  8
0
  6
CONTINUOUS
 10
482.982208
 20
162.196854
 11
491.689606
 21
164.645813
  0
LINE
  8
0
  6
CONTINUOUS
 10
482.982208
 20
93.145805
 11
484.148193
 21
92.817879
  0
LINE
  8
0
  6
CONTINUOUS
 10
489.997803
 20
52.654167
 11
491.674194
 21
52.188488
  0
LINE
  8
0
  6
CONTINUOUS
 10
574.674194
 20
52.654167
 11
572.997803
 21
52.188488
  0
LINE
  8
0
  6
CONTINUOUS
 10
581.689575
 20
93.145813
 11
580.523804
 21
92.817886
  0
LINE
  8
0
  6
CONTINUOUS
 10
581.689575
 20
162.196854
 11
572.982422
 21
164.645813
  0
ARC
  8
0
  6
CONTINUOUS
 10
484.335999
 20
157.383606
 40
5.000000
 50
105.709000
 51
180.000000
  0
ARC
  8
0
  6
CONTINUOUS
 10
484.335999
 20
97.959099
 40
5.000000
 50
180.000000
 51
254.291702
  0
ARC
  8
0
  6
CONTINUOUS
 10
491.335999
 20
57.471786
 40
5.000000
 50
180.000000
 51
254.476196
  0
ARC
  8
0
  6
CONTINUOUS
 10
573.335999
 20
57.471748
 40
5.000000
 50
-74.475708
 51
0.000000
  0
ARC
  8
0
  6
CONTINUOUS
 10
580.335999
 20
97.959061
 40
5.000000
 50
-74.291199
 51
0.000000
  0
ARC
  8
0
  6
CONTINUOUS
 10
580.335999
 20
157.383575
 40
5.000000
 50
0.000000
 51
74.291527
  0
ARC
  8
0
  6
CONTINUOUS
 10
581.335999
 20
89.929947
 40
3.000000
 50
105.709000
 51
180.000000
  0
ARC
  8
0
  6
CONTINUOUS
 10
483.335999
 20
89.929916
 40
3.000000
 50
0.000000
 51
74.291397
  0
ARC
  8
0
  6
CONTINUOUS
 10
490.335999
 20
169.459061
 40
5.000000
 50
-74.291199
 51
0.000000
  0
ARC
  8
0
  6
CONTINUOUS
 10
574.335999
 20
169.459091
 40
5.000000
 50
180.000000
 51
254.291702
  0
ARC
  8
0
  6
CONTINUOUS
 10
574.335999
 20
47.370930
 40
5.000000
 50
105.524399
 51
180.000000
  0
ARC
  8
0
  6
CONTINUOUS
 10
490.335999
 20
47.370888
 40
5.000000
 50
0.000000
 51
74.475952
  0
LINE
  8
0
  6
CONTINUOUS
 10
559.835999
 20
7.671328
 11
558.835999
 21
8.671328
  0
LINE
  8
0
  6
CONTINUOUS
 10
504.835999
 20
7.671328
 11
505.835999
 21
8.671328
  0
LINE
  8
0
  6
CENTER
 10
455.437256
 20
91.671326
 11
611.857239
 21
91.671326
  0
LINE
  8
0
  6
CONTINUOUS
 10
286.872498
 20
123.671371
 11
286.872498
 21
131.671371
  0
LINE
  8
0
  6
CONTINUOUS
 10
293.872498
 20
123.671387
 11
293.872498
 21
131.671387
  0
LINE
  8
0
  6
CONTINUOUS
 10
293.872498
 20
123.671387
 11
286.872498
 21
123.671371
  0
LINE
  8
0
  6
CONTINUOUS
 10
293.872498
 20
131.671387
 11
286.872498
 21
131.671371
  0
ARC
  8
0
  6
CONTINUOUS
 10
276.872498
 20
127.671326
 40
14.000000
 50
16.601500
 51
343.398499
  0
LINE
  8
0
  6
CONTINUOUS
 10
432.335999
 20
113.671326
 11
432.335999
 21
141.671326
  0
LINE
  8
0
  6
CONTINUOUS
 10
477.335999
 20
141.671326
 11
432.335999
 21
141.671326
  0
LINE
  8
0
  6
CONTINUOUS
 10
477.335999
 20
113.671326
 11
432.335999
 21
113.671326
  0
LINE
  8
0
  6
CONTINUOUS
 10
477.335999
 20
142.671326
 11
477.335999
 21
112.671326
  0
LINE
  8
0
  6
CONTINUOUS
 10
479.335999
 20
112.671326
 11
477.335999
 21
112.671326
  0
ARC
  8
0
  6
CONTINUOUS
 10
468.335999
 20
127.671326
 40
4.000000
 50
-90.000000
 51
90.000000
  0
LINE
  8
0
  6
CONTINUOUS
 10
468.335999
 20
131.671326
 11
432.335999
 21
131.671326
  0
LINE
  8
0
  6
CONTINUOUS
 10
468.335999
 20
123.671326
 11
432.335999
 21
123.671326
  0
LINE
  8
0
  6
CONTINUOUS
 10
479.335999
 20
142.671326
 11
477.335999
 21
142.671326
  0
LINE
  8
0
  6
CONTINUOUS
 10
187.872498
 20
155.671432
 11
194.372498
 21
155.671432
  0
LINE
  8
0
  6
CONTINUOUS
 10
187.872498
 20
27.671230
 11
194.372498
 21
27.671230
  0
LINE
  8
0
  6
CONTINUOUS
 10
139.872498
 20
123.671326
 11
185.872498
 21
125.277687
  0
LINE
  8
0
  6
CONTINUOUS
 10
194.372498
 20
31.768147
 11
139.872498
 21
33.671329
  0
ARC
  8
0
  6
CONTINUOUS
 10
187.872513
 20
153.671448
 40
2.000000
 50
90.000000
 51
180.000000
  0
ARC
  8
0
  6
CONTINUOUS
 10
187.872498
 20
29.671230
 40
2.000000
 50
180.260773
 51
270.000000
  0
LINE
  8
0
  6
CENTER
 10
-13.646289
 20
78.671326
 11
238.122498
 21
78.671326
  0
LINE
  8
0
  6
CONTINUOUS
 10
139.872498
 20
123.671326
 11
139.872498
 21
33.671329
  0
LINE
  8
0
  6
CONTINUOUS
 10
185.140274
 20
131.439102
 11
179.425751
 21
125.724586
  0
LINE
  8
0
  6
CONTINUOUS
 10
216.635880
 20
400.940063
 11
335.778564
 21
400.940063
  0
ARC
  8
0
  6
CONTINUOUS
 10
335.778564
 20
397.940063
 40
3.000000
 50
1.000000
 51
90.000000
  0
LINE
  8
0
  6
CONTINUOUS
 10
321.866760
 20
406.293793
 11
322.757202
 21
403.127808
  0
ARC
  8
0
  6
CONTINUOUS
 10
325.645142
 20
403.940063
 40
3.000000
 50
195.708649
 51
270.000000
  0
ARC
  8
0
  6
CONTINUOUS
 10
208.450104
 20
418.166626
 40
3.000000
 50
1.500200
 51
77.801201
  0
LINE
  8
0
  6
CONTINUOUS
 10
211.449097
 20
418.245178
 11
211.805099
 21
404.650391
  0
ARC
  8
0
  6
CONTINUOUS
 10
209.717896
 20
424.031158
 40
3.000000
 50
-164.999893
 51
-102.198799
  0
LINE
  8
0
  6
CENTER
 10
-13.918477
 20
363.940063
 11
354.776367
 21
363.940063
  0
LINE
  8
0
  6
CONTINUOUS
 10
227.887375
 20
300.940063
 11
262.872498
 21
300.940063
  0
LINE
  8
0
  6
CONTINUOUS
 10
339.372498
 20
363.940063
 11
338.726654
 21
400.940063
  0
LINE
  8
0
  6
CONTINUOUS
 10
330.562408
 20
423.632721
 11
338.726654
 21
400.940063
  0
ARC
  8
0
  6
CONTINUOUS
 10
325.857635
 20
421.940063
 40
5.000000
 50
19.787489
 51
90.000000
  0
LINE
  8
0
  6
CONTINUOUS
 10
339.372498
 20
363.940063
 11
338.726654
 21
326.940063
  0
LINE
  8
0
  6
CONTINUOUS
 10
330.562408
 20
304.247375
 11
338.726654
 21
326.940063
  0
ARC
  8
0
  6
CONTINUOUS
 10
325.857635
 20
305.940063
 40
5.000000
 50
-90.000000
 51
-19.787489
  0
LINE
  8
0
  6
CONTINUOUS
 10
216.635880
 20
400.940063
 11
335.778564
 21
400.940063
  0
LINE
  8
0
  6
CENTER
 10
276.872498
 20
244.702499
 11
276.872498
 21
440.013763
  0
ARC
  8
0
  6
CONTINUOUS
 10
335.778564
 20
397.940063
 40
3.000000
 50
1.000000
 51
90.000000
  0
ARC
  8
0
  6
CONTINUOUS
 10
335.778564
 20
329.940063
 40
3.000000
 50
-90.000000
 51
-1.000000
  0
LINE
  8
0
  6
CONTINUOUS
 10
216.709106
 20
326.940063
 11
335.778564
 21
326.940063
  0
LINE
  8
0
  6
CONTINUOUS
 10
306.584747
 20
416.940063
 11
247.160248
 21
416.940063
  0
LINE
  8
0
  6
CONTINUOUS
 10
311.398010
 20
413.293762
 11
312.341248
 21
409.940063
  0
ARC
  8
0
  6
CONTINUOUS
 10
306.584747
 20
411.940063
 40
5.000000
 50
15.708638
 51
90.000000
  0
LINE
  8
0
  6
CONTINUOUS
 10
312.341248
 20
409.940063
 11
317.053497
 21
409.940063
  0
ARC
  8
0
  6
CONTINUOUS
 10
317.053497
 20
404.940063
 40
5.000000
 50
15.708638
 51
90.000000
  0
LINE
  8
0
  6
CONTINUOUS
 10
242.346985
 20
413.293762
 11
241.403748
 21
409.940063
  0
ARC
  8
0
  6
CONTINUOUS
 10
247.160248
 20
411.940063
 40
5.000000
 50
90.000000
 51
164.291367
  0
LINE
  8
0
  6
CONTINUOUS
 10
241.403748
 20
409.940063
 11
236.691483
 21
409.940063
  0
LINE
  8
0
  6
CONTINUOUS
 10
231.878235
 20
406.293762
 11
230.987808
 21
403.127808
  0
ARC
  8
0
  6
CONTINUOUS
 10
236.691483
 20
404.940063
 40
5.000000
 50
90.000000
 51
164.291367
  0
ARC
  8
0
  6
CONTINUOUS
 10
228.099854
 20
403.940063
 40
3.000000
 50
-90.000000
 51
-15.708638
  0
LINE
  8
0
  6
CONTINUOUS
 10
306.584747
 20
310.940063
 11
247.160248
 21
310.940063
  0
LINE
  8
0
  6
CONTINUOUS
 10
311.398010
 20
314.586334
 11
312.341248
 21
317.940063
  0
ARC
  8
0
  6
CONTINUOUS
 10
306.584747
 20
315.940063
 40
5.000000
 50
-90.000000
 51
-15.708638
  0
LINE
  8
0
  6
CONTINUOUS
 10
312.341248
 20
317.940063
 11
317.053497
 21
317.940063
  0
LINE
  8
0
  6
CONTINUOUS
 10
321.866760
 20
321.586334
 11
322.757202
 21
324.752289
  0
ARC
  8
0
  6
CONTINUOUS
 10
317.053497
 20
322.940063
 40
5.000000
 50
-90.000000
 51
-15.708638
  0
ARC
  8
0
  6
CONTINUOUS
 10
325.645142
 20
323.940063
 40
3.000000
 50
-270.000000
 51
-195.708633
  0
LINE
  8
0
  6
CONTINUOUS
 10
242.346985
 20
314.586334
 11
241.403748
 21
317.940063
  0
ARC
  8
0
  6
CONTINUOUS
 10
247.160248
 20
315.940063
 40
5.000000
 50
-164.291367
 51
-90.000000
  0
LINE
  8
0
  6
CONTINUOUS
 10
241.403748
 20
317.940063
 11
236.691483
 21
317.940063
  0
LINE
  8
0
  6
CONTINUOUS
 10
231.878235
 20
321.586334
 11
230.987808
 21
324.752289
  0
ARC
  8
0
  6
CONTINUOUS
 10
236.691483
 20
322.940063
 40
5.000000
 50
-164.291367
 51
-90.000000
  0
ARC
  8
0
  6
CONTINUOUS
 10
228.099854
 20
323.940063
 40
3.000000
 50
15.708638
 51
90.000000
  0
LINE
  8
0
  6
CONTINUOUS
 10
223.182602
 20
423.632721
 11
215.104752
 21
401.180237
  0
ARC
  8
0
  6
CONTINUOUS
 10
227.887375
 20
421.940063
 40
5.000000
 50
90.000000
 51
160.212509
  0
LINE
  8
0
  6
CONTINUOUS
 10
223.182602
 20
304.247375
 11
215.120605
 21
326.655792
  0
ARC
  8
0
  6
CONTINUOUS
 10
227.887375
 20
305.940063
 40
5.000000
 50
199.787491
 51
270.000000
  0
LINE
  8
0
  6
CONTINUOUS
 10
227.887375
 20
426.940063
 11
276.872498
 21
426.940063
  0
LINE
  8
0
  6
CENTER
 10
316.872498
 20
425.053345
 11
316.872498
 21
405.611908
  0
LINE
  8
0
  6
CENTER
 10
306.961609
 20
413.940063
 11
325.480164
 21
413.940063
  0
ARC
  8
0
  6
CONTINUOUS
 10
316.872498
 20
413.940063
 40
5.500000
 50
-59.465683
 51
187.598495
  0
ARC
  8
0
  6
CONTINUOUS
 10
236.872498
 20
413.940063
 40
5.500000
 50
-7.598608
 51
239.465683
  0
LINE
  8
0
  6
CENTER
 10
236.872498
 20
425.053345
 11
236.872498
 21
405.611908
  0
LINE
  8
0
  6
CENTER
 10
246.783386
 20
413.940063
 11
228.264832
 21
413.940063
  0
ARC
  8
0
  6
CONTINUOUS
 10
236.872498
 20
313.940063
 40
5.500000
 50
-239.465683
 51
7.598608
  0
LINE
  8
0
  6
CENTER
 10
246.783386
 20
313.940063
 11
228.264832
 21
313.940063
  0
LINE
  8
0
  6
CENTER
 10
236.872498
 20
302.826782
 11
236.872498
 21
322.268188
  0
LINE
  8
0
  6
CENTER
 10
316.872498
 20
302.826782
 11
316.872498
 21
322.268188
  0
LINE
  8
0
  6
CENTER
 10
306.961609
 20
313.940063
 11
325.480164
 21
313.940063
  0
ARC
  8
0
  6
CONTINUOUS
 10
316.872498
 20
313.940063
 40
5.500000
 50
-187.598602
 51
59.465683
  0
LINE
  8
0
  6
CONTINUOUS
 10
300.872498
 20
329.940063
 11
300.872498
 21
397.940063
  0
LINE
  8
0
  6
CONTINUOUS
 10
252.872498
 20
329.940063
 11
252.872498
 21
397.940063
  0
LINE
  8
0
  6
CONTINUOUS
 10
211.952789
 20
323.234131
 11
206.704163
 21
303.645966
  0
LINE
  8
0
  6
CONTINUOUS
 10
211.449097
 20
309.088013
 11
211.805099
 21
322.682800
  0
ARC
  8
0
  6
CONTINUOUS
 10
208.450104
 20
309.166626
 40
3.000000
 50
282.198792
 51
358.499786
  0
ARC
  8
0
  6
CONTINUOUS
 10
209.717896
 20
303.302002
 40
3.000000
 50
102.198799
 51
165.000031
  0
ARC
  8
0
  6
CONTINUOUS
 10
208.450104
 20
418.166626
 40
3.000000
 50
1.500200
 51
77.801201
  0
LINE
  8
0
  6
CONTINUOUS
 10
211.449097
 20
418.245178
 11
211.805099
 21
404.650391
  0
ARC
  8
0
  6
CONTINUOUS
 10
209.717896
 20
424.031158
 40
3.000000
 50
-164.999893
 51
-102.198799
  0
LINE
  8
0
  6
CONTINUOUS
 10
201.801300
 20
427.940063
 11
194.372498
 21
427.940063
  0
LINE
  8
0
  6
CONTINUOUS
 10
206.557663
 20
424.234131
 11
211.879501
 21
404.372559
  0
ARC
  8
0
  6
CONTINUOUS
 10
216.782425
 20
321.940063
 40
5.000000
 50
90.000000
 51
165.000031
  0
ARC
  8
0
  6
CONTINUOUS
 10
216.635880
 20
405.940063
 40
5.000000
 50
194.999847
 51
270.000000
  0
LINE
  8
0
  6
CONTINUOUS
 10
276.872498
 20
426.940063
 11
325.857635
 21
426.940063
  0
LINE
  8
0
  6
CONTINUOUS
 10
293.872498
 20
263.940063
 11
262.872498
 21
263.940063
  0
LINE
  8
0
  6
CONTINUOUS
 10
262.872498
 20
308.940063
 11
262.872498
 21
263.940063
  0
LINE
  8
0
  6
CONTINUOUS
 10
290.872498
 20
308.940063
 11
290.872498
 21
303.940063
  0
LINE
  8
0
  6
CONTINUOUS
 10
261.872498
 20
308.940063
 11
291.872498
 21
308.940063
  0
LINE
  8
0
  6
CONTINUOUS
 10
291.872498
 20
310.940063
 11
291.872498
 21
308.940063
  0
LINE
  8
0
  6
CONTINUOUS
 10
261.872498
 20
310.940063
 11
261.872498
 21
308.940063
  0
LINE
  8
0
  6
CONTINUOUS
 10
290.288910
 20
303.940063
 11
293.872498
 21
303.940063
  0
LINE
  8
0
  6
CONTINUOUS
 10
290.288910
 20
303.940063
 11
290.288910
 21
263.940063
  0
LINE
  8
0
  6
CONTINUOUS
 10
293.872498
 20
263.940063
 11
293.872498
 21
303.940063
  0
LINE
  8
0
  6
CONTINUOUS
 10
293.872498
 20
300.940063
 11
325.857635
 21
300.940063
  0
LINE
  8
0
  6
CONTINUOUS
 10
194.372498
 20
299.940063
 11
201.874542
 21
299.940063
  0
ARC
  8
0
  6
CONTINUOUS
 10
201.874542
 20
304.940063
 40
5.000000
 50
270.000000
 51
345.000031
  0
ARC
  8
0
  6
CONTINUOUS
 10
201.728027
 20
422.940063
 40
5.000000
 50
14.999846
 51
90.000000
  0
LINE
  8
0
  6
CONTINUOUS
 10
214.372498
 20
363.940063
 11
214.966888
 21
397.992401
  0
LINE
  8
0
  6
CONTINUOUS
 10
214.372498
 20
363.940063
 11
214.966888
 21
329.887695
  0
ARC
  8
0
  6
CONTINUOUS
 10
217.966431
 20
397.940063
 40
3.000000
 50
90.000000
 51
179.000000
  0
ARC
  8
0
  6
CONTINUOUS
 10
217.966431
 20
329.940063
 40
3.000000
 50
181.000000
 51
270.000000
  0
LINE
  8
0
  6
CONTINUOUS
 10
212.818146
 20
155.671432
 11
194.372498
 21
155.671432
  0
LINE
  8
0
  6
CONTINUOUS
 10
194.372498
 20
27.671230
 11
209.372498
 21
27.671230
  0
ARC
  8
0
  6
CONTINUOUS
 10
209.372513
 20
22.671211
 40
5.000000
 50
0.000000
 51
90.000000
  0
LINE
  8
0
  6
CONTINUOUS
 10
472.580597
 20
23.295303
 11
492.091400
 21
27.047365
  0
ARC
  8
0
  6
CONTINUOUS
 10
532.335999
 20
91.671326
 40
64.000099
 50
-54.681290
 51
34.093521
  0
ARC
  8
0
  6
CONTINUOUS
 10
532.335999
 20
91.671326
 40
64.000099
 50
159.894516
 51
234.681290
  0
ARC
  8
0
  6
CONTINUOUS
 10
473.335999
 20
18.671328
 40
4.000000
 50
90.000000
 51
180.000000
  0
ARC
  8
0
  6
CONTINUOUS
 10
473.335999
 20
19.367266
 40
4.000000
 50
100.885529
 51
180.000000
  0
ARC
  8
0
  6
CONTINUOUS
 10
491.335999
 20
30.975391
 40
4.000000
 50
-79.114502
 51
0.000000
  0
ARC
  8
0
  6
CONTINUOUS
 10
491.335999
 20
26.671328
 40
4.000000
 50
-90.000000
 51
0.000000
  0
LINE
  8
0
  6
CONTINUOUS
 10
592.091370
 20
23.295303
 11
572.580627
 21
27.047365
  0
ARC
  8
0
  6
CONTINUOUS
 10
591.335999
 20
18.671328
 40
4.000000
 50
0.000000
 51
90.000000
  0
ARC
  8
0
  6
CONTINUOUS
 10
591.335999
 20
19.367266
 40
4.000000
 50
0.000000
 51
79.114471
  0
ARC
  8
0
  6
CONTINUOUS
 10
573.335999
 20
30.975391
 40
4.000000
 50
180.000000
 51
259.114502
  0
ARC
  8
0
  6
CONTINUOUS
 10
573.335999
 20
26.671328
 40
4.000000
 50
180.000000
 51
270.000000
  0
LINE
  8
0
  6
CONTINUOUS
 10
258.314392
 20
27.671328
 11
295.430603
 21
27.671328
  0
LINE
  8
0
  6
CONTINUOUS
 10
255.971771
 20
26.545403
 11
253.773270
 21
23.797255
  0
ARC
  8
0
  6
CONTINUOUS
 10
251.430649
 20
25.671328
 40
3.000000
 50
270.000000
 51
321.340454
  0
ARC
  8
0
  6
CONTINUOUS
 10
258.314392
 20
24.671328
 40
3.000000
 50
90.000000
 51
141.340454
  0
LINE
  8
0
  6
CONTINUOUS
 10
297.773224
 20
26.545403
 11
299.971741
 21
23.797255
  0
ARC
  8
0
  6
CONTINUOUS
 10
302.314331
 20
25.671328
 40
3.000000
 50
-141.340454
 51
-90.000000
  0
ARC
  8
0
  6
CONTINUOUS
 10
295.430603
 20
24.671328
 40
3.000000
 50
38.659546
 51
90.000000
  0
ARC
  8
0
  6
CONTINUOUS
 10
212.818146
 20
160.671432
 40
5.000000
 50
270.000000
 51
304.539978
  0
LINE
  8
0
  6
CONTINUOUS
 10
194.372498
 20
427.940063
 11
194.372498
 21
299.940063
  0
LINE
  8
0
  6
CONTINUOUS
 10
212.872498
 20
143.271332
 11
214.372498
 21
143.271332
  0
LINE
  8
0
  6
CONTINUOUS
 10
212.872498
 20
40.071346
 11
214.372498
 21
40.071346
  0
ARC
  8
0
  6
CONTINUOUS
 10
396.825714
 20
91.671326
 40
191.053177
 50
164.330902
 51
195.669098
  0
ARC
  8
0
  6
CONTINUOUS
 10
396.825714
 20
91.671326
 40
190.053177
 50
178.548599
 51
181.478500
  0
LINE
  8
0
  6
CONTINUOUS
 10
208.872498
 20
96.671326
 11
207.867706
 21
96.671326
  0
LINE
  8
0
  6
CONTINUOUS
 10
211.372498
 20
94.171326
 11
211.372498
 21
89.171326
  0
ARC
  8
0
  6
CONTINUOUS
 10
207.867706
 20
97.669731
 40
1.000000
 50
178.182098
 51
270.000000
  0
ARC
  8
0
  6
CONTINUOUS
 10
208.872498
 20
94.171326
 40
2.500000
 50
0.000000
 51
90.000000
  0
LINE
  8
0
  6
CONTINUOUS
 10
208.872498
 20
86.671326
 11
207.867706
 21
86.671326
  0
ARC
  8
0
  6
CONTINUOUS
 10
207.867706
 20
85.672928
 40
1.000000
 50
-270.000000
 51
-178.182098
  0
ARC
  8
0
  6
CONTINUOUS
 10
208.872498
 20
89.171326
 40
2.500000
 50
-90.000000
 51
0.000000
  0
LINE
  8
0
  6
CONTINUOUS
 10
139.872498
 20
58.165329
 11
183.872498
 21
58.165329
  0
LINE
  8
0
  6
CONTINUOUS
 10
139.872498
 20
43.152328
 11
194.372498
 21
43.152328
  0
LINE
  8
0
  6
CONTINUOUS
 10
186.440475
 20
51.104328
 11
194.372498
 21
51.104328
  0
LINE
  8
0
  6
CONTINUOUS
 10
185.872498
 20
52.319061
 11
185.872498
 21
153.671448
  0
ARC
  8
0
  6
CONTINUOUS
 10
183.372543
 20
29.650749
 40
2.500000
 50
0.260773
 51
88.000000
  0
ARC
  8
0
  6
CONTINUOUS
 10
183.372498
 20
133.206863
 40
2.500000
 50
-45.000000
 51
0.000000
  0
ARC
  8
0
  6
CONTINUOUS
 10
177.657990
 20
127.492348
 40
2.500000
 50
272.000000
 51
315.000000
  0
LINE
  8
0
  6
CONTINUOUS
 10
185.872498
 20
301.940063
 11
185.872498
 21
425.940063
  0
LINE
  8
0
  6
CONTINUOUS
 10
139.872498
 20
408.940063
 11
183.436111
 21
410.461334
  0
LINE
  8
0
  6
CONTINUOUS
 10
139.872498
 20
318.940063
 11
183.436111
 21
317.418762
  0
LINE
  8
0
  6
CONTINUOUS
 10
139.872498
 20
412.952057
 11
139.872498
 21
314.928040
  0
LINE
  8
0
  6
CONTINUOUS
 10
187.872498
 20
427.940063
 11
194.372498
 21
427.940063
  0
LINE
  8
0
  6
CONTINUOUS
 10
187.872498
 20
299.940063
 11
194.372498
 21
299.940063
  0
LINE
  8
0
  6
CONTINUOUS
 10
178.729507
 20
387.940063
 11
185.844482
 21
387.940063
  0
LINE
  8
0
  6
CONTINUOUS
 10
179.334641
 20
339.940063
 11
185.844482
 21
339.940063
  0
LINE
  8
0
  6
CONTINUOUS
 10
178.729507
 20
385.735535
 11
178.729507
 21
342.022980
  0
LINE
  8
0
  6
CONTINUOUS
 10
130.872498
 20
406.940063
 11
130.872498
 21
392.940063
  0
LINE
  8
0
  6
CONTINUOUS
 10
20.872499
 20
408.940063
 11
139.872498
 21
408.940063
  0
LINE
  8
0
  6
CONTINUOUS
 10
20.872499
 20
318.940063
 11
139.872498
 21
318.940063
  0
LINE
  8
0
  6
CONTINUOUS
 10
20.872499
 20
408.940063
 11
20.872499
 21
388.940033
  0
LINE
  8
0
  6
CONTINUOUS
 10
20.872499
 20
392.940063
 11
130.872498
 21
392.940063
  0
LINE
  8
0
  6
CONTINUOUS
 10
20.872499
 20
334.940063
 11
130.872498
 21
334.940063
  0
ARC
  8
0
  6
CONTINUOUS
 10
132.872498
 20
406.940063
 40
2.000000
 50
90.000000
 51
180.000000
  0
ARC
  8
0
  6
CONTINUOUS
 10
132.872498
 20
320.940063
 40
2.000000
 50
180.000000
 51
270.000000
  0
LINE
  8
0
  6
CONTINUOUS
 10
0.372500
 20
328.940063
 11
0.372500
 21
398.940063
  0
LINE
  8
0
  6
CONTINUOUS
 10
4.913942
 20
408.940063
 11
20.872499
 21
408.940063
  0
LINE
  8
0
  6
CONTINUOUS
 10
0.872500
 20
405.940063
 11
0.872500
 21
321.940063
  0
LINE
  8
0
  6
CONTINUOUS
 10
20.872499
 20
392.940063
 11
2.622500
 21
392.940063
  0
LINE
  8
0
  6
CONTINUOUS
 10
1.449846
 20
406.940033
 11
0.872500
 21
405.940063
  0
ARC
  8
0
  6
CONTINUOUS
 10
4.913958
 20
404.940063
 40
4.000000
 50
90.000000
 51
150.000397
  0
LINE
  8
0
  6
CONTINUOUS
 10
4.913942
 20
318.940063
 11
20.872499
 21
318.940063
  0
LINE
  8
0
  6
CONTINUOUS
 10
20.872499
 20
334.940063
 11
2.622500
 21
334.940063
  0
LINE
  8
0
  6
CONTINUOUS
 10
1.449846
 20
320.940063
 11
0.872500
 21
321.940063
  0
ARC
  8
0
  6
CONTINUOUS
 10
4.913958
 20
322.940033
 40
4.000000
 50
-150.000397
 51
-90.000000
  0
LINE
  8
0
  6
CONTINUOUS
 10
0.372500
 20
398.940063
 11
0.872500
 21
399.440063
  0
LINE
  8
0
  6
CONTINUOUS
 10
0.372500
 20
328.940063
 11
0.872500
 21
328.440063
  0
LINE
  8
0
  6
CONTINUOUS
 10
139.872498
 20
408.940063
 11
139.872498
 21
318.940063
  0
ARC
  8
0
  6
CONTINUOUS
 10
187.872498
 20
425.940063
 40
2.000000
 50
90.000000
 51
180.000000
  0
ARC
  8
0
  6
CONTINUOUS
 10
187.872498
 20
301.940063
 40
2.000000
 50
180.000000
 51
270.000000
  0
ARC
  8
0
  6
CONTINUOUS
 10
183.348862
 20
412.959808
 40
2.500000
 50
272.000000
 51
359.895721
  0
ARC
  8
0
  6
CONTINUOUS
 10
183.348862
 20
314.920288
 40
2.500000
 50
0.104292
 51
88.000000
  0
LINE
  8
0
  6
CONTINUOUS
 10
185.872498
 20
410.546417
 11
185.844482
 21
410.545441
  0
LINE
  8
0
  6
CONTINUOUS
 10
140.372192
 20
413.469513
 11
185.872498
 21
415.058411
  0
LINE
  8
0
  6
CONTINUOUS
 10
139.872498
 20
412.952057
 11
140.372192
 21
413.469513
  0
LINE
  8
0
  6
CONTINUOUS
 10
140.372192
 20
314.410614
 11
185.872498
 21
312.821686
  0
LINE
  8
0
  6
CONTINUOUS
 10
139.872498
 20
314.928040
 11
140.372192
 21
314.410614
  0
LINE
  8
0
  6
CONTINUOUS
 10
20.872499
 20
338.940033
 11
20.872499
 21
318.940063
  0
LINE
  8
0
  6
CONTINUOUS
 10
10.872500
 20
371.440033
 11
11.872500
 21
371.440033
  0
ARC
  8
0
  6
CONTINUOUS
 10
10.872520
 20
370.440033
 40
1.000000
 50
90.000000
 51
180.000000
  0
LINE
  8
0
  6
CONTINUOUS
 10
6.372515
 20
367.940033
 11
6.372515
 21
359.940033
  0
LINE
  8
0
  6
CONTINUOUS
 10
6.372515
 20
367.940033
 11
9.872515
 21
369.440033
  0
LINE
  8
0
  6
CONTINUOUS
 10
6.372500
 20
359.940033
 11
9.872500
 21
358.440033
  0
LINE
  8
0
  6
CONTINUOUS
 10
9.872515
 20
370.440033
 11
9.872515
 21
357.440033
  0
LINE
  8
0
  6
CONTINUOUS
 10
10.872500
 20
356.440033
 11
11.872500
 21
356.440033
  0
ARC
  8
0
  6
CONTINUOUS
 10
10.872520
 20
357.440033
 40
1.000000
 50
-180.000000
 51
-90.000000
  0
LINE
  8
0
  6
CONTINUOUS
 10
11.872500
 20
340.940033
 11
11.872500
 21
386.940033
  0
LINE
  8
0
  6
CONTINUOUS
 10
13.872500
 20
388.940033
 11
11.872500
 21
386.940033
  0
LINE
  8
0
  6
CONTINUOUS
 10
13.872500
 20
388.940033
 11
59.872490
 21
388.940033
  0
LINE
  8
0
  6
CONTINUOUS
 10
54.372501
 20
384.440033
 11
54.372501
 21
388.940033
  0
ARC
  8
0
  6
CONTINUOUS
 10
57.372501
 20
384.440033
 40
3.000000
 50
180.000000
 51
270.000000
  0
LINE
  8
0
  6
CONTINUOUS
 10
57.372501
 20
381.440033
 11
61.872490
 21
381.440033
  0
CIRCLE
  8
0
  6
CONTINUOUS
 10
58.372501
 20
385.440033
 40
2.250000
  0
LINE
  8
0
  6
CONTINUOUS
 10
61.872494
 20
340.940033
 11
61.872490
 21
386.940033
  0
LINE
  8
0
  6
CONTINUOUS
 10
59.872490
 20
388.940033
 11
61.872490
 21
386.940033
  0
LINE
  8
0
  6
CONTINUOUS
 10
59.872494
 20
338.940033
 11
61.872494
 21
340.940033
  0
LINE
  8
0
  6
CONTINUOUS
 10
59.872494
 20
338.940033
 11
13.872500
 21
338.940033
  0
LINE
  8
0
  6
CONTINUOUS
 10
11.872500
 20
340.940033
 11
13.872500
 21
338.940033
  0
LINE
  8
0
  6
CONTINUOUS
 10
16.372499
 20
346.440033
 11
11.872510
 21
346.440033
  0
CIRCLE
  8
0
  6
CONTINUOUS
 10
15.372500
 20
342.440033
 40
2.250000
  0
ARC
  8
0
  6
CONTINUOUS
 10
16.372499
 20
343.440033
 40
3.000000
 50
0.000000
 51
90.000000
  0
LINE
  8
0
  6
CONTINUOUS
 10
19.372499
 20
343.440033
 11
19.372499
 21
338.940033
  0
LINE
  8
0
  6
CENTER
 10
36.872501
 20
331.474243
 11
36.872501
 21
395.606293
  0
LINE
  8
0
  6
CONTINUOUS
 10
14.286719
 20
387.940063
 11
12.872506
 21
386.525848
  0
LINE
  8
0
  6
CONTINUOUS
 10
12.872506
 20
346.440063
 11
12.872506
 21
386.525848
  0
LINE
  8
0
  6
CONTINUOUS
 10
54.372501
 20
387.940063
 11
14.286719
 21
387.940063
  0
LINE
  8
0
  6
CONTINUOUS
 10
60.872494
 20
381.440063
 11
60.872494
 21
341.354279
  0
LINE
  8
0
  6
CONTINUOUS
 10
19.372499
 20
339.940063
 11
59.458282
 21
339.940063
  0
LINE
  8
0
  6
CONTINUOUS
 10
59.458282
 20
339.940063
 11
60.872494
 21
341.354279
  0
LINE
  8
0
  6
CONTINUOUS
 10
13.372500
 20
125.171326
 11
59.872501
 21
125.171326
  0
LINE
  8
0
  6
CONTINUOUS
 10
61.872490
 20
155.171326
 11
61.872501
 21
127.171326
  0
LINE
  8
0
  6
CONTINUOUS
 10
11.872500
 20
155.171326
 11
11.872500
 21
127.171326
  0
LINE
  8
0
  6
CONTINUOUS
 10
9.872500
 20
137.171326
 11
61.872501
 21
137.171326
  0
LINE
  8
0
  6
CONTINUOUS
 10
59.872501
 20
125.171326
 11
61.872501
 21
127.171326
  0
LINE
  8
0
  6
CONTINUOUS
 10
11.872500
 20
127.171326
 11
13.872500
 21
125.171326
  0
LINE
  8
0
  6
CONTINUOUS
 10
11.872500
 20
127.171326
 11
61.872501
 21
127.171326
  0
LINE
  8
0
  6
CONTINUOUS
 10
12.872500
 20
156.171326
 11
60.872490
 21
156.171326
  0
LINE
  8
0
  6
CONTINUOUS
 10
60.872490
 20
156.171326
 11
61.872490
 21
155.171326
  0
LINE
  8
0
  6
CONTINUOUS
 10
12.872500
 20
156.171326
 11
11.872500
 21
155.171326
  0
LINE
  8
0
  6
CONTINUOUS
 10
11.872500
 20
155.171326
 11
61.872490
 21
155.171326
  0
LINE
  8
0
  6
CENTER
 10
3.928752
 20
146.671326
 11
16.003750
 21
146.671326
  0
LINE
  8
0
  6
CONTINUOUS
 10
9.872508
 20
153.171326
 11
9.872500
 21
137.171326
  0
LINE
  8
0
  6
CONTINUOUS
 10
10.872500
 20
154.171326
 11
11.872500
 21
154.171326
  0
ARC
  8
0
  6
CONTINUOUS
 10
10.872510
 20
153.171326
 40
1.000000
 50
90.000000
 51
180.000000
  0
LINE
  8
0
  6
CONTINUOUS
 10
6.372508
 20
150.671326
 11
6.372508
 21
142.671326
  0
LINE
  8
0
  6
CONTINUOUS
 10
6.372508
 20
150.671326
 11
9.872508
 21
152.171326
  0
LINE
  8
0
  6
CONTINUOUS
 10
6.372500
 20
142.671326
 11
9.872500
 21
141.171326
  0
LINE
  8
0
  6
CENTER
 10
36.872501
 20
120.477577
 11
36.872501
 21
161.558823
  0
LINE
  8
0
  6
CONTINUOUS
 10
13.372500
 20
125.171326
 11
13.372500
 21
123.671326
  0
LINE
  8
0
  6
CONTINUOUS
 10
59.372501
 20
125.171326
 11
59.372501
 21
123.671326
  0
LINE
  8
0
  6
CONTINUOUS
 10
130.872498
 20
334.940063
 11
130.872498
 21
320.940033
  0
TEXT
  8
0
 10
-13.000000
 20
-9.000000
 40
4.000000
 41
1.000000
  1
HLM-28R-1200~1800-S25WT
 50
0.000000
  0
ENDSEC
  0
EOF
