  0
SECTION
  2
HEADER
  9
$CLAYER
  8
1
  9
$LTSCALE
 40
3.0
  0
ENDSEC
  0
SECTION
  2
TABLES
  0
TABLE
  2
LTYPE
 70
     4
  0
LTYPE
  2
CONTINUOUS
  3
solid line
 70
    64
 72
    65
 73
     0
 40
0.0
  0
LTYPE
  2
DASHED
  3
__ __ __ __ __ __ __ __ __ __ __ __ __ __ __
 70
    64
 72
    65
 73
     2
 40
0.75
 49
0.5
 49
-0.25
  0
LTYPE
  2
CENTER
  3
____ _ ____ _ ____ _ ____ _ ____ _ ____ _ ____
 70
    64
 72
    65
 73
     4
 40
2.0
 49
1.25
 49
-0.25
 49
0.25
 49
-0.25
  0
LTYPE
  2
PHANTOM
  3
_____ _ _ _____ _ _ _____ _ _ _____ _ _ ____
 70
    64
 72
    65
 73
     6
 40
2.5
 49
1.25
 49
-0.25
 49
0.25
 49
-0.25
 49
0.25
 49
-0.25
  0
ENDTAB
  0
TABLE
  2
LAYER
 70
     1
  0
LAYER
  2
0
 70
    64
 62
     7
  6
CONTINUOUS
  0
ENDTAB
  0
TABLE
  2
STYLE
 70
     1
  0
STYLE
  2
STANDARD
 70
     0
 40
0.000000
 41
1.000000
 50
0.000000
 71
     0
 42
3.000000
  3
txt
  4
BIGFONT
  0
ENDTAB
  0
ENDSEC
  0
SECTION
  2
BLOCKS
  0
ENDSEC
  0
SECTION
  2
ENTITIES
  0
LINE
  8
0
  6
CONTINUOUS
 10
166.493744
 20
117.025078
 11
166.493744
 21
31.025059
  0
LINE
  8
0
  6
CONTINUOUS
 10
56.493752
 20
119.025078
 11
175.493744
 21
119.025078
  0
LINE
  8
0
  6
CONTINUOUS
 10
56.493752
 20
29.025078
 11
175.493744
 21
29.025078
  0
LINE
  8
0
  6
CONTINUOUS
 10
56.493752
 20
108.434380
 11
165.456070
 21
108.434380
  0
LINE
  8
0
  6
CONTINUOUS
 10
56.493752
 20
39.615780
 11
165.456070
 21
39.615780
  0
ARC
  8
0
  6
CONTINUOUS
 10
168.493744
 20
117.025101
 40
2.000000
 50
90.000000
 51
180.000000
  0
ARC
  8
0
  6
CONTINUOUS
 10
168.493744
 20
31.025078
 40
2.000000
 50
180.000000
 51
270.000000
  0
LINE
  8
0
  6
CONTINUOUS
 10
374.993744
 20
148.396698
 11
374.993744
 21
3.025078
  0
LINE
  8
0
  6
CONTINUOUS
 10
249.993744
 20
3.025078
 11
374.993744
 21
3.025078
  0
LINE
  8
0
  6
CENTER
 10
259.038544
 20
123.025078
 11
370.204987
 21
123.025078
  0
LINE
  8
0
  6
CENTER
 10
312.493744
 20
194.525040
 11
312.493744
 21
-5.474922
  0
LINE
  8
0
  6
CONTINUOUS
 10
290.048157
 20
177.525040
 11
334.939362
 21
177.525040
  0
LINE
  8
0
  6
CONTINUOUS
 10
337.774139
 20
176.643738
 11
372.828552
 21
152.515320
  0
LINE
  8
0
  6
CONTINUOUS
 10
252.993744
 20
18.025078
 11
371.993744
 21
18.025078
  0
LINE
  8
0
  6
CONTINUOUS
 10
364.993744
 20
16.487577
 11
364.993744
 21
3.025078
  0
LINE
  8
0
  6
CONTINUOUS
 10
260.993744
 20
16.487577
 11
260.993744
 21
3.025078
  0
LINE
  8
0
  6
CENTER
 10
352.493744
 20
25.275078
 11
352.493744
 21
-3.724922
  0
LINE
  8
0
  6
CENTER
 10
272.493744
 20
25.275078
 11
272.493744
 21
-2.474922
  0
LINE
  8
0
  6
DASHED
 10
357.993744
 20
18.025078
 11
357.993744
 21
3.025078
  0
LINE
  8
0
  6
DASHED
 10
346.993744
 20
18.025078
 11
346.993744
 21
3.025078
  0
LINE
  8
0
  6
DASHED
 10
277.993744
 20
18.025078
 11
277.993744
 21
3.025078
  0
LINE
  8
0
  6
DASHED
 10
266.993744
 20
18.025078
 11
266.993744
 21
3.025078
  0
ARC
  8
0
  6
CONTINUOUS
 10
292.493744
 20
73.025078
 40
26.500000
 50
170.529099
 51
270.000000
  0
ARC
  8
0
  6
CONTINUOUS
 10
332.493744
 20
73.025078
 40
26.500000
 50
-90.000000
 51
9.470950
  0
LINE
  8
0
  6
CONTINUOUS
 10
266.354950
 20
77.385551
 11
275.011749
 21
129.277924
  0
LINE
  8
0
  6
CONTINUOUS
 10
349.975739
 20
129.277924
 11
358.632538
 21
77.385582
  0
LINE
  8
0
  6
CONTINUOUS
 10
292.493744
 20
46.525078
 11
332.493744
 21
46.525078
  0
ARC
  8
0
  6
CONTINUOUS
 10
369.993744
 20
148.396637
 40
5.000000
 50
0.000000
 51
55.460110
  0
ARC
  8
0
  6
CONTINUOUS
 10
334.939362
 20
172.525040
 40
5.000000
 50
55.460079
 51
90.000000
  0
ARC
  8
0
  6
CONTINUOUS
 10
290.082153
 20
172.525040
 40
5.000000
 50
90.000000
 51
91.038872
  0
LINE
  8
0
  6
CONTINUOUS
 10
292.493744
 20
22.655851
 11
292.493744
 21
18.025078
  0
LINE
  8
0
  6
CONTINUOUS
 10
332.493744
 20
22.655851
 11
332.493744
 21
18.025078
  0
LINE
  8
0
  6
CONTINUOUS
 10
249.993744
 20
3.025078
 11
249.993744
 21
148.396652
  0
ARC
  8
0
  6
CONTINUOUS
 10
292.493744
 20
73.025078
 40
24.000000
 50
169.576294
 51
270.000000
  0
ARC
  8
0
  6
CONTINUOUS
 10
332.493744
 20
73.025078
 40
24.000000
 50
-90.000000
 51
9.471373
  0
LINE
  8
0
  6
CONTINUOUS
 10
292.493744
 20
49.025078
 11
332.493744
 21
49.025078
  0
CIRCLE
  8
0
  6
CONTINUOUS
 10
312.493744
 20
123.025078
 40
33.500000
  0
ARC
  8
0
  6
CONTINUOUS
 10
312.493744
 20
123.025078
 40
38.000000
 50
9.470961
 51
170.529099
  0
ARC
  8
0
  6
CONTINUOUS
 10
312.493744
 20
123.025078
 40
38.000000
 50
9.470963
 51
170.529007
  0
ARC
  8
0
  6
CONTINUOUS
 10
312.493744
 20
123.025078
 40
35.500000
 50
-189.470795
 51
9.471022
  0
LINE
  8
0
  6
CONTINUOUS
 10
268.820953
 20
76.974174
 11
277.477539
 21
128.866425
  0
LINE
  8
0
  6
CONTINUOUS
 10
347.509735
 20
128.866531
 11
356.166565
 21
76.974388
  0
LINE
  8
0
  6
CENTER
 10
145.969681
 20
87.025078
 11
273.743744
 21
87.025078
  0
LINE
  8
0
  6
CONTINUOUS
 10
229.993744
 20
87.025078
 11
229.993744
 21
23.024981
  0
LINE
  8
0
  6
CONTINUOUS
 10
229.993744
 20
87.025078
 11
229.993744
 21
151.025177
  0
LINE
  8
0
  6
CONTINUOUS
 10
252.158752
 20
152.515305
 11
287.213348
 21
176.643692
  0
ARC
  8
0
  6
CONTINUOUS
 10
290.048157
 20
172.525040
 40
5.000000
 50
90.000000
 51
124.540298
  0
ARC
  8
0
  6
CONTINUOUS
 10
254.993744
 20
148.396683
 40
5.000000
 50
124.540398
 51
180.000000
  0
ARC
  8
0
  6
CONTINUOUS
 10
252.993744
 20
15.025098
 40
3.000000
 50
90.000000
 51
180.000000
  0
ARC
  8
0
  6
CONTINUOUS
 10
371.993744
 20
15.025078
 40
3.000000
 50
0.000000
 51
90.000000
  0
LINE
  8
0
  6
CONTINUOUS
 10
302.197357
 20
59.025078
 11
298.036957
 21
59.025078
  0
LINE
  8
0
  6
CONTINUOUS
 10
304.493744
 20
65.993820
 11
304.493744
 21
59.025078
  0
LINE
  8
0
  6
CONTINUOUS
 10
308.493744
 20
68.525078
 11
308.493744
 21
71.025078
  0
LINE
  8
0
  6
CONTINUOUS
 10
316.493744
 20
68.525078
 11
316.493744
 21
71.025078
  0
LINE
  8
0
  6
CONTINUOUS
 10
311.712555
 20
69.556328
 11
311.712555
 21
60.337578
  0
LINE
  8
0
  6
CONTINUOUS
 10
313.212555
 20
69.556328
 11
313.212555
 21
60.337578
  0
LINE
  8
0
  6
CONTINUOUS
 10
321.087555
 20
69.556328
 11
321.087555
 21
60.275078
  0
LINE
  8
0
  6
CONTINUOUS
 10
322.462555
 20
64.634460
 11
322.462555
 21
60.275078
  0
LINE
  8
0
  6
CONTINUOUS
 10
302.595764
 20
69.431328
 11
298.740753
 21
69.431328
  0
LINE
  8
0
  6
CONTINUOUS
 10
298.740753
 20
69.431328
 11
297.837555
 21
68.311333
  0
LINE
  8
0
  6
CONTINUOUS
 10
297.946136
 20
71.025078
 11
296.493744
 21
69.165321
  0
LINE
  8
0
  6
CONTINUOUS
 10
297.837555
 20
61.397999
 11
298.755157
 21
60.431316
  0
LINE
  8
0
  6
CONTINUOUS
 10
296.493744
 20
60.582237
 11
298.036957
 21
59.025078
  0
LINE
  8
0
  6
CONTINUOUS
 10
296.493744
 20
69.165321
 11
296.493744
 21
60.582237
  0
LINE
  8
0
  6
CONTINUOUS
 10
297.837555
 20
68.311333
 11
297.837555
 21
61.397999
  0
LINE
  8
0
  6
CONTINUOUS
 10
303.337555
 20
68.714226
 11
302.580536
 21
69.431328
  0
LINE
  8
0
  6
CONTINUOUS
 10
303.325562
 20
71.025078
 11
304.493744
 21
69.728584
  0
LINE
  8
0
  6
CONTINUOUS
 10
303.337555
 20
68.525078
 11
304.493744
 21
68.525078
  0
LINE
  8
0
  6
CONTINUOUS
 10
297.946136
 20
71.025078
 11
303.325562
 21
71.025078
  0
LINE
  8
0
  6
CONTINUOUS
 10
301.243744
 20
65.993820
 11
304.493744
 21
65.993820
  0
LINE
  8
0
  6
CONTINUOUS
 10
303.337555
 20
64.681320
 11
301.243744
 21
64.681320
  0
LINE
  8
0
  6
CONTINUOUS
 10
300.837555
 20
60.431316
 11
298.755157
 21
60.431316
  0
LINE
  8
0
  6
CONTINUOUS
 10
303.337555
 20
63.431316
 11
303.337555
 21
64.431320
  0
ARC
  8
0
  6
CONTINUOUS
 10
300.837555
 20
62.931316
 40
2.500000
 50
-89.999786
 51
0.000109
  0
LINE
  8
0
  6
CONTINUOUS
 10
303.337555
 20
59.981640
 11
303.337555
 21
59.025078
  0
LINE
  8
0
  6
CONTINUOUS
 10
304.493744
 20
69.728584
 11
304.493744
 21
68.525078
  0
LINE
  8
0
  6
CONTINUOUS
 10
303.337555
 20
64.681320
 11
303.337555
 21
62.931316
  0
LINE
  8
0
  6
CONTINUOUS
 10
301.243744
 20
65.993820
 11
301.243744
 21
64.681320
  0
LINE
  8
0
  6
CONTINUOUS
 10
303.337555
 20
59.025078
 11
304.493744
 21
59.025078
  0
LINE
  8
0
  6
CONTINUOUS
 10
303.337555
 20
59.981640
 11
302.197357
 21
59.025078
  0
LINE
  8
0
  6
CONTINUOUS
 10
313.212555
 20
60.337578
 11
313.712555
 21
60.337578
  0
LINE
  8
0
  6
CONTINUOUS
 10
311.118744
 20
60.337578
 11
311.118744
 21
59.025078
  0
LINE
  8
0
  6
CONTINUOUS
 10
313.712555
 20
60.337578
 11
313.712555
 21
59.025078
  0
LINE
  8
0
  6
CONTINUOUS
 10
315.659363
 20
68.525078
 11
316.493744
 21
68.525078
  0
LINE
  8
0
  6
CONTINUOUS
 10
308.493744
 20
68.525078
 11
309.381744
 21
68.525078
  0
LINE
  8
0
  6
CONTINUOUS
 10
308.493744
 20
71.025078
 11
316.493744
 21
71.025078
  0
LINE
  8
0
  6
CONTINUOUS
 10
311.118744
 20
59.025078
 11
313.712555
 21
59.025078
  0
LINE
  8
0
  6
CONTINUOUS
 10
311.118744
 20
60.337578
 11
311.712555
 21
60.337578
  0
ARC
  8
0
  6
CONTINUOUS
 10
325.290558
 20
67.821953
 40
3.203126
 50
-73.981873
 51
90.003510
  0
ARC
  8
0
  6
CONTINUOUS
 10
325.290558
 20
67.821953
 40
1.954124
 50
-82.585274
 51
62.411850
  0
LINE
  8
0
  6
CONTINUOUS
 10
320.493744
 20
71.025078
 11
325.290558
 21
71.025078
  0
LINE
  8
0
  6
CONTINUOUS
 10
325.542755
 20
65.884155
 11
322.462555
 21
65.884155
  0
LINE
  8
0
  6
CONTINUOUS
 10
320.493744
 20
71.025078
 11
320.493744
 21
69.556328
  0
LINE
  8
0
  6
CONTINUOUS
 10
322.462555
 20
69.556328
 11
322.462555
 21
65.884155
  0
LINE
  8
0
  6
CONTINUOUS
 10
326.174561
 20
64.743195
 11
328.156952
 21
60.275078
  0
LINE
  8
0
  6
CONTINUOUS
 10
325.022949
 20
64.634460
 11
326.899139
 21
60.275078
  0
LINE
  8
0
  6
CONTINUOUS
 10
320.493744
 20
60.275078
 11
321.087555
 21
60.275078
  0
LINE
  8
0
  6
CONTINUOUS
 10
322.462555
 20
60.275078
 11
323.009338
 21
60.275078
  0
LINE
  8
0
  6
CONTINUOUS
 10
323.009338
 20
59.025078
 11
320.493744
 21
59.025078
  0
LINE
  8
0
  6
CONTINUOUS
 10
326.649963
 20
60.275078
 11
326.899139
 21
60.275078
  0
LINE
  8
0
  6
CONTINUOUS
 10
328.156952
 20
60.275078
 11
328.493744
 21
60.275078
  0
LINE
  8
0
  6
CONTINUOUS
 10
326.649963
 20
59.025078
 11
328.493744
 21
59.025078
  0
LINE
  8
0
  6
CONTINUOUS
 10
328.493744
 20
60.275078
 11
328.493744
 21
59.025078
  0
LINE
  8
0
  6
CONTINUOUS
 10
326.649963
 20
60.275078
 11
326.649963
 21
59.025078
  0
LINE
  8
0
  6
CONTINUOUS
 10
323.009338
 20
60.275078
 11
323.009338
 21
59.025078
  0
LINE
  8
0
  6
CONTINUOUS
 10
320.493744
 20
60.275078
 11
320.493744
 21
59.025078
  0
LINE
  8
0
  6
CONTINUOUS
 10
309.811554
 20
69.556328
 11
309.381744
 21
68.525078
  0
LINE
  8
0
  6
CONTINUOUS
 10
315.296936
 20
69.556328
 11
315.659363
 21
68.525078
  0
LINE
  8
0
  6
CONTINUOUS
 10
313.212555
 20
69.556328
 11
315.296936
 21
69.556328
  0
LINE
  8
0
  6
CONTINUOUS
 10
311.712555
 20
69.556328
 11
309.811554
 21
69.556328
  0
LINE
  8
0
  6
CONTINUOUS
 10
322.462555
 20
64.634460
 11
325.022949
 21
64.634460
  0
LINE
  8
0
  6
CONTINUOUS
 10
320.493744
 20
69.556328
 11
321.087555
 21
69.556328
  0
LINE
  8
0
  6
CONTINUOUS
 10
322.462555
 20
69.556328
 11
326.195557
 21
69.553902
  0
LINE
  8
0
  6
CONTINUOUS
 10
303.337555
 20
68.714226
 11
303.337555
 21
68.525078
  0
LINE
  8
0
  6
CONTINUOUS
 10
620.700989
 20
34.025078
 11
620.700989
 21
38.003799
  0
LINE
  8
0
  6
CONTINUOUS
 10
530.700989
 20
34.025078
 11
530.700989
 21
38.003738
  0
LINE
  8
0
  6
CONTINUOUS
 10
535.700989
 20
29.025078
 11
538.700989
 21
29.025078
  0
LINE
  8
0
  6
CONTINUOUS
 10
615.700989
 20
29.025078
 11
612.700989
 21
29.025078
  0
ARC
  8
0
  6
CONTINUOUS
 10
535.700989
 20
34.025078
 40
5.000000
 50
180.000000
 51
270.000000
  0
ARC
  8
0
  6
CONTINUOUS
 10
615.700989
 20
34.025078
 40
5.000000
 50
-90.000000
 51
0.000000
  0
ARC
  8
0
  6
CONTINUOUS
 10
616.713379
 20
46.013119
 40
8.000000
 50
306.780975
 51
358.958740
  0
ARC
  8
0
  6
CONTINUOUS
 10
534.688782
 20
46.012859
 40
8.000000
 50
181.041107
 51
233.216995
  0
ARC
  8
0
  6
CONTINUOUS
 10
622.700989
 20
38.003819
 40
2.000000
 50
126.781197
 51
180.000000
  0
ARC
  8
0
  6
CONTINUOUS
 10
528.700989
 20
38.003738
 40
2.000000
 50
0.000000
 51
53.217121
  0
LINE
  8
0
  6
CENTER
 10
575.700989
 20
-14.303762
 11
575.700989
 21
198.944397
  0
LINE
  8
0
  6
CENTER
 10
458.429993
 20
123.025078
 11
642.942261
 21
123.025078
  0
LINE
  8
0
  6
CONTINUOUS
 10
512.700989
 20
3.025078
 11
548.200989
 21
3.025078
  0
LINE
  8
0
  6
CONTINUOUS
 10
516.700989
 20
18.025078
 11
534.700989
 21
18.025078
  0
LINE
  8
0
  6
CONTINUOUS
 10
634.700989
 20
18.025078
 11
616.700989
 21
18.025078
  0
LINE
  8
0
  6
CONTINUOUS
 10
540.200989
 20
151.025085
 11
610.950989
 21
151.025085
  0
LINE
  8
0
  6
CONTINUOUS
 10
609.753418
 20
176.930954
 11
575.700989
 21
177.525085
  0
LINE
  8
0
  6
CONTINUOUS
 10
541.648621
 20
176.930557
 11
575.700989
 21
177.525085
  0
LINE
  8
0
  6
CONTINUOUS
 10
612.700989
 20
173.931412
 11
612.700989
 21
3.025058
  0
LINE
  8
0
  6
CONTINUOUS
 10
538.700989
 20
173.931015
 11
538.700989
 21
3.025078
  0
LINE
  8
0
  6
CONTINUOUS
 10
522.700989
 20
93.312813
 11
522.700989
 21
152.737320
  0
LINE
  8
0
  6
CONTINUOUS
 10
628.700989
 20
152.737335
 11
628.700989
 21
93.312813
  0
LINE
  8
0
  6
CONTINUOUS
 10
529.700989
 20
52.825497
 11
529.700989
 21
125.525078
  0
LINE
  8
0
  6
CONTINUOUS
 10
621.700989
 20
52.825497
 11
621.700989
 21
125.525078
  0
LINE
  8
0
  6
CONTINUOUS
 10
638.700989
 20
14.721016
 11
638.700989
 21
3.025078
  0
LINE
  8
0
  6
CONTINUOUS
 10
512.700989
 20
14.721016
 11
512.700989
 21
3.025078
  0
LINE
  8
0
  6
CENTER
 10
525.700989
 20
26.025078
 11
525.700989
 21
-8.328322
  0
LINE
  8
0
  6
CENTER
 10
625.700989
 20
26.525078
 11
625.700989
 21
-8.328322
  0
LINE
  8
0
  6
DASHED
 10
520.200989
 20
18.025078
 11
520.200989
 21
3.025078
  0
LINE
  8
0
  6
DASHED
 10
531.200989
 20
18.025078
 11
531.200989
 21
3.025078
  0
LINE
  8
0
  6
DASHED
 10
620.200989
 20
18.025078
 11
620.200989
 21
3.025078
  0
LINE
  8
0
  6
DASHED
 10
631.200989
 20
18.025078
 11
631.200989
 21
3.025078
  0
ARC
  8
0
  6
CONTINUOUS
 10
541.700989
 20
173.931046
 40
3.000000
 50
91.000526
 51
180.000000
  0
ARC
  8
0
  6
CONTINUOUS
 10
609.700989
 20
173.931396
 40
3.000000
 50
0.000000
 51
89.000580
  0
LINE
  8
0
  6
CONTINUOUS
 10
603.200989
 20
3.025078
 11
638.700989
 21
3.025078
  0
LINE
  8
0
  6
CONTINUOUS
 10
549.200989
 20
4.025078
 11
602.200989
 21
4.025078
  0
LINE
  8
0
  6
CONTINUOUS
 10
526.347229
 20
157.550598
 11
535.054626
 21
159.999557
  0
LINE
  8
0
  6
CONTINUOUS
 10
526.347229
 20
88.499557
 11
527.513184
 21
88.171631
  0
LINE
  8
0
  6
CONTINUOUS
 10
533.362793
 20
48.007919
 11
535.039185
 21
47.542236
  0
LINE
  8
0
  6
CONTINUOUS
 10
618.039185
 20
48.007919
 11
616.362793
 21
47.542236
  0
LINE
  8
0
  6
CONTINUOUS
 10
625.054626
 20
88.499565
 11
623.888794
 21
88.171631
  0
LINE
  8
0
  6
CONTINUOUS
 10
625.054626
 20
157.550598
 11
616.347412
 21
159.999557
  0
ARC
  8
0
  6
CONTINUOUS
 10
527.700989
 20
152.737350
 40
5.000000
 50
105.709000
 51
180.000000
  0
ARC
  8
0
  6
CONTINUOUS
 10
527.700989
 20
93.312851
 40
5.000000
 50
180.000000
 51
254.291702
  0
ARC
  8
0
  6
CONTINUOUS
 10
534.700989
 20
52.825539
 40
5.000000
 50
180.000000
 51
254.476196
  0
ARC
  8
0
  6
CONTINUOUS
 10
616.700989
 20
52.825497
 40
5.000000
 50
-74.475708
 51
0.000000
  0
ARC
  8
0
  6
CONTINUOUS
 10
623.700989
 20
93.312805
 40
5.000000
 50
-74.291199
 51
0.000000
  0
ARC
  8
0
  6
CONTINUOUS
 10
623.700989
 20
152.737320
 40
5.000000
 50
0.000000
 51
74.291527
  0
ARC
  8
0
  6
CONTINUOUS
 10
624.700989
 20
85.283699
 40
3.000000
 50
105.709000
 51
180.000000
  0
ARC
  8
0
  6
CONTINUOUS
 10
526.700989
 20
85.283669
 40
3.000000
 50
0.000000
 51
74.291397
  0
ARC
  8
0
  6
CONTINUOUS
 10
533.700989
 20
164.812820
 40
5.000000
 50
-74.291199
 51
0.000000
  0
ARC
  8
0
  6
CONTINUOUS
 10
617.700989
 20
164.812836
 40
5.000000
 50
180.000000
 51
254.291702
  0
ARC
  8
0
  6
CONTINUOUS
 10
617.700989
 20
42.724678
 40
5.000000
 50
105.524399
 51
180.000000
  0
ARC
  8
0
  6
CONTINUOUS
 10
533.700989
 20
42.724640
 40
5.000000
 50
0.000000
 51
74.475952
  0
LINE
  8
0
  6
CONTINUOUS
 10
603.200989
 20
3.025078
 11
602.200989
 21
4.025078
  0
LINE
  8
0
  6
CONTINUOUS
 10
548.200989
 20
3.025078
 11
549.200989
 21
4.025078
  0
LINE
  8
0
  6
CENTER
 10
498.802246
 20
87.025070
 11
655.222229
 21
87.025070
  0
LINE
  8
0
  6
CONTINUOUS
 10
322.493744
 20
119.025116
 11
322.493744
 21
127.025116
  0
LINE
  8
0
  6
CONTINUOUS
 10
329.493744
 20
119.025139
 11
329.493744
 21
127.025139
  0
LINE
  8
0
  6
CONTINUOUS
 10
329.493744
 20
119.025139
 11
322.493744
 21
119.025116
  0
LINE
  8
0
  6
CONTINUOUS
 10
329.493744
 20
127.025139
 11
322.493744
 21
127.025116
  0
ARC
  8
0
  6
CONTINUOUS
 10
312.493744
 20
123.025078
 40
14.000000
 50
16.601500
 51
343.398499
  0
LINE
  8
0
  6
CONTINUOUS
 10
475.700989
 20
109.025078
 11
475.700989
 21
137.025085
  0
LINE
  8
0
  6
CONTINUOUS
 10
520.700989
 20
137.025085
 11
475.700989
 21
137.025085
  0
LINE
  8
0
  6
CONTINUOUS
 10
520.700989
 20
109.025078
 11
475.700989
 21
109.025078
  0
LINE
  8
0
  6
CONTINUOUS
 10
520.700989
 20
138.025085
 11
520.700989
 21
108.025078
  0
LINE
  8
0
  6
CONTINUOUS
 10
522.700989
 20
108.025078
 11
520.700989
 21
108.025078
  0
ARC
  8
0
  6
CONTINUOUS
 10
511.700989
 20
123.025078
 40
4.000000
 50
-90.000000
 51
90.000000
  0
LINE
  8
0
  6
CONTINUOUS
 10
511.700989
 20
127.025078
 11
475.700989
 21
127.025078
  0
LINE
  8
0
  6
CONTINUOUS
 10
511.700989
 20
119.025078
 11
475.700989
 21
119.025078
  0
LINE
  8
0
  6
CONTINUOUS
 10
522.700989
 20
138.025085
 11
520.700989
 21
138.025085
  0
LINE
  8
0
  6
CONTINUOUS
 10
223.493744
 20
151.025177
 11
229.993744
 21
151.025177
  0
LINE
  8
0
  6
CONTINUOUS
 10
223.493744
 20
23.024981
 11
229.993744
 21
23.024981
  0
LINE
  8
0
  6
CONTINUOUS
 10
175.493744
 20
119.025078
 11
221.493744
 21
120.631432
  0
LINE
  8
0
  6
CONTINUOUS
 10
229.993744
 20
27.121897
 11
175.493744
 21
29.025078
  0
ARC
  8
0
  6
CONTINUOUS
 10
223.493774
 20
149.025208
 40
2.000000
 50
90.000000
 51
180.000000
  0
ARC
  8
0
  6
CONTINUOUS
 10
223.493744
 20
25.024981
 40
2.000000
 50
180.260773
 51
270.000000
  0
LINE
  8
0
  6
CENTER
 10
-12.840000
 20
74.025078
 11
273.743744
 21
74.025078
  0
LINE
  8
0
  6
CONTINUOUS
 10
175.493744
 20
119.025078
 11
175.493744
 21
29.025078
  0
LINE
  8
0
  6
CONTINUOUS
 10
220.761520
 20
126.792847
 11
215.047012
 21
121.078331
  0
LINE
  8
0
  6
CONTINUOUS
 10
252.257126
 20
405.750061
 11
371.399811
 21
405.750061
  0
ARC
  8
0
  6
CONTINUOUS
 10
371.399811
 20
402.750061
 40
3.000000
 50
1.000000
 51
90.000000
  0
LINE
  8
0
  6
CONTINUOUS
 10
357.488007
 20
411.103790
 11
358.378448
 21
407.937805
  0
ARC
  8
0
  6
CONTINUOUS
 10
361.266388
 20
408.750061
 40
3.000000
 50
195.708649
 51
270.000000
  0
ARC
  8
0
  6
CONTINUOUS
 10
244.071350
 20
422.976624
 40
3.000000
 50
1.500200
 51
77.801201
  0
LINE
  8
0
  6
CONTINUOUS
 10
247.070343
 20
423.055176
 11
247.426346
 21
409.460388
  0
ARC
  8
0
  6
CONTINUOUS
 10
245.339157
 20
428.841156
 40
3.000000
 50
-164.999893
 51
-102.198799
  0
LINE
  8
0
  6
CENTER
 10
-14.745000
 20
368.750061
 11
390.397614
 21
368.750061
  0
LINE
  8
0
  6
CONTINUOUS
 10
263.508636
 20
305.750061
 11
298.493744
 21
305.750061
  0
LINE
  8
0
  6
CONTINUOUS
 10
374.993744
 20
368.750061
 11
374.347900
 21
405.750061
  0
LINE
  8
0
  6
CONTINUOUS
 10
366.183655
 20
428.442719
 11
374.347900
 21
405.750061
  0
ARC
  8
0
  6
CONTINUOUS
 10
361.478882
 20
426.750061
 40
5.000000
 50
19.787489
 51
90.000000
  0
LINE
  8
0
  6
CONTINUOUS
 10
374.993744
 20
368.750061
 11
374.347900
 21
331.750061
  0
LINE
  8
0
  6
CONTINUOUS
 10
366.183655
 20
309.057373
 11
374.347900
 21
331.750061
  0
ARC
  8
0
  6
CONTINUOUS
 10
361.478882
 20
310.750061
 40
5.000000
 50
-90.000000
 51
-19.787489
  0
LINE
  8
0
  6
CONTINUOUS
 10
252.257126
 20
405.750061
 11
371.399811
 21
405.750061
  0
LINE
  8
0
  6
CENTER
 10
312.493744
 20
249.512497
 11
312.493744
 21
444.823761
  0
ARC
  8
0
  6
CONTINUOUS
 10
371.399811
 20
402.750061
 40
3.000000
 50
1.000000
 51
90.000000
  0
ARC
  8
0
  6
CONTINUOUS
 10
371.399811
 20
334.750061
 40
3.000000
 50
-90.000000
 51
-1.000000
  0
LINE
  8
0
  6
CONTINUOUS
 10
252.330353
 20
331.750061
 11
371.399811
 21
331.750061
  0
LINE
  8
0
  6
CONTINUOUS
 10
342.206024
 20
421.750061
 11
282.781494
 21
421.750061
  0
LINE
  8
0
  6
CONTINUOUS
 10
347.019257
 20
418.103790
 11
347.962494
 21
414.750061
  0
ARC
  8
0
  6
CONTINUOUS
 10
342.206024
 20
416.750061
 40
5.000000
 50
15.708638
 51
90.000000
  0
LINE
  8
0
  6
CONTINUOUS
 10
347.962494
 20
414.750061
 11
352.674774
 21
414.750061
  0
ARC
  8
0
  6
CONTINUOUS
 10
352.674774
 20
409.750061
 40
5.000000
 50
15.708638
 51
90.000000
  0
LINE
  8
0
  6
CONTINUOUS
 10
277.968231
 20
418.103790
 11
277.024994
 21
414.750061
  0
ARC
  8
0
  6
CONTINUOUS
 10
282.781494
 20
416.750061
 40
5.000000
 50
90.000000
 51
164.291367
  0
LINE
  8
0
  6
CONTINUOUS
 10
277.024994
 20
414.750061
 11
272.312744
 21
414.750061
  0
LINE
  8
0
  6
CONTINUOUS
 10
267.499481
 20
411.103790
 11
266.609070
 21
407.937805
  0
ARC
  8
0
  6
CONTINUOUS
 10
272.312744
 20
409.750061
 40
5.000000
 50
90.000000
 51
164.291367
  0
ARC
  8
0
  6
CONTINUOUS
 10
263.721100
 20
408.750061
 40
3.000000
 50
-90.000000
 51
-15.708638
  0
LINE
  8
0
  6
CONTINUOUS
 10
342.206024
 20
315.750061
 11
282.781494
 21
315.750061
  0
LINE
  8
0
  6
CONTINUOUS
 10
347.019257
 20
319.396332
 11
347.962494
 21
322.750061
  0
ARC
  8
0
  6
CONTINUOUS
 10
342.206024
 20
320.750061
 40
5.000000
 50
-90.000000
 51
-15.708638
  0
LINE
  8
0
  6
CONTINUOUS
 10
347.962494
 20
322.750061
 11
352.674774
 21
322.750061
  0
LINE
  8
0
  6
CONTINUOUS
 10
357.488007
 20
326.396332
 11
358.378448
 21
329.562286
  0
ARC
  8
0
  6
CONTINUOUS
 10
352.674774
 20
327.750061
 40
5.000000
 50
-90.000000
 51
-15.708638
  0
ARC
  8
0
  6
CONTINUOUS
 10
361.266388
 20
328.750061
 40
3.000000
 50
-270.000000
 51
-195.708633
  0
LINE
  8
0
  6
CONTINUOUS
 10
277.968231
 20
319.396332
 11
277.024994
 21
322.750061
  0
ARC
  8
0
  6
CONTINUOUS
 10
282.781494
 20
320.750061
 40
5.000000
 50
-164.291367
 51
-90.000000
  0
LINE
  8
0
  6
CONTINUOUS
 10
277.024994
 20
322.750061
 11
272.312744
 21
322.750061
  0
LINE
  8
0
  6
CONTINUOUS
 10
267.499481
 20
326.396332
 11
266.609070
 21
329.562286
  0
ARC
  8
0
  6
CONTINUOUS
 10
272.312744
 20
327.750061
 40
5.000000
 50
-164.291367
 51
-90.000000
  0
ARC
  8
0
  6
CONTINUOUS
 10
263.721100
 20
328.750061
 40
3.000000
 50
15.708638
 51
90.000000
  0
LINE
  8
0
  6
CONTINUOUS
 10
258.803864
 20
428.442719
 11
250.726013
 21
405.990234
  0
ARC
  8
0
  6
CONTINUOUS
 10
263.508636
 20
426.750061
 40
5.000000
 50
90.000000
 51
160.212509
  0
LINE
  8
0
  6
CONTINUOUS
 10
258.803864
 20
309.057373
 11
250.741852
 21
331.465790
  0
ARC
  8
0
  6
CONTINUOUS
 10
263.508636
 20
310.750061
 40
5.000000
 50
199.787491
 51
270.000000
  0
LINE
  8
0
  6
CONTINUOUS
 10
263.508636
 20
431.750061
 11
312.493744
 21
431.750061
  0
LINE
  8
0
  6
CENTER
 10
352.493744
 20
429.863342
 11
352.493744
 21
410.421936
  0
LINE
  8
0
  6
CENTER
 10
342.582855
 20
418.750061
 11
361.101410
 21
418.750061
  0
ARC
  8
0
  6
CONTINUOUS
 10
352.493744
 20
418.750061
 40
5.500000
 50
-59.465683
 51
187.598495
  0
ARC
  8
0
  6
CONTINUOUS
 10
272.493744
 20
418.750061
 40
5.500000
 50
-7.598608
 51
239.465683
  0
LINE
  8
0
  6
CENTER
 10
272.493744
 20
429.863342
 11
272.493744
 21
410.421936
  0
LINE
  8
0
  6
CENTER
 10
282.404633
 20
418.750061
 11
263.886078
 21
418.750061
  0
ARC
  8
0
  6
CONTINUOUS
 10
272.493744
 20
318.750061
 40
5.500000
 50
-239.465683
 51
7.598608
  0
LINE
  8
0
  6
CENTER
 10
282.404633
 20
318.750061
 11
263.886078
 21
318.750061
  0
LINE
  8
0
  6
CENTER
 10
272.493744
 20
307.636780
 11
272.493744
 21
327.078186
  0
LINE
  8
0
  6
CENTER
 10
352.493744
 20
307.636780
 11
352.493744
 21
327.078186
  0
LINE
  8
0
  6
CENTER
 10
342.582855
 20
318.750061
 11
361.101410
 21
318.750061
  0
ARC
  8
0
  6
CONTINUOUS
 10
352.493744
 20
318.750061
 40
5.500000
 50
-187.598602
 51
59.465683
  0
LINE
  8
0
  6
CONTINUOUS
 10
336.493744
 20
334.750061
 11
336.493744
 21
402.750061
  0
LINE
  8
0
  6
CONTINUOUS
 10
288.493744
 20
334.750061
 11
288.493744
 21
402.750061
  0
LINE
  8
0
  6
CONTINUOUS
 10
247.574051
 20
328.044128
 11
242.325424
 21
308.455963
  0
LINE
  8
0
  6
CONTINUOUS
 10
247.070343
 20
313.898010
 11
247.426346
 21
327.492798
  0
ARC
  8
0
  6
CONTINUOUS
 10
244.071350
 20
313.976624
 40
3.000000
 50
282.198792
 51
358.499786
  0
ARC
  8
0
  6
CONTINUOUS
 10
245.339157
 20
308.112000
 40
3.000000
 50
102.198799
 51
165.000031
  0
ARC
  8
0
  6
CONTINUOUS
 10
244.071350
 20
422.976624
 40
3.000000
 50
1.500200
 51
77.801201
  0
LINE
  8
0
  6
CONTINUOUS
 10
247.070343
 20
423.055176
 11
247.426346
 21
409.460388
  0
ARC
  8
0
  6
CONTINUOUS
 10
245.339157
 20
428.841156
 40
3.000000
 50
-164.999893
 51
-102.198799
  0
LINE
  8
0
  6
CONTINUOUS
 10
237.422546
 20
432.750061
 11
229.993744
 21
432.750061
  0
LINE
  8
0
  6
CONTINUOUS
 10
242.178909
 20
429.044128
 11
247.500748
 21
409.182556
  0
ARC
  8
0
  6
CONTINUOUS
 10
252.403671
 20
326.750061
 40
5.000000
 50
90.000000
 51
165.000031
  0
ARC
  8
0
  6
CONTINUOUS
 10
252.257126
 20
410.750061
 40
5.000000
 50
194.999847
 51
270.000000
  0
LINE
  8
0
  6
CONTINUOUS
 10
312.493744
 20
431.750061
 11
361.478882
 21
431.750061
  0
LINE
  8
0
  6
CONTINUOUS
 10
329.493744
 20
268.750061
 11
298.493744
 21
268.750061
  0
LINE
  8
0
  6
CONTINUOUS
 10
298.493744
 20
313.750061
 11
298.493744
 21
268.750061
  0
LINE
  8
0
  6
CONTINUOUS
 10
326.493744
 20
313.750061
 11
326.493744
 21
308.750061
  0
LINE
  8
0
  6
CONTINUOUS
 10
297.493744
 20
313.750061
 11
327.493744
 21
313.750061
  0
LINE
  8
0
  6
CONTINUOUS
 10
327.493744
 20
315.750061
 11
327.493744
 21
313.750061
  0
LINE
  8
0
  6
CONTINUOUS
 10
297.493744
 20
315.750061
 11
297.493744
 21
313.750061
  0
LINE
  8
0
  6
CONTINUOUS
 10
325.910156
 20
308.750061
 11
329.493744
 21
308.750061
  0
LINE
  8
0
  6
CONTINUOUS
 10
325.910156
 20
308.750061
 11
325.910156
 21
268.750061
  0
LINE
  8
0
  6
CONTINUOUS
 10
329.493744
 20
268.750061
 11
329.493744
 21
308.750061
  0
LINE
  8
0
  6
CONTINUOUS
 10
329.493744
 20
305.750061
 11
361.478882
 21
305.750061
  0
LINE
  8
0
  6
CONTINUOUS
 10
229.993744
 20
304.750061
 11
237.495789
 21
304.750061
  0
ARC
  8
0
  6
CONTINUOUS
 10
237.495789
 20
309.750061
 40
5.000000
 50
270.000000
 51
345.000031
  0
ARC
  8
0
  6
CONTINUOUS
 10
237.349289
 20
427.750061
 40
5.000000
 50
14.999846
 51
90.000000
  0
LINE
  8
0
  6
CONTINUOUS
 10
249.993744
 20
368.750061
 11
250.588135
 21
402.802399
  0
LINE
  8
0
  6
CONTINUOUS
 10
249.993744
 20
368.750061
 11
250.588135
 21
334.697693
  0
ARC
  8
0
  6
CONTINUOUS
 10
253.587677
 20
402.750061
 40
3.000000
 50
90.000000
 51
179.000000
  0
ARC
  8
0
  6
CONTINUOUS
 10
253.587677
 20
334.750061
 40
3.000000
 50
181.000000
 51
270.000000
  0
LINE
  8
0
  6
CONTINUOUS
 10
248.439392
 20
151.025177
 11
229.993744
 21
151.025177
  0
LINE
  8
0
  6
CONTINUOUS
 10
229.993744
 20
23.024981
 11
244.993744
 21
23.024981
  0
ARC
  8
0
  6
CONTINUOUS
 10
244.993774
 20
18.024961
 40
5.000000
 50
0.000000
 51
90.000000
  0
LINE
  8
0
  6
CONTINUOUS
 10
515.945618
 20
18.649054
 11
535.456360
 21
22.401115
  0
ARC
  8
0
  6
CONTINUOUS
 10
575.700989
 20
87.025078
 40
64.000099
 50
-54.681290
 51
34.093521
  0
ARC
  8
0
  6
CONTINUOUS
 10
575.700989
 20
87.025078
 40
64.000099
 50
159.894516
 51
234.681290
  0
ARC
  8
0
  6
CONTINUOUS
 10
516.700989
 20
14.025078
 40
4.000000
 50
90.000000
 51
180.000000
  0
ARC
  8
0
  6
CONTINUOUS
 10
516.700989
 20
14.721016
 40
4.000000
 50
100.885529
 51
180.000000
  0
ARC
  8
0
  6
CONTINUOUS
 10
534.700989
 20
26.329142
 40
4.000000
 50
-79.114502
 51
0.000000
  0
ARC
  8
0
  6
CONTINUOUS
 10
534.700989
 20
22.025078
 40
4.000000
 50
-90.000000
 51
0.000000
  0
LINE
  8
0
  6
CONTINUOUS
 10
635.456360
 20
18.649054
 11
615.945618
 21
22.401115
  0
ARC
  8
0
  6
CONTINUOUS
 10
634.700989
 20
14.025078
 40
4.000000
 50
0.000000
 51
90.000000
  0
ARC
  8
0
  6
CONTINUOUS
 10
634.700989
 20
14.721016
 40
4.000000
 50
0.000000
 51
79.114471
  0
ARC
  8
0
  6
CONTINUOUS
 10
616.700989
 20
26.329142
 40
4.000000
 50
180.000000
 51
259.114502
  0
ARC
  8
0
  6
CONTINUOUS
 10
616.700989
 20
22.025078
 40
4.000000
 50
180.000000
 51
270.000000
  0
LINE
  8
0
  6
CONTINUOUS
 10
293.935638
 20
23.025078
 11
331.051880
 21
23.025078
  0
LINE
  8
0
  6
CONTINUOUS
 10
291.593018
 20
21.899153
 11
289.394531
 21
19.151005
  0
ARC
  8
0
  6
CONTINUOUS
 10
287.051910
 20
21.025078
 40
3.000000
 50
270.000000
 51
321.340454
  0
ARC
  8
0
  6
CONTINUOUS
 10
293.935638
 20
20.025078
 40
3.000000
 50
90.000000
 51
141.340454
  0
LINE
  8
0
  6
CONTINUOUS
 10
333.394470
 20
21.899153
 11
335.592987
 21
19.151005
  0
ARC
  8
0
  6
CONTINUOUS
 10
337.935608
 20
21.025078
 40
3.000000
 50
-141.340454
 51
-90.000000
  0
ARC
  8
0
  6
CONTINUOUS
 10
331.051880
 20
20.025078
 40
3.000000
 50
38.659546
 51
90.000000
  0
ARC
  8
0
  6
CONTINUOUS
 10
248.439392
 20
156.025177
 40
5.000000
 50
270.000000
 51
304.539978
  0
LINE
  8
0
  6
CONTINUOUS
 10
229.993744
 20
432.750061
 11
229.993744
 21
304.750061
  0
LINE
  8
0
  6
CONTINUOUS
 10
248.493744
 20
138.625076
 11
249.993744
 21
138.625076
  0
LINE
  8
0
  6
CONTINUOUS
 10
248.493744
 20
35.425098
 11
249.993744
 21
35.425098
  0
ARC
  8
0
  6
CONTINUOUS
 10
432.446960
 20
87.025078
 40
191.053177
 50
164.330902
 51
195.669098
  0
ARC
  8
0
  6
CONTINUOUS
 10
432.446960
 20
87.025078
 40
190.053177
 50
178.548599
 51
181.478500
  0
LINE
  8
0
  6
CONTINUOUS
 10
244.493744
 20
92.025078
 11
243.488953
 21
92.025078
  0
LINE
  8
0
  6
CONTINUOUS
 10
246.993744
 20
89.525078
 11
246.993744
 21
84.525078
  0
ARC
  8
0
  6
CONTINUOUS
 10
243.488953
 20
93.023476
 40
1.000000
 50
178.182098
 51
270.000000
  0
ARC
  8
0
  6
CONTINUOUS
 10
244.493744
 20
89.525078
 40
2.500000
 50
0.000000
 51
90.000000
  0
LINE
  8
0
  6
CONTINUOUS
 10
244.493744
 20
82.025078
 11
243.488953
 21
82.025078
  0
ARC
  8
0
  6
CONTINUOUS
 10
243.488953
 20
81.026680
 40
1.000000
 50
-270.000000
 51
-178.182098
  0
ARC
  8
0
  6
CONTINUOUS
 10
244.493744
 20
84.525078
 40
2.500000
 50
-90.000000
 51
0.000000
  0
LINE
  8
0
  6
CONTINUOUS
 10
175.493744
 20
53.519077
 11
219.493744
 21
53.519077
  0
LINE
  8
0
  6
CONTINUOUS
 10
175.493744
 20
38.506077
 11
229.993744
 21
38.506081
  0
LINE
  8
0
  6
CONTINUOUS
 10
222.061722
 20
46.458076
 11
229.993744
 21
46.458076
  0
LINE
  8
0
  6
CONTINUOUS
 10
221.493744
 20
47.672813
 11
221.493744
 21
149.025208
  0
ARC
  8
0
  6
CONTINUOUS
 10
218.993790
 20
25.004499
 40
2.500000
 50
0.260773
 51
88.000000
  0
ARC
  8
0
  6
CONTINUOUS
 10
218.993744
 20
128.560608
 40
2.500000
 50
-45.000000
 51
0.000000
  0
ARC
  8
0
  6
CONTINUOUS
 10
213.279236
 20
122.846100
 40
2.500000
 50
272.000000
 51
315.000000
  0
LINE
  8
0
  6
CONTINUOUS
 10
221.493744
 20
306.750061
 11
221.493744
 21
430.750061
  0
LINE
  8
0
  6
CONTINUOUS
 10
175.493744
 20
413.750061
 11
219.057373
 21
415.271332
  0
LINE
  8
0
  6
CONTINUOUS
 10
175.493744
 20
323.750061
 11
219.057373
 21
322.228760
  0
LINE
  8
0
  6
CONTINUOUS
 10
175.493744
 20
417.762054
 11
175.493744
 21
319.738037
  0
LINE
  8
0
  6
CONTINUOUS
 10
223.493744
 20
432.750061
 11
229.993744
 21
432.750061
  0
LINE
  8
0
  6
CONTINUOUS
 10
223.493744
 20
304.750061
 11
229.993744
 21
304.750061
  0
LINE
  8
0
  6
CONTINUOUS
 10
214.350754
 20
392.750061
 11
221.465729
 21
392.750061
  0
LINE
  8
0
  6
CONTINUOUS
 10
214.955902
 20
344.750061
 11
221.465729
 21
344.750061
  0
LINE
  8
0
  6
CONTINUOUS
 10
214.350754
 20
390.545532
 11
214.350754
 21
346.832977
  0
LINE
  8
0
  6
CONTINUOUS
 10
166.493744
 20
411.750061
 11
166.493744
 21
397.750061
  0
LINE
  8
0
  6
CONTINUOUS
 10
56.493752
 20
413.750061
 11
175.493744
 21
413.750061
  0
LINE
  8
0
  6
CONTINUOUS
 10
56.493752
 20
323.750061
 11
175.493744
 21
323.750061
  0
LINE
  8
0
  6
CONTINUOUS
 10
56.493752
 20
397.750061
 11
166.493744
 21
397.750061
  0
LINE
  8
0
  6
CONTINUOUS
 10
56.493752
 20
339.750061
 11
166.493744
 21
339.750061
  0
ARC
  8
0
  6
CONTINUOUS
 10
168.493744
 20
411.750061
 40
2.000000
 50
90.000000
 51
180.000000
  0
ARC
  8
0
  6
CONTINUOUS
 10
168.493744
 20
325.750061
 40
2.000000
 50
180.000000
 51
270.000000
  0
LINE
  8
0
  6
CONTINUOUS
 10
175.493744
 20
413.750061
 11
175.493744
 21
323.750061
  0
ARC
  8
0
  6
CONTINUOUS
 10
223.493744
 20
430.750061
 40
2.000000
 50
90.000000
 51
180.000000
  0
ARC
  8
0
  6
CONTINUOUS
 10
223.493744
 20
306.750061
 40
2.000000
 50
180.000000
 51
270.000000
  0
ARC
  8
0
  6
CONTINUOUS
 10
218.970123
 20
417.769806
 40
2.500000
 50
272.000000
 51
359.895721
  0
ARC
  8
0
  6
CONTINUOUS
 10
218.970123
 20
319.730286
 40
2.500000
 50
0.104292
 51
88.000000
  0
LINE
  8
0
  6
CONTINUOUS
 10
221.493744
 20
415.356415
 11
221.465729
 21
415.355438
  0
LINE
  8
0
  6
CONTINUOUS
 10
175.993439
 20
418.279510
 11
221.493744
 21
419.868408
  0
LINE
  8
0
  6
CONTINUOUS
 10
175.493744
 20
417.762054
 11
175.993439
 21
418.279510
  0
LINE
  8
0
  6
CONTINUOUS
 10
175.993439
 20
319.220612
 11
221.493744
 21
317.631683
  0
LINE
  8
0
  6
CONTINUOUS
 10
175.493744
 20
319.738037
 11
175.993439
 21
319.220612
  0
LINE
  8
0
  6
CONTINUOUS
 10
46.993752
 20
413.750061
 11
56.493752
 21
413.750061
  0
LINE
  8
0
  6
CONTINUOUS
 10
56.493752
 20
397.750061
 11
46.993752
 21
397.750061
  0
LINE
  8
0
  6
CONTINUOUS
 10
46.993752
 20
323.750061
 11
56.493752
 21
323.750061
  0
LINE
  8
0
  6
CONTINUOUS
 10
56.493752
 20
323.750061
 11
56.493752
 21
343.750031
  0
LINE
  8
0
  6
CONTINUOUS
 10
56.493752
 20
339.750061
 11
46.993752
 21
339.750061
  0
LINE
  8
0
  6
CONTINUOUS
 10
56.493752
 20
393.750031
 11
56.493752
 21
413.750061
  0
LINE
  8
0
  6
CONTINUOUS
 10
46.993752
 20
415.750061
 11
46.993752
 21
376.250031
  0
LINE
  8
0
  6
CONTINUOUS
 10
46.993752
 20
397.750061
 11
3.018720
 21
397.750061
  0
LINE
  8
0
  6
CONTINUOUS
 10
46.993752
 20
339.750061
 11
3.018720
 21
339.750061
  0
LINE
  8
0
  6
CONTINUOUS
 10
4.493730
 20
415.750061
 11
46.993752
 21
415.750061
  0
LINE
  8
0
  6
CONTINUOUS
 10
4.493730
 20
321.750061
 11
46.993752
 21
321.750061
  0
ARC
  8
0
  6
CONTINUOUS
 10
4.493760
 20
410.750061
 40
5.000000
 50
90.000000
 51
180.000000
  0
ARC
  8
0
  6
CONTINUOUS
 10
4.493730
 20
326.750061
 40
5.000000
 50
180.000000
 51
270.000000
  0
LINE
  8
0
  6
CONTINUOUS
 10
-0.506240
 20
410.750061
 11
-0.506270
 21
326.750031
  0
LINE
  8
0
  6
CONTINUOUS
 10
46.993752
 20
119.025078
 11
56.493752
 21
119.025078
  0
LINE
  8
0
  6
CONTINUOUS
 10
56.493752
 20
108.434380
 11
46.993752
 21
108.434380
  0
LINE
  8
0
  6
CONTINUOUS
 10
46.993752
 20
29.025078
 11
56.493752
 21
29.025078
  0
LINE
  8
0
  6
CONTINUOUS
 10
56.493752
 20
39.615788
 11
46.993752
 21
39.615788
  0
LINE
  8
0
  6
CONTINUOUS
 10
46.993752
 20
121.025078
 11
46.993752
 21
27.025078
  0
LINE
  8
0
  6
CONTINUOUS
 10
46.993752
 20
103.025078
 11
3.018720
 21
103.025078
  0
LINE
  8
0
  6
CONTINUOUS
 10
46.993752
 20
45.025078
 11
3.018720
 21
45.025078
  0
LINE
  8
0
  6
CONTINUOUS
 10
4.493730
 20
121.025078
 11
46.993752
 21
121.025078
  0
LINE
  8
0
  6
CONTINUOUS
 10
4.493730
 20
27.025078
 11
46.993752
 21
27.025078
  0
ARC
  8
0
  6
CONTINUOUS
 10
4.493760
 20
116.025078
 40
5.000000
 50
90.000000
 51
180.000000
  0
ARC
  8
0
  6
CONTINUOUS
 10
4.493730
 20
32.025078
 40
5.000000
 50
180.000000
 51
270.000000
  0
LINE
  8
0
  6
CONTINUOUS
 10
-0.506240
 20
116.025078
 11
-0.506270
 21
32.025066
  0
LINE
  8
0
  6
CONTINUOUS
 10
56.493752
 20
29.025078
 11
56.493752
 21
119.025078
  0
LINE
  8
0
  6
CONTINUOUS
 10
46.493752
 20
376.250031
 11
47.493752
 21
376.250031
  0
ARC
  8
0
  6
CONTINUOUS
 10
46.493771
 20
375.250031
 40
1.000000
 50
90.000000
 51
180.000000
  0
LINE
  8
0
  6
CONTINUOUS
 10
41.993767
 20
372.750031
 11
41.993767
 21
364.750031
  0
LINE
  8
0
  6
CONTINUOUS
 10
41.993767
 20
372.750031
 11
45.493767
 21
374.250031
  0
LINE
  8
0
  6
CONTINUOUS
 10
41.993752
 20
364.750031
 11
45.493752
 21
363.250031
  0
LINE
  8
0
  6
CONTINUOUS
 10
45.493767
 20
375.250031
 11
45.493767
 21
362.250031
  0
LINE
  8
0
  6
CONTINUOUS
 10
46.493752
 20
361.250031
 11
47.493752
 21
361.250031
  0
ARC
  8
0
  6
CONTINUOUS
 10
46.493771
 20
362.250031
 40
1.000000
 50
-180.000000
 51
-90.000000
  0
LINE
  8
0
  6
CONTINUOUS
 10
47.493752
 20
345.750031
 11
47.493752
 21
391.750031
  0
LINE
  8
0
  6
CONTINUOUS
 10
49.493752
 20
393.750031
 11
47.493752
 21
391.750031
  0
LINE
  8
0
  6
CONTINUOUS
 10
49.493752
 20
393.750031
 11
95.493736
 21
393.750031
  0
LINE
  8
0
  6
CONTINUOUS
 10
89.993752
 20
389.250031
 11
89.993752
 21
393.750031
  0
ARC
  8
0
  6
CONTINUOUS
 10
92.993752
 20
389.250031
 40
3.000000
 50
180.000000
 51
270.000000
  0
LINE
  8
0
  6
CONTINUOUS
 10
92.993752
 20
386.250031
 11
97.493736
 21
386.250031
  0
CIRCLE
  8
0
  6
CONTINUOUS
 10
93.993752
 20
390.250031
 40
2.250000
  0
LINE
  8
0
  6
CONTINUOUS
 10
97.493744
 20
345.750031
 11
97.493736
 21
391.750031
  0
LINE
  8
0
  6
CONTINUOUS
 10
95.493736
 20
393.750031
 11
97.493736
 21
391.750031
  0
LINE
  8
0
  6
CONTINUOUS
 10
95.493744
 20
343.750031
 11
97.493744
 21
345.750031
  0
LINE
  8
0
  6
CONTINUOUS
 10
95.493744
 20
343.750031
 11
49.493752
 21
343.750031
  0
LINE
  8
0
  6
CONTINUOUS
 10
47.493752
 20
345.750031
 11
49.493752
 21
343.750031
  0
LINE
  8
0
  6
CONTINUOUS
 10
51.993752
 20
351.250031
 11
47.493759
 21
351.250031
  0
CIRCLE
  8
0
  6
CONTINUOUS
 10
50.993752
 20
347.250031
 40
2.250000
  0
ARC
  8
0
  6
CONTINUOUS
 10
51.993752
 20
348.250031
 40
3.000000
 50
0.000000
 51
90.000000
  0
LINE
  8
0
  6
CONTINUOUS
 10
54.993752
 20
348.250031
 11
54.993752
 21
343.750031
  0
LINE
  8
0
  6
CENTER
 10
72.493752
 20
336.284241
 11
72.493752
 21
400.416290
  0
LINE
  8
0
  6
CONTINUOUS
 10
49.907970
 20
392.750061
 11
48.493755
 21
391.335846
  0
LINE
  8
0
  6
CONTINUOUS
 10
48.493755
 20
351.250061
 11
48.493755
 21
391.335846
  0
LINE
  8
0
  6
CONTINUOUS
 10
89.993752
 20
392.750061
 11
49.907970
 21
392.750061
  0
LINE
  8
0
  6
CONTINUOUS
 10
96.493744
 20
386.250061
 11
96.493744
 21
346.164276
  0
LINE
  8
0
  6
CONTINUOUS
 10
54.993752
 20
344.750061
 11
95.079529
 21
344.750061
  0
LINE
  8
0
  6
CONTINUOUS
 10
95.079529
 20
344.750061
 11
96.493744
 21
346.164276
  0
LINE
  8
0
  6
CONTINUOUS
 10
46.993752
 20
361.250031
 11
46.993752
 21
321.750061
  0
LINE
  8
0
  6
CONTINUOUS
 10
48.993752
 20
120.525078
 11
95.493752
 21
120.525078
  0
LINE
  8
0
  6
CONTINUOUS
 10
97.493736
 20
150.525085
 11
97.493752
 21
122.525078
  0
LINE
  8
0
  6
CONTINUOUS
 10
47.493752
 20
150.525085
 11
47.493752
 21
122.525078
  0
LINE
  8
0
  6
CONTINUOUS
 10
45.493752
 20
132.525085
 11
97.493752
 21
132.525085
  0
LINE
  8
0
  6
CONTINUOUS
 10
95.493752
 20
120.525078
 11
97.493752
 21
122.525078
  0
LINE
  8
0
  6
CONTINUOUS
 10
47.493752
 20
122.525078
 11
49.493752
 21
120.525078
  0
LINE
  8
0
  6
CONTINUOUS
 10
47.493752
 20
122.525078
 11
97.493752
 21
122.525078
  0
LINE
  8
0
  6
CONTINUOUS
 10
48.493752
 20
151.525085
 11
96.493736
 21
151.525085
  0
LINE
  8
0
  6
CONTINUOUS
 10
96.493736
 20
151.525085
 11
97.493736
 21
150.525085
  0
LINE
  8
0
  6
CONTINUOUS
 10
48.493752
 20
151.525085
 11
47.493752
 21
150.525085
  0
LINE
  8
0
  6
CONTINUOUS
 10
47.493752
 20
150.525085
 11
97.493736
 21
150.525085
  0
LINE
  8
0
  6
CENTER
 10
39.550003
 20
142.025085
 11
51.625000
 21
142.025085
  0
LINE
  8
0
  6
CONTINUOUS
 10
45.493759
 20
148.525085
 11
45.493752
 21
132.525085
  0
LINE
  8
0
  6
CONTINUOUS
 10
46.493752
 20
149.525085
 11
47.493752
 21
149.525085
  0
ARC
  8
0
  6
CONTINUOUS
 10
46.493759
 20
148.525085
 40
1.000000
 50
90.000000
 51
180.000000
  0
LINE
  8
0
  6
CONTINUOUS
 10
41.993759
 20
146.025085
 11
41.993759
 21
138.025085
  0
LINE
  8
0
  6
CONTINUOUS
 10
41.993759
 20
146.025085
 11
45.493759
 21
147.525085
  0
LINE
  8
0
  6
CONTINUOUS
 10
41.993752
 20
138.025085
 11
45.493752
 21
136.525085
  0
LINE
  8
0
  6
CENTER
 10
72.493752
 20
115.831329
 11
72.493752
 21
156.912582
  0
LINE
  8
0
  6
CONTINUOUS
 10
48.993752
 20
120.525078
 11
48.993752
 21
119.025078
  0
LINE
  8
0
  6
CONTINUOUS
 10
94.993752
 20
120.525078
 11
94.993752
 21
119.025078
  0
LINE
  8
0
  6
CONTINUOUS
 10
166.493744
 20
339.750061
 11
166.493744
 21
325.750031
  0
TEXT
  8
0
 10
-14.000000
 20
-14.000000
 40
4.000000
 41
1.000000
  1
HLM-28R-600~900-S60WT
 50
0.000000
  0
ENDSEC
  0
EOF
