  0
SECTION
  2
HEADER
  9
$CLAYER
  8
1
  9
$LTSCALE
 40
3.0
  0
ENDSEC
  0
SECTION
  2
TABLES
  0
TABLE
  2
LTYPE
 70
     4
  0
LTYPE
  2
CONTINUOUS
  3
solid line
 70
    64
 72
    65
 73
     0
 40
0.0
  0
LTYPE
  2
DASHED
  3
__ __ __ __ __ __ __ __ __ __ __ __ __ __ __
 70
    64
 72
    65
 73
     2
 40
0.75
 49
0.5
 49
-0.25
  0
LTYPE
  2
CENTER
  3
____ _ ____ _ ____ _ ____ _ ____ _ ____ _ ____
 70
    64
 72
    65
 73
     4
 40
2.0
 49
1.25
 49
-0.25
 49
0.25
 49
-0.25
  0
LTYPE
  2
PHANTOM
  3
_____ _ _ _____ _ _ _____ _ _ _____ _ _ ____
 70
    64
 72
    65
 73
     6
 40
2.5
 49
1.25
 49
-0.25
 49
0.25
 49
-0.25
 49
0.25
 49
-0.25
  0
ENDTAB
  0
TABLE
  2
LAYER
 70
     1
  0
LAYER
  2
0
 70
    64
 62
     7
  6
CONTINUOUS
  0
ENDTAB
  0
TABLE
  2
STYLE
 70
     1
  0
STYLE
  2
STANDARD
 70
     0
 40
0.000000
 41
1.000000
 50
0.000000
 71
     0
 42
3.000000
  3
txt
  4
BIGFONT
  0
ENDTAB
  0
ENDSEC
  0
SECTION
  2
BLOCKS
  0
ENDSEC
  0
SECTION
  2
ENTITIES
  0
LINE
  8
0
  6
CONTINUOUS
 10
172.688751
 20
124.768829
 11
172.688751
 21
38.768806
  0
LINE
  8
0
  6
CONTINUOUS
 10
62.688751
 20
126.768829
 11
181.688751
 21
126.768829
  0
LINE
  8
0
  6
CONTINUOUS
 10
62.688751
 20
36.768829
 11
181.688751
 21
36.768829
  0
LINE
  8
0
  6
CONTINUOUS
 10
62.688751
 20
116.178131
 11
171.651077
 21
116.178131
  0
LINE
  8
0
  6
CONTINUOUS
 10
62.688751
 20
47.359528
 11
171.651077
 21
47.359528
  0
ARC
  8
0
  6
CONTINUOUS
 10
174.688751
 20
124.768845
 40
2.000000
 50
90.000000
 51
180.000000
  0
ARC
  8
0
  6
CONTINUOUS
 10
174.688751
 20
38.768829
 40
2.000000
 50
180.000000
 51
270.000000
  0
LINE
  8
0
  6
CONTINUOUS
 10
381.188751
 20
156.140442
 11
381.188751
 21
10.768828
  0
LINE
  8
0
  6
CONTINUOUS
 10
256.188751
 20
10.768828
 11
381.188751
 21
10.768828
  0
LINE
  8
0
  6
CENTER
 10
265.233551
 20
130.768829
 11
376.399994
 21
130.768829
  0
LINE
  8
0
  6
CENTER
 10
318.688751
 20
202.268784
 11
318.688751
 21
2.268828
  0
LINE
  8
0
  6
CONTINUOUS
 10
296.243164
 20
185.268784
 11
341.134338
 21
185.268784
  0
LINE
  8
0
  6
CONTINUOUS
 10
343.969147
 20
184.387482
 11
379.023560
 21
160.259064
  0
LINE
  8
0
  6
CONTINUOUS
 10
259.188751
 20
25.768827
 11
378.188751
 21
25.768827
  0
LINE
  8
0
  6
CONTINUOUS
 10
371.188751
 20
24.231327
 11
371.188751
 21
10.768828
  0
LINE
  8
0
  6
CONTINUOUS
 10
267.188751
 20
24.231327
 11
267.188751
 21
10.768828
  0
LINE
  8
0
  6
CENTER
 10
358.688751
 20
33.018829
 11
358.688751
 21
4.018828
  0
LINE
  8
0
  6
CENTER
 10
278.688751
 20
33.018829
 11
278.688751
 21
5.268828
  0
LINE
  8
0
  6
DASHED
 10
364.188751
 20
25.768827
 11
364.188751
 21
10.768828
  0
LINE
  8
0
  6
DASHED
 10
353.188751
 20
25.768827
 11
353.188751
 21
10.768828
  0
LINE
  8
0
  6
DASHED
 10
284.188751
 20
25.768827
 11
284.188751
 21
10.768828
  0
LINE
  8
0
  6
DASHED
 10
273.188751
 20
25.768827
 11
273.188751
 21
10.768828
  0
ARC
  8
0
  6
CONTINUOUS
 10
298.688751
 20
80.768829
 40
26.500000
 50
170.529099
 51
270.000000
  0
ARC
  8
0
  6
CONTINUOUS
 10
338.688751
 20
80.768829
 40
26.500000
 50
-90.000000
 51
9.470950
  0
LINE
  8
0
  6
CONTINUOUS
 10
272.549957
 20
85.129303
 11
281.206757
 21
137.021667
  0
LINE
  8
0
  6
CONTINUOUS
 10
356.170746
 20
137.021667
 11
364.827545
 21
85.129333
  0
LINE
  8
0
  6
CONTINUOUS
 10
298.688751
 20
54.268829
 11
338.688751
 21
54.268829
  0
ARC
  8
0
  6
CONTINUOUS
 10
376.188751
 20
156.140381
 40
5.000000
 50
0.000000
 51
55.460110
  0
ARC
  8
0
  6
CONTINUOUS
 10
341.134338
 20
180.268784
 40
5.000000
 50
55.460079
 51
90.000000
  0
ARC
  8
0
  6
CONTINUOUS
 10
296.277161
 20
180.268784
 40
5.000000
 50
90.000000
 51
91.038872
  0
LINE
  8
0
  6
CONTINUOUS
 10
298.688751
 20
30.399603
 11
298.688751
 21
25.768827
  0
LINE
  8
0
  6
CONTINUOUS
 10
338.688751
 20
30.399603
 11
338.688751
 21
25.768827
  0
LINE
  8
0
  6
CONTINUOUS
 10
256.188751
 20
10.768828
 11
256.188751
 21
156.140411
  0
ARC
  8
0
  6
CONTINUOUS
 10
298.688751
 20
80.768829
 40
24.000000
 50
169.576294
 51
270.000000
  0
ARC
  8
0
  6
CONTINUOUS
 10
338.688751
 20
80.768829
 40
24.000000
 50
-90.000000
 51
9.471373
  0
LINE
  8
0
  6
CONTINUOUS
 10
298.688751
 20
56.768829
 11
338.688751
 21
56.768829
  0
CIRCLE
  8
0
  6
CONTINUOUS
 10
318.688751
 20
130.768829
 40
33.500000
  0
ARC
  8
0
  6
CONTINUOUS
 10
318.688751
 20
130.768829
 40
38.000000
 50
9.470961
 51
170.529099
  0
ARC
  8
0
  6
CONTINUOUS
 10
318.688751
 20
130.768829
 40
38.000000
 50
9.470963
 51
170.529007
  0
ARC
  8
0
  6
CONTINUOUS
 10
318.688751
 20
130.768829
 40
35.500000
 50
-189.470795
 51
9.471022
  0
LINE
  8
0
  6
CONTINUOUS
 10
275.015961
 20
84.717926
 11
283.672546
 21
136.610168
  0
LINE
  8
0
  6
CONTINUOUS
 10
353.704742
 20
136.610291
 11
362.361542
 21
84.718140
  0
LINE
  8
0
  6
CENTER
 10
152.164688
 20
94.768829
 11
279.938751
 21
94.768829
  0
LINE
  8
0
  6
CONTINUOUS
 10
236.188751
 20
94.768829
 11
236.188751
 21
30.768730
  0
LINE
  8
0
  6
CONTINUOUS
 10
236.188751
 20
94.768829
 11
236.188751
 21
158.768936
  0
LINE
  8
0
  6
CONTINUOUS
 10
258.353760
 20
160.259048
 11
293.408356
 21
184.387451
  0
ARC
  8
0
  6
CONTINUOUS
 10
296.243164
 20
180.268784
 40
5.000000
 50
90.000000
 51
124.540298
  0
ARC
  8
0
  6
CONTINUOUS
 10
261.188751
 20
156.140427
 40
5.000000
 50
124.540398
 51
180.000000
  0
ARC
  8
0
  6
CONTINUOUS
 10
259.188751
 20
22.768848
 40
3.000000
 50
90.000000
 51
180.000000
  0
ARC
  8
0
  6
CONTINUOUS
 10
378.188751
 20
22.768827
 40
3.000000
 50
0.000000
 51
90.000000
  0
LINE
  8
0
  6
CONTINUOUS
 10
308.392365
 20
66.768829
 11
304.231964
 21
66.768829
  0
LINE
  8
0
  6
CONTINUOUS
 10
310.688751
 20
73.737572
 11
310.688751
 21
66.768829
  0
LINE
  8
0
  6
CONTINUOUS
 10
314.688751
 20
76.268829
 11
314.688751
 21
78.768829
  0
LINE
  8
0
  6
CONTINUOUS
 10
322.688751
 20
76.268829
 11
322.688751
 21
78.768829
  0
LINE
  8
0
  6
CONTINUOUS
 10
317.907562
 20
77.300079
 11
317.907562
 21
68.081329
  0
LINE
  8
0
  6
CONTINUOUS
 10
319.407562
 20
77.300079
 11
319.407562
 21
68.081329
  0
LINE
  8
0
  6
CONTINUOUS
 10
327.282562
 20
77.300079
 11
327.282562
 21
68.018829
  0
LINE
  8
0
  6
CONTINUOUS
 10
328.657562
 20
72.378204
 11
328.657562
 21
68.018829
  0
LINE
  8
0
  6
CONTINUOUS
 10
308.790741
 20
77.175079
 11
304.935760
 21
77.175079
  0
LINE
  8
0
  6
CONTINUOUS
 10
304.935760
 20
77.175079
 11
304.032562
 21
76.055077
  0
LINE
  8
0
  6
CONTINUOUS
 10
304.141144
 20
78.768829
 11
302.688751
 21
76.909065
  0
LINE
  8
0
  6
CONTINUOUS
 10
304.032562
 20
69.141747
 11
304.950165
 21
68.175072
  0
LINE
  8
0
  6
CONTINUOUS
 10
302.688751
 20
68.325989
 11
304.231964
 21
66.768829
  0
LINE
  8
0
  6
CONTINUOUS
 10
302.688751
 20
76.909065
 11
302.688751
 21
68.325989
  0
LINE
  8
0
  6
CONTINUOUS
 10
304.032562
 20
76.055077
 11
304.032562
 21
69.141747
  0
LINE
  8
0
  6
CONTINUOUS
 10
309.532562
 20
76.457970
 11
308.775543
 21
77.175079
  0
LINE
  8
0
  6
CONTINUOUS
 10
309.520538
 20
78.768829
 11
310.688751
 21
77.472336
  0
LINE
  8
0
  6
CONTINUOUS
 10
309.532562
 20
76.268829
 11
310.688751
 21
76.268829
  0
LINE
  8
0
  6
CONTINUOUS
 10
304.141144
 20
78.768829
 11
309.520538
 21
78.768829
  0
LINE
  8
0
  6
CONTINUOUS
 10
307.438751
 20
73.737572
 11
310.688751
 21
73.737572
  0
LINE
  8
0
  6
CONTINUOUS
 10
309.532562
 20
72.425072
 11
307.438751
 21
72.425072
  0
LINE
  8
0
  6
CONTINUOUS
 10
307.032562
 20
68.175072
 11
304.950165
 21
68.175072
  0
LINE
  8
0
  6
CONTINUOUS
 10
309.532562
 20
71.175072
 11
309.532562
 21
72.175072
  0
ARC
  8
0
  6
CONTINUOUS
 10
307.032562
 20
70.675072
 40
2.500000
 50
-89.999786
 51
0.000109
  0
LINE
  8
0
  6
CONTINUOUS
 10
309.532562
 20
67.725388
 11
309.532562
 21
66.768829
  0
LINE
  8
0
  6
CONTINUOUS
 10
310.688751
 20
77.472336
 11
310.688751
 21
76.268829
  0
LINE
  8
0
  6
CONTINUOUS
 10
309.532562
 20
72.425072
 11
309.532562
 21
70.675072
  0
LINE
  8
0
  6
CONTINUOUS
 10
307.438751
 20
73.737572
 11
307.438751
 21
72.425072
  0
LINE
  8
0
  6
CONTINUOUS
 10
309.532562
 20
66.768829
 11
310.688751
 21
66.768829
  0
LINE
  8
0
  6
CONTINUOUS
 10
309.532562
 20
67.725388
 11
308.392365
 21
66.768829
  0
LINE
  8
0
  6
CONTINUOUS
 10
319.407562
 20
68.081329
 11
319.907562
 21
68.081329
  0
LINE
  8
0
  6
CONTINUOUS
 10
317.313751
 20
68.081329
 11
317.313751
 21
66.768829
  0
LINE
  8
0
  6
CONTINUOUS
 10
319.907562
 20
68.081329
 11
319.907562
 21
66.768829
  0
LINE
  8
0
  6
CONTINUOUS
 10
321.854340
 20
76.268829
 11
322.688751
 21
76.268829
  0
LINE
  8
0
  6
CONTINUOUS
 10
314.688751
 20
76.268829
 11
315.576752
 21
76.268829
  0
LINE
  8
0
  6
CONTINUOUS
 10
314.688751
 20
78.768829
 11
322.688751
 21
78.768829
  0
LINE
  8
0
  6
CONTINUOUS
 10
317.313751
 20
66.768829
 11
319.907562
 21
66.768829
  0
LINE
  8
0
  6
CONTINUOUS
 10
317.313751
 20
68.081329
 11
317.907562
 21
68.081329
  0
ARC
  8
0
  6
CONTINUOUS
 10
331.485565
 20
75.565704
 40
3.203126
 50
-73.981873
 51
90.003510
  0
ARC
  8
0
  6
CONTINUOUS
 10
331.485565
 20
75.565704
 40
1.954124
 50
-82.585274
 51
62.411850
  0
LINE
  8
0
  6
CONTINUOUS
 10
326.688751
 20
78.768829
 11
331.485565
 21
78.768829
  0
LINE
  8
0
  6
CONTINUOUS
 10
331.737762
 20
73.627907
 11
328.657562
 21
73.627907
  0
LINE
  8
0
  6
CONTINUOUS
 10
326.688751
 20
78.768829
 11
326.688751
 21
77.300079
  0
LINE
  8
0
  6
CONTINUOUS
 10
328.657562
 20
77.300079
 11
328.657562
 21
73.627907
  0
LINE
  8
0
  6
CONTINUOUS
 10
332.369537
 20
72.486946
 11
334.351959
 21
68.018829
  0
LINE
  8
0
  6
CONTINUOUS
 10
331.217957
 20
72.378204
 11
333.094147
 21
68.018829
  0
LINE
  8
0
  6
CONTINUOUS
 10
326.688751
 20
68.018829
 11
327.282562
 21
68.018829
  0
LINE
  8
0
  6
CONTINUOUS
 10
328.657562
 20
68.018829
 11
329.204346
 21
68.018829
  0
LINE
  8
0
  6
CONTINUOUS
 10
329.204346
 20
66.768829
 11
326.688751
 21
66.768829
  0
LINE
  8
0
  6
CONTINUOUS
 10
332.844940
 20
68.018829
 11
333.094147
 21
68.018829
  0
LINE
  8
0
  6
CONTINUOUS
 10
334.351959
 20
68.018829
 11
334.688751
 21
68.018829
  0
LINE
  8
0
  6
CONTINUOUS
 10
332.844940
 20
66.768829
 11
334.688751
 21
66.768829
  0
LINE
  8
0
  6
CONTINUOUS
 10
334.688751
 20
68.018829
 11
334.688751
 21
66.768829
  0
LINE
  8
0
  6
CONTINUOUS
 10
332.844940
 20
68.018829
 11
332.844940
 21
66.768829
  0
LINE
  8
0
  6
CONTINUOUS
 10
329.204346
 20
68.018829
 11
329.204346
 21
66.768829
  0
LINE
  8
0
  6
CONTINUOUS
 10
326.688751
 20
68.018829
 11
326.688751
 21
66.768829
  0
LINE
  8
0
  6
CONTINUOUS
 10
316.006561
 20
77.300079
 11
315.576752
 21
76.268829
  0
LINE
  8
0
  6
CONTINUOUS
 10
321.491943
 20
77.300079
 11
321.854340
 21
76.268829
  0
LINE
  8
0
  6
CONTINUOUS
 10
319.407562
 20
77.300079
 11
321.491943
 21
77.300079
  0
LINE
  8
0
  6
CONTINUOUS
 10
317.907562
 20
77.300079
 11
316.006561
 21
77.300079
  0
LINE
  8
0
  6
CONTINUOUS
 10
328.657562
 20
72.378204
 11
331.217957
 21
72.378204
  0
LINE
  8
0
  6
CONTINUOUS
 10
326.688751
 20
77.300079
 11
327.282562
 21
77.300079
  0
LINE
  8
0
  6
CONTINUOUS
 10
328.657562
 20
77.300079
 11
332.390564
 21
77.297646
  0
LINE
  8
0
  6
CONTINUOUS
 10
309.532562
 20
76.457970
 11
309.532562
 21
76.268829
  0
LINE
  8
0
  6
CONTINUOUS
 10
614.505981
 20
41.768829
 11
614.505981
 21
45.747547
  0
LINE
  8
0
  6
CONTINUOUS
 10
524.505981
 20
41.768829
 11
524.505981
 21
45.747486
  0
LINE
  8
0
  6
CONTINUOUS
 10
529.505981
 20
36.768829
 11
532.505981
 21
36.768829
  0
LINE
  8
0
  6
CONTINUOUS
 10
609.505981
 20
36.768829
 11
606.505981
 21
36.768829
  0
ARC
  8
0
  6
CONTINUOUS
 10
529.505981
 20
41.768829
 40
5.000000
 50
180.000000
 51
270.000000
  0
ARC
  8
0
  6
CONTINUOUS
 10
609.505981
 20
41.768829
 40
5.000000
 50
-90.000000
 51
0.000000
  0
ARC
  8
0
  6
CONTINUOUS
 10
610.518372
 20
53.756866
 40
8.000000
 50
306.780975
 51
358.958740
  0
ARC
  8
0
  6
CONTINUOUS
 10
528.493774
 20
53.756607
 40
8.000000
 50
181.041107
 51
233.216995
  0
ARC
  8
0
  6
CONTINUOUS
 10
616.505981
 20
45.747566
 40
2.000000
 50
126.781197
 51
180.000000
  0
ARC
  8
0
  6
CONTINUOUS
 10
522.505981
 20
45.747486
 40
2.000000
 50
0.000000
 51
53.217121
  0
LINE
  8
0
  6
CENTER
 10
569.505981
 20
-6.560012
 11
569.505981
 21
206.688141
  0
LINE
  8
0
  6
CENTER
 10
452.234985
 20
130.768829
 11
636.747253
 21
130.768829
  0
LINE
  8
0
  6
CONTINUOUS
 10
506.506012
 20
10.768828
 11
542.005981
 21
10.768828
  0
LINE
  8
0
  6
CONTINUOUS
 10
510.506012
 20
25.768827
 11
528.505981
 21
25.768827
  0
LINE
  8
0
  6
CONTINUOUS
 10
628.505981
 20
25.768827
 11
610.505981
 21
25.768827
  0
LINE
  8
0
  6
CONTINUOUS
 10
534.005981
 20
158.768829
 11
604.755981
 21
158.768829
  0
LINE
  8
0
  6
CONTINUOUS
 10
603.558411
 20
184.674713
 11
569.505981
 21
185.268829
  0
LINE
  8
0
  6
CONTINUOUS
 10
535.453613
 20
184.674301
 11
569.505981
 21
185.268829
  0
LINE
  8
0
  6
CONTINUOUS
 10
606.505981
 20
181.675171
 11
606.505981
 21
10.768808
  0
LINE
  8
0
  6
CONTINUOUS
 10
532.505981
 20
181.674774
 11
532.505981
 21
10.768828
  0
LINE
  8
0
  6
CONTINUOUS
 10
516.505981
 20
101.056564
 11
516.505981
 21
160.481064
  0
LINE
  8
0
  6
CONTINUOUS
 10
622.505981
 20
160.481094
 11
622.505981
 21
101.056564
  0
LINE
  8
0
  6
CONTINUOUS
 10
523.505981
 20
60.569248
 11
523.505981
 21
133.268829
  0
LINE
  8
0
  6
CONTINUOUS
 10
615.505981
 20
60.569248
 11
615.505981
 21
133.268829
  0
LINE
  8
0
  6
CONTINUOUS
 10
632.505981
 20
22.464766
 11
632.505981
 21
10.768828
  0
LINE
  8
0
  6
CONTINUOUS
 10
506.506012
 20
22.464766
 11
506.506012
 21
10.768828
  0
LINE
  8
0
  6
CENTER
 10
519.505981
 20
33.768829
 11
519.505981
 21
-0.584572
  0
LINE
  8
0
  6
CENTER
 10
619.505981
 20
34.268829
 11
619.505981
 21
-0.584572
  0
LINE
  8
0
  6
DASHED
 10
514.005981
 20
25.768827
 11
514.005981
 21
10.768828
  0
LINE
  8
0
  6
DASHED
 10
525.005981
 20
25.768827
 11
525.005981
 21
10.768828
  0
LINE
  8
0
  6
DASHED
 10
614.005981
 20
25.768827
 11
614.005981
 21
10.768828
  0
LINE
  8
0
  6
DASHED
 10
625.005981
 20
25.768827
 11
625.005981
 21
10.768828
  0
ARC
  8
0
  6
CONTINUOUS
 10
535.505981
 20
181.674789
 40
3.000000
 50
91.000526
 51
180.000000
  0
ARC
  8
0
  6
CONTINUOUS
 10
603.505981
 20
181.675140
 40
3.000000
 50
0.000000
 51
89.000580
  0
LINE
  8
0
  6
CONTINUOUS
 10
597.005981
 20
10.768828
 11
632.505981
 21
10.768828
  0
LINE
  8
0
  6
CONTINUOUS
 10
543.005981
 20
11.768828
 11
596.005981
 21
11.768828
  0
LINE
  8
0
  6
CONTINUOUS
 10
520.152222
 20
165.294342
 11
528.859619
 21
167.743301
  0
LINE
  8
0
  6
CONTINUOUS
 10
520.152222
 20
96.243309
 11
521.318176
 21
95.915375
  0
LINE
  8
0
  6
CONTINUOUS
 10
527.167786
 20
55.751667
 11
528.844177
 21
55.285988
  0
LINE
  8
0
  6
CONTINUOUS
 10
611.844177
 20
55.751667
 11
610.167786
 21
55.285988
  0
LINE
  8
0
  6
CONTINUOUS
 10
618.859619
 20
96.243309
 11
617.693787
 21
95.915382
  0
LINE
  8
0
  6
CONTINUOUS
 10
618.859619
 20
165.294342
 11
610.152405
 21
167.743301
  0
ARC
  8
0
  6
CONTINUOUS
 10
521.505981
 20
160.481110
 40
5.000000
 50
105.709000
 51
180.000000
  0
ARC
  8
0
  6
CONTINUOUS
 10
521.505981
 20
101.056602
 40
5.000000
 50
180.000000
 51
254.291702
  0
ARC
  8
0
  6
CONTINUOUS
 10
528.505981
 20
60.569286
 40
5.000000
 50
180.000000
 51
254.476196
  0
ARC
  8
0
  6
CONTINUOUS
 10
610.505981
 20
60.569248
 40
5.000000
 50
-74.475708
 51
0.000000
  0
ARC
  8
0
  6
CONTINUOUS
 10
617.505981
 20
101.056557
 40
5.000000
 50
-74.291199
 51
0.000000
  0
ARC
  8
0
  6
CONTINUOUS
 10
617.505981
 20
160.481064
 40
5.000000
 50
0.000000
 51
74.291527
  0
ARC
  8
0
  6
CONTINUOUS
 10
618.505981
 20
93.027451
 40
3.000000
 50
105.709000
 51
180.000000
  0
ARC
  8
0
  6
CONTINUOUS
 10
520.505981
 20
93.027412
 40
3.000000
 50
0.000000
 51
74.291397
  0
ARC
  8
0
  6
CONTINUOUS
 10
527.505981
 20
172.556564
 40
5.000000
 50
-74.291199
 51
0.000000
  0
ARC
  8
0
  6
CONTINUOUS
 10
611.505981
 20
172.556595
 40
5.000000
 50
180.000000
 51
254.291702
  0
ARC
  8
0
  6
CONTINUOUS
 10
611.505981
 20
50.468430
 40
5.000000
 50
105.524399
 51
180.000000
  0
ARC
  8
0
  6
CONTINUOUS
 10
527.505981
 20
50.468388
 40
5.000000
 50
0.000000
 51
74.475952
  0
LINE
  8
0
  6
CONTINUOUS
 10
597.005981
 20
10.768828
 11
596.005981
 21
11.768828
  0
LINE
  8
0
  6
CONTINUOUS
 10
542.005981
 20
10.768828
 11
543.005981
 21
11.768828
  0
LINE
  8
0
  6
CENTER
 10
492.607239
 20
94.768822
 11
649.027222
 21
94.768822
  0
LINE
  8
0
  6
CONTINUOUS
 10
328.688751
 20
126.768867
 11
328.688751
 21
134.768875
  0
LINE
  8
0
  6
CONTINUOUS
 10
335.688751
 20
126.768890
 11
335.688751
 21
134.768890
  0
LINE
  8
0
  6
CONTINUOUS
 10
335.688751
 20
126.768890
 11
328.688751
 21
126.768867
  0
LINE
  8
0
  6
CONTINUOUS
 10
335.688751
 20
134.768890
 11
328.688751
 21
134.768875
  0
ARC
  8
0
  6
CONTINUOUS
 10
318.688751
 20
130.768829
 40
14.000000
 50
16.601500
 51
343.398499
  0
LINE
  8
0
  6
CONTINUOUS
 10
469.506012
 20
116.768829
 11
469.506012
 21
144.768829
  0
LINE
  8
0
  6
CONTINUOUS
 10
514.505981
 20
144.768829
 11
469.506012
 21
144.768829
  0
LINE
  8
0
  6
CONTINUOUS
 10
514.505981
 20
116.768829
 11
469.506012
 21
116.768829
  0
LINE
  8
0
  6
CONTINUOUS
 10
514.505981
 20
145.768829
 11
514.505981
 21
115.768829
  0
LINE
  8
0
  6
CONTINUOUS
 10
516.505981
 20
115.768829
 11
514.505981
 21
115.768829
  0
ARC
  8
0
  6
CONTINUOUS
 10
505.506012
 20
130.768829
 40
4.000000
 50
-90.000000
 51
90.000000
  0
LINE
  8
0
  6
CONTINUOUS
 10
505.506012
 20
134.768829
 11
469.506012
 21
134.768829
  0
LINE
  8
0
  6
CONTINUOUS
 10
505.506012
 20
126.768829
 11
469.506012
 21
126.768829
  0
LINE
  8
0
  6
CONTINUOUS
 10
516.505981
 20
145.768829
 11
514.505981
 21
145.768829
  0
LINE
  8
0
  6
CONTINUOUS
 10
229.688751
 20
158.768936
 11
236.188751
 21
158.768936
  0
LINE
  8
0
  6
CONTINUOUS
 10
229.688751
 20
30.768730
 11
236.188751
 21
30.768730
  0
LINE
  8
0
  6
CONTINUOUS
 10
181.688751
 20
126.768829
 11
227.688751
 21
128.375183
  0
LINE
  8
0
  6
CONTINUOUS
 10
236.188751
 20
34.865646
 11
181.688751
 21
36.768829
  0
ARC
  8
0
  6
CONTINUOUS
 10
229.688766
 20
156.768951
 40
2.000000
 50
90.000000
 51
180.000000
  0
ARC
  8
0
  6
CONTINUOUS
 10
229.688751
 20
32.768730
 40
2.000000
 50
180.260773
 51
270.000000
  0
LINE
  8
0
  6
CENTER
 10
-6.645000
 20
81.768829
 11
279.938751
 21
81.768829
  0
LINE
  8
0
  6
CONTINUOUS
 10
181.688751
 20
126.768829
 11
181.688751
 21
36.768829
  0
LINE
  8
0
  6
CONTINUOUS
 10
226.956512
 20
134.536591
 11
221.242004
 21
128.822083
  0
LINE
  8
0
  6
CONTINUOUS
 10
258.452118
 20
413.493805
 11
377.594818
 21
413.493805
  0
ARC
  8
0
  6
CONTINUOUS
 10
377.594818
 20
410.493805
 40
3.000000
 50
1.000000
 51
90.000000
  0
LINE
  8
0
  6
CONTINUOUS
 10
363.683014
 20
418.847534
 11
364.573456
 21
415.681549
  0
ARC
  8
0
  6
CONTINUOUS
 10
367.461395
 20
416.493805
 40
3.000000
 50
195.708649
 51
270.000000
  0
ARC
  8
0
  6
CONTINUOUS
 10
250.266357
 20
430.720367
 40
3.000000
 50
1.500200
 51
77.801201
  0
LINE
  8
0
  6
CONTINUOUS
 10
253.265350
 20
430.798920
 11
253.621353
 21
417.204132
  0
ARC
  8
0
  6
CONTINUOUS
 10
251.534149
 20
436.584900
 40
3.000000
 50
-164.999893
 51
-102.198799
  0
LINE
  8
0
  6
CENTER
 10
-8.550000
 20
376.493805
 11
396.592621
 21
376.493805
  0
LINE
  8
0
  6
CONTINUOUS
 10
269.703613
 20
313.493805
 11
304.688751
 21
313.493805
  0
LINE
  8
0
  6
CONTINUOUS
 10
381.188751
 20
376.493805
 11
380.542908
 21
413.493805
  0
LINE
  8
0
  6
CONTINUOUS
 10
372.378662
 20
436.186462
 11
380.542908
 21
413.493805
  0
ARC
  8
0
  6
CONTINUOUS
 10
367.673889
 20
434.493805
 40
5.000000
 50
19.787489
 51
90.000000
  0
LINE
  8
0
  6
CONTINUOUS
 10
381.188751
 20
376.493805
 11
380.542908
 21
339.493805
  0
LINE
  8
0
  6
CONTINUOUS
 10
372.378662
 20
316.801147
 11
380.542908
 21
339.493805
  0
ARC
  8
0
  6
CONTINUOUS
 10
367.673889
 20
318.493805
 40
5.000000
 50
-90.000000
 51
-19.787489
  0
LINE
  8
0
  6
CONTINUOUS
 10
258.452118
 20
413.493805
 11
377.594818
 21
413.493805
  0
LINE
  8
0
  6
CENTER
 10
318.688751
 20
257.256256
 11
318.688751
 21
452.567505
  0
ARC
  8
0
  6
CONTINUOUS
 10
377.594818
 20
410.493805
 40
3.000000
 50
1.000000
 51
90.000000
  0
ARC
  8
0
  6
CONTINUOUS
 10
377.594818
 20
342.493805
 40
3.000000
 50
-90.000000
 51
-1.000000
  0
LINE
  8
0
  6
CONTINUOUS
 10
258.525360
 20
339.493805
 11
377.594818
 21
339.493805
  0
LINE
  8
0
  6
CONTINUOUS
 10
348.401001
 20
429.493805
 11
288.976501
 21
429.493805
  0
LINE
  8
0
  6
CONTINUOUS
 10
353.214264
 20
425.847534
 11
354.157501
 21
422.493805
  0
ARC
  8
0
  6
CONTINUOUS
 10
348.401001
 20
424.493805
 40
5.000000
 50
15.708638
 51
90.000000
  0
LINE
  8
0
  6
CONTINUOUS
 10
354.157501
 20
422.493805
 11
358.869751
 21
422.493805
  0
ARC
  8
0
  6
CONTINUOUS
 10
358.869751
 20
417.493805
 40
5.000000
 50
15.708638
 51
90.000000
  0
LINE
  8
0
  6
CONTINUOUS
 10
284.163239
 20
425.847534
 11
283.220001
 21
422.493805
  0
ARC
  8
0
  6
CONTINUOUS
 10
288.976501
 20
424.493805
 40
5.000000
 50
90.000000
 51
164.291367
  0
LINE
  8
0
  6
CONTINUOUS
 10
283.220001
 20
422.493805
 11
278.507751
 21
422.493805
  0
LINE
  8
0
  6
CONTINUOUS
 10
273.694489
 20
418.847534
 11
272.804047
 21
415.681549
  0
ARC
  8
0
  6
CONTINUOUS
 10
278.507751
 20
417.493805
 40
5.000000
 50
90.000000
 51
164.291367
  0
ARC
  8
0
  6
CONTINUOUS
 10
269.916107
 20
416.493805
 40
3.000000
 50
-90.000000
 51
-15.708638
  0
LINE
  8
0
  6
CONTINUOUS
 10
348.401001
 20
323.493805
 11
288.976501
 21
323.493805
  0
LINE
  8
0
  6
CONTINUOUS
 10
353.214264
 20
327.140076
 11
354.157501
 21
330.493805
  0
ARC
  8
0
  6
CONTINUOUS
 10
348.401001
 20
328.493805
 40
5.000000
 50
-90.000000
 51
-15.708638
  0
LINE
  8
0
  6
CONTINUOUS
 10
354.157501
 20
330.493805
 11
358.869751
 21
330.493805
  0
LINE
  8
0
  6
CONTINUOUS
 10
363.683014
 20
334.140076
 11
364.573456
 21
337.306030
  0
ARC
  8
0
  6
CONTINUOUS
 10
358.869751
 20
335.493805
 40
5.000000
 50
-90.000000
 51
-15.708638
  0
ARC
  8
0
  6
CONTINUOUS
 10
367.461395
 20
336.493805
 40
3.000000
 50
-270.000000
 51
-195.708633
  0
LINE
  8
0
  6
CONTINUOUS
 10
284.163239
 20
327.140076
 11
283.220001
 21
330.493805
  0
ARC
  8
0
  6
CONTINUOUS
 10
288.976501
 20
328.493805
 40
5.000000
 50
-164.291367
 51
-90.000000
  0
LINE
  8
0
  6
CONTINUOUS
 10
283.220001
 20
330.493805
 11
278.507751
 21
330.493805
  0
LINE
  8
0
  6
CONTINUOUS
 10
273.694489
 20
334.140076
 11
272.804047
 21
337.306030
  0
ARC
  8
0
  6
CONTINUOUS
 10
278.507751
 20
335.493805
 40
5.000000
 50
-164.291367
 51
-90.000000
  0
ARC
  8
0
  6
CONTINUOUS
 10
269.916107
 20
336.493805
 40
3.000000
 50
15.708638
 51
90.000000
  0
LINE
  8
0
  6
CONTINUOUS
 10
264.998840
 20
436.186462
 11
256.921021
 21
413.734009
  0
ARC
  8
0
  6
CONTINUOUS
 10
269.703613
 20
434.493805
 40
5.000000
 50
90.000000
 51
160.212509
  0
LINE
  8
0
  6
CONTINUOUS
 10
264.998840
 20
316.801147
 11
256.936859
 21
339.209564
  0
ARC
  8
0
  6
CONTINUOUS
 10
269.703613
 20
318.493805
 40
5.000000
 50
199.787491
 51
270.000000
  0
LINE
  8
0
  6
CONTINUOUS
 10
269.703613
 20
439.493805
 11
318.688751
 21
439.493805
  0
LINE
  8
0
  6
CENTER
 10
358.688751
 20
437.607086
 11
358.688751
 21
418.165680
  0
LINE
  8
0
  6
CENTER
 10
348.777863
 20
426.493805
 11
367.296417
 21
426.493805
  0
ARC
  8
0
  6
CONTINUOUS
 10
358.688751
 20
426.493805
 40
5.500000
 50
-59.465683
 51
187.598495
  0
ARC
  8
0
  6
CONTINUOUS
 10
278.688751
 20
426.493805
 40
5.500000
 50
-7.598608
 51
239.465683
  0
LINE
  8
0
  6
CENTER
 10
278.688751
 20
437.607086
 11
278.688751
 21
418.165680
  0
LINE
  8
0
  6
CENTER
 10
288.599640
 20
426.493805
 11
270.081085
 21
426.493805
  0
ARC
  8
0
  6
CONTINUOUS
 10
278.688751
 20
326.493805
 40
5.500000
 50
-239.465683
 51
7.598608
  0
LINE
  8
0
  6
CENTER
 10
288.599640
 20
326.493805
 11
270.081085
 21
326.493805
  0
LINE
  8
0
  6
CENTER
 10
278.688751
 20
315.380524
 11
278.688751
 21
334.821930
  0
LINE
  8
0
  6
CENTER
 10
358.688751
 20
315.380524
 11
358.688751
 21
334.821930
  0
LINE
  8
0
  6
CENTER
 10
348.777863
 20
326.493805
 11
367.296417
 21
326.493805
  0
ARC
  8
0
  6
CONTINUOUS
 10
358.688751
 20
326.493805
 40
5.500000
 50
-187.598602
 51
59.465683
  0
LINE
  8
0
  6
CONTINUOUS
 10
342.688751
 20
342.493805
 11
342.688751
 21
410.493805
  0
LINE
  8
0
  6
CONTINUOUS
 10
294.688751
 20
342.493805
 11
294.688751
 21
410.493805
  0
LINE
  8
0
  6
CONTINUOUS
 10
253.769043
 20
335.787903
 11
248.520416
 21
316.199707
  0
LINE
  8
0
  6
CONTINUOUS
 10
253.265350
 20
321.641754
 11
253.621353
 21
335.236572
  0
ARC
  8
0
  6
CONTINUOUS
 10
250.266357
 20
321.720367
 40
3.000000
 50
282.198792
 51
358.499786
  0
ARC
  8
0
  6
CONTINUOUS
 10
251.534149
 20
315.855774
 40
3.000000
 50
102.198799
 51
165.000031
  0
ARC
  8
0
  6
CONTINUOUS
 10
250.266357
 20
430.720367
 40
3.000000
 50
1.500200
 51
77.801201
  0
LINE
  8
0
  6
CONTINUOUS
 10
253.265350
 20
430.798920
 11
253.621353
 21
417.204132
  0
ARC
  8
0
  6
CONTINUOUS
 10
251.534149
 20
436.584900
 40
3.000000
 50
-164.999893
 51
-102.198799
  0
LINE
  8
0
  6
CONTINUOUS
 10
243.617554
 20
440.493805
 11
236.188751
 21
440.493805
  0
LINE
  8
0
  6
CONTINUOUS
 10
248.373917
 20
436.787872
 11
253.695755
 21
416.926300
  0
ARC
  8
0
  6
CONTINUOUS
 10
258.598663
 20
334.493805
 40
5.000000
 50
90.000000
 51
165.000031
  0
ARC
  8
0
  6
CONTINUOUS
 10
258.452118
 20
418.493805
 40
5.000000
 50
194.999847
 51
270.000000
  0
LINE
  8
0
  6
CONTINUOUS
 10
318.688751
 20
439.493805
 11
367.673889
 21
439.493805
  0
LINE
  8
0
  6
CONTINUOUS
 10
335.688751
 20
276.493805
 11
304.688751
 21
276.493805
  0
LINE
  8
0
  6
CONTINUOUS
 10
304.688751
 20
321.493805
 11
304.688751
 21
276.493805
  0
LINE
  8
0
  6
CONTINUOUS
 10
332.688751
 20
321.493805
 11
332.688751
 21
316.493805
  0
LINE
  8
0
  6
CONTINUOUS
 10
303.688751
 20
321.493805
 11
333.688751
 21
321.493805
  0
LINE
  8
0
  6
CONTINUOUS
 10
333.688751
 20
323.493805
 11
333.688751
 21
321.493805
  0
LINE
  8
0
  6
CONTINUOUS
 10
303.688751
 20
323.493805
 11
303.688751
 21
321.493805
  0
LINE
  8
0
  6
CONTINUOUS
 10
332.105164
 20
316.493805
 11
335.688751
 21
316.493805
  0
LINE
  8
0
  6
CONTINUOUS
 10
332.105164
 20
316.493805
 11
332.105164
 21
276.493805
  0
LINE
  8
0
  6
CONTINUOUS
 10
335.688751
 20
276.493805
 11
335.688751
 21
316.493805
  0
LINE
  8
0
  6
CONTINUOUS
 10
335.688751
 20
313.493805
 11
367.673889
 21
313.493805
  0
LINE
  8
0
  6
CONTINUOUS
 10
236.188751
 20
312.493805
 11
243.690781
 21
312.493805
  0
ARC
  8
0
  6
CONTINUOUS
 10
243.690781
 20
317.493805
 40
5.000000
 50
270.000000
 51
345.000031
  0
ARC
  8
0
  6
CONTINUOUS
 10
243.544281
 20
435.493805
 40
5.000000
 50
14.999846
 51
90.000000
  0
LINE
  8
0
  6
CONTINUOUS
 10
256.188751
 20
376.493805
 11
256.783142
 21
410.546143
  0
LINE
  8
0
  6
CONTINUOUS
 10
256.188751
 20
376.493805
 11
256.783142
 21
342.441437
  0
ARC
  8
0
  6
CONTINUOUS
 10
259.782684
 20
410.493805
 40
3.000000
 50
90.000000
 51
179.000000
  0
ARC
  8
0
  6
CONTINUOUS
 10
259.782684
 20
342.493805
 40
3.000000
 50
181.000000
 51
270.000000
  0
LINE
  8
0
  6
CONTINUOUS
 10
254.634399
 20
158.768936
 11
236.188751
 21
158.768936
  0
LINE
  8
0
  6
CONTINUOUS
 10
236.188751
 20
30.768730
 11
251.188751
 21
30.768730
  0
ARC
  8
0
  6
CONTINUOUS
 10
251.188766
 20
25.768711
 40
5.000000
 50
0.000000
 51
90.000000
  0
LINE
  8
0
  6
CONTINUOUS
 10
509.750610
 20
26.392803
 11
529.261414
 21
30.144865
  0
ARC
  8
0
  6
CONTINUOUS
 10
569.505981
 20
94.768829
 40
64.000099
 50
-54.681290
 51
34.093521
  0
ARC
  8
0
  6
CONTINUOUS
 10
569.505981
 20
94.768829
 40
64.000099
 50
159.894516
 51
234.681290
  0
ARC
  8
0
  6
CONTINUOUS
 10
510.506012
 20
21.768827
 40
4.000000
 50
90.000000
 51
180.000000
  0
ARC
  8
0
  6
CONTINUOUS
 10
510.506012
 20
22.464766
 40
4.000000
 50
100.885529
 51
180.000000
  0
ARC
  8
0
  6
CONTINUOUS
 10
528.505981
 20
34.072891
 40
4.000000
 50
-79.114502
 51
0.000000
  0
ARC
  8
0
  6
CONTINUOUS
 10
528.505981
 20
29.768827
 40
4.000000
 50
-90.000000
 51
0.000000
  0
LINE
  8
0
  6
CONTINUOUS
 10
629.261414
 20
26.392803
 11
609.750610
 21
30.144865
  0
ARC
  8
0
  6
CONTINUOUS
 10
628.505981
 20
21.768827
 40
4.000000
 50
0.000000
 51
90.000000
  0
ARC
  8
0
  6
CONTINUOUS
 10
628.505981
 20
22.464766
 40
4.000000
 50
0.000000
 51
79.114471
  0
ARC
  8
0
  6
CONTINUOUS
 10
610.505981
 20
34.072891
 40
4.000000
 50
180.000000
 51
259.114502
  0
ARC
  8
0
  6
CONTINUOUS
 10
610.505981
 20
29.768827
 40
4.000000
 50
180.000000
 51
270.000000
  0
LINE
  8
0
  6
CONTINUOUS
 10
300.130646
 20
30.768827
 11
337.246857
 21
30.768827
  0
LINE
  8
0
  6
CONTINUOUS
 10
297.788025
 20
29.642902
 11
295.589508
 21
26.894754
  0
ARC
  8
0
  6
CONTINUOUS
 10
293.246918
 20
28.768827
 40
3.000000
 50
270.000000
 51
321.340454
  0
ARC
  8
0
  6
CONTINUOUS
 10
300.130646
 20
27.768827
 40
3.000000
 50
90.000000
 51
141.340454
  0
LINE
  8
0
  6
CONTINUOUS
 10
339.589478
 20
29.642902
 11
341.787994
 21
26.894754
  0
ARC
  8
0
  6
CONTINUOUS
 10
344.130585
 20
28.768827
 40
3.000000
 50
-141.340454
 51
-90.000000
  0
ARC
  8
0
  6
CONTINUOUS
 10
337.246857
 20
27.768827
 40
3.000000
 50
38.659546
 51
90.000000
  0
ARC
  8
0
  6
CONTINUOUS
 10
254.634399
 20
163.768936
 40
5.000000
 50
270.000000
 51
304.539978
  0
LINE
  8
0
  6
CONTINUOUS
 10
236.188751
 20
440.493805
 11
236.188751
 21
312.493805
  0
LINE
  8
0
  6
CONTINUOUS
 10
254.688751
 20
146.368835
 11
256.188751
 21
146.368835
  0
LINE
  8
0
  6
CONTINUOUS
 10
254.688751
 20
43.168846
 11
256.188751
 21
43.168846
  0
ARC
  8
0
  6
CONTINUOUS
 10
438.641937
 20
94.768829
 40
191.053177
 50
164.330902
 51
195.669098
  0
ARC
  8
0
  6
CONTINUOUS
 10
438.641937
 20
94.768829
 40
190.053177
 50
178.548599
 51
181.478500
  0
LINE
  8
0
  6
CONTINUOUS
 10
250.688751
 20
99.768829
 11
249.683945
 21
99.768829
  0
LINE
  8
0
  6
CONTINUOUS
 10
253.188751
 20
97.268829
 11
253.188751
 21
92.268829
  0
ARC
  8
0
  6
CONTINUOUS
 10
249.683945
 20
100.767227
 40
1.000000
 50
178.182098
 51
270.000000
  0
ARC
  8
0
  6
CONTINUOUS
 10
250.688751
 20
97.268829
 40
2.500000
 50
0.000000
 51
90.000000
  0
LINE
  8
0
  6
CONTINUOUS
 10
250.688751
 20
89.768829
 11
249.683945
 21
89.768829
  0
ARC
  8
0
  6
CONTINUOUS
 10
249.683945
 20
88.770432
 40
1.000000
 50
-270.000000
 51
-178.182098
  0
ARC
  8
0
  6
CONTINUOUS
 10
250.688751
 20
92.268829
 40
2.500000
 50
-90.000000
 51
0.000000
  0
LINE
  8
0
  6
CONTINUOUS
 10
181.688751
 20
61.262829
 11
225.688751
 21
61.262829
  0
LINE
  8
0
  6
CONTINUOUS
 10
181.688751
 20
46.249828
 11
236.188751
 21
46.249828
  0
LINE
  8
0
  6
CONTINUOUS
 10
228.256714
 20
54.201828
 11
236.188751
 21
54.201828
  0
LINE
  8
0
  6
CONTINUOUS
 10
227.688751
 20
55.416561
 11
227.688751
 21
156.768951
  0
ARC
  8
0
  6
CONTINUOUS
 10
225.188797
 20
32.748249
 40
2.500000
 50
0.260773
 51
88.000000
  0
ARC
  8
0
  6
CONTINUOUS
 10
225.188751
 20
136.304367
 40
2.500000
 50
-45.000000
 51
0.000000
  0
ARC
  8
0
  6
CONTINUOUS
 10
219.474243
 20
130.589844
 40
2.500000
 50
272.000000
 51
315.000000
  0
LINE
  8
0
  6
CONTINUOUS
 10
227.688751
 20
314.493805
 11
227.688751
 21
438.493805
  0
LINE
  8
0
  6
CONTINUOUS
 10
181.688751
 20
421.493805
 11
225.252365
 21
423.015076
  0
LINE
  8
0
  6
CONTINUOUS
 10
181.688751
 20
331.493805
 11
225.252365
 21
329.972534
  0
LINE
  8
0
  6
CONTINUOUS
 10
181.688751
 20
425.505798
 11
181.688751
 21
327.481812
  0
LINE
  8
0
  6
CONTINUOUS
 10
229.688751
 20
440.493805
 11
236.188751
 21
440.493805
  0
LINE
  8
0
  6
CONTINUOUS
 10
229.688751
 20
312.493805
 11
236.188751
 21
312.493805
  0
LINE
  8
0
  6
CONTINUOUS
 10
220.545746
 20
400.493805
 11
227.660721
 21
400.493805
  0
LINE
  8
0
  6
CONTINUOUS
 10
221.150894
 20
352.493805
 11
227.660721
 21
352.493805
  0
LINE
  8
0
  6
CONTINUOUS
 10
220.545746
 20
398.289307
 11
220.545746
 21
354.576721
  0
LINE
  8
0
  6
CONTINUOUS
 10
172.688751
 20
419.493805
 11
172.688751
 21
405.493805
  0
LINE
  8
0
  6
CONTINUOUS
 10
62.688751
 20
421.493805
 11
181.688751
 21
421.493805
  0
LINE
  8
0
  6
CONTINUOUS
 10
62.688751
 20
331.493805
 11
181.688751
 21
331.493805
  0
LINE
  8
0
  6
CONTINUOUS
 10
62.688751
 20
405.493805
 11
172.688751
 21
405.493805
  0
LINE
  8
0
  6
CONTINUOUS
 10
62.688751
 20
347.493805
 11
172.688751
 21
347.493805
  0
ARC
  8
0
  6
CONTINUOUS
 10
174.688751
 20
419.493805
 40
2.000000
 50
90.000000
 51
180.000000
  0
ARC
  8
0
  6
CONTINUOUS
 10
174.688751
 20
333.493805
 40
2.000000
 50
180.000000
 51
270.000000
  0
LINE
  8
0
  6
CONTINUOUS
 10
181.688751
 20
421.493805
 11
181.688751
 21
331.493805
  0
ARC
  8
0
  6
CONTINUOUS
 10
229.688751
 20
438.493805
 40
2.000000
 50
90.000000
 51
180.000000
  0
ARC
  8
0
  6
CONTINUOUS
 10
229.688751
 20
314.493805
 40
2.000000
 50
180.000000
 51
270.000000
  0
ARC
  8
0
  6
CONTINUOUS
 10
225.165115
 20
425.513550
 40
2.500000
 50
272.000000
 51
359.895721
  0
ARC
  8
0
  6
CONTINUOUS
 10
225.165115
 20
327.474060
 40
2.500000
 50
0.104292
 51
88.000000
  0
LINE
  8
0
  6
CONTINUOUS
 10
227.688751
 20
423.100159
 11
227.660721
 21
423.099182
  0
LINE
  8
0
  6
CONTINUOUS
 10
182.188446
 20
426.023254
 11
227.688751
 21
427.612152
  0
LINE
  8
0
  6
CONTINUOUS
 10
181.688751
 20
425.505798
 11
182.188446
 21
426.023254
  0
LINE
  8
0
  6
CONTINUOUS
 10
182.188446
 20
326.964355
 11
227.688751
 21
325.375458
  0
LINE
  8
0
  6
CONTINUOUS
 10
181.688751
 20
327.481812
 11
182.188446
 21
326.964355
  0
LINE
  8
0
  6
CONTINUOUS
 10
53.188751
 20
421.493805
 11
62.688751
 21
421.493805
  0
LINE
  8
0
  6
CONTINUOUS
 10
62.688751
 20
405.493805
 11
53.188751
 21
405.493805
  0
LINE
  8
0
  6
CONTINUOUS
 10
53.188751
 20
331.493805
 11
62.688751
 21
331.493805
  0
LINE
  8
0
  6
CONTINUOUS
 10
62.688751
 20
331.493805
 11
62.688751
 21
351.493774
  0
LINE
  8
0
  6
CONTINUOUS
 10
62.688751
 20
347.493805
 11
53.188751
 21
347.493805
  0
LINE
  8
0
  6
CONTINUOUS
 10
62.688751
 20
401.493774
 11
62.688751
 21
421.493805
  0
LINE
  8
0
  6
CONTINUOUS
 10
53.188751
 20
423.493805
 11
53.188751
 21
376.493805
  0
LINE
  8
0
  6
CONTINUOUS
 10
53.188751
 20
405.493805
 11
9.213720
 21
405.493805
  0
LINE
  8
0
  6
CONTINUOUS
 10
53.188751
 20
347.493805
 11
9.213720
 21
347.493805
  0
LINE
  8
0
  6
CONTINUOUS
 10
10.688730
 20
423.493805
 11
53.188751
 21
423.493805
  0
LINE
  8
0
  6
CONTINUOUS
 10
10.688730
 20
329.493805
 11
53.188751
 21
329.493805
  0
ARC
  8
0
  6
CONTINUOUS
 10
10.688760
 20
418.493805
 40
5.000000
 50
90.000000
 51
180.000000
  0
ARC
  8
0
  6
CONTINUOUS
 10
10.688730
 20
334.493805
 40
5.000000
 50
180.000000
 51
270.000000
  0
LINE
  8
0
  6
CONTINUOUS
 10
5.688760
 20
418.493805
 11
5.688730
 21
334.493805
  0
LINE
  8
0
  6
CONTINUOUS
 10
53.188751
 20
126.768829
 11
62.688751
 21
126.768829
  0
LINE
  8
0
  6
CONTINUOUS
 10
62.688751
 20
116.178131
 11
53.188751
 21
116.178131
  0
LINE
  8
0
  6
CONTINUOUS
 10
53.188751
 20
36.768829
 11
62.688751
 21
36.768829
  0
LINE
  8
0
  6
CONTINUOUS
 10
62.688751
 20
47.359539
 11
53.188751
 21
47.359539
  0
LINE
  8
0
  6
CONTINUOUS
 10
53.188751
 20
128.768829
 11
53.188751
 21
34.768829
  0
LINE
  8
0
  6
CONTINUOUS
 10
53.188751
 20
110.768829
 11
9.213720
 21
110.768829
  0
LINE
  8
0
  6
CONTINUOUS
 10
53.188751
 20
52.768829
 11
9.213720
 21
52.768829
  0
LINE
  8
0
  6
CONTINUOUS
 10
10.688730
 20
128.768829
 11
53.188751
 21
128.768829
  0
LINE
  8
0
  6
CONTINUOUS
 10
10.688730
 20
34.768829
 11
53.188751
 21
34.768829
  0
ARC
  8
0
  6
CONTINUOUS
 10
10.688760
 20
123.768829
 40
5.000000
 50
90.000000
 51
180.000000
  0
ARC
  8
0
  6
CONTINUOUS
 10
10.688730
 20
39.768829
 40
5.000000
 50
180.000000
 51
270.000000
  0
LINE
  8
0
  6
CONTINUOUS
 10
5.688760
 20
123.768829
 11
5.688730
 21
39.768818
  0
LINE
  8
0
  6
CONTINUOUS
 10
62.688751
 20
36.768829
 11
62.688751
 21
126.768829
  0
LINE
  8
0
  6
CONTINUOUS
 10
53.188751
 20
376.493805
 11
53.188751
 21
329.493805
  0
LINE
  8
0
  6
CONTINUOUS
 10
53.688751
 20
353.493774
 11
53.688751
 21
399.493774
  0
LINE
  8
0
  6
CONTINUOUS
 10
55.688751
 20
401.493774
 11
53.688751
 21
399.493774
  0
LINE
  8
0
  6
CONTINUOUS
 10
55.688751
 20
401.493774
 11
101.688744
 21
401.493774
  0
LINE
  8
0
  6
CONTINUOUS
 10
96.188751
 20
396.993774
 11
96.188751
 21
401.493774
  0
ARC
  8
0
  6
CONTINUOUS
 10
99.188751
 20
396.993774
 40
3.000000
 50
180.000000
 51
270.000000
  0
LINE
  8
0
  6
CONTINUOUS
 10
99.188751
 20
393.993774
 11
103.688744
 21
393.993774
  0
CIRCLE
  8
0
  6
CONTINUOUS
 10
100.188751
 20
397.993774
 40
2.250000
  0
LINE
  8
0
  6
CONTINUOUS
 10
103.688744
 20
353.493774
 11
103.688744
 21
399.493774
  0
LINE
  8
0
  6
CONTINUOUS
 10
101.688744
 20
401.493774
 11
103.688744
 21
399.493774
  0
LINE
  8
0
  6
CONTINUOUS
 10
101.688744
 20
351.493774
 11
103.688744
 21
353.493774
  0
LINE
  8
0
  6
CONTINUOUS
 10
101.688744
 20
351.493774
 11
55.688751
 21
351.493774
  0
LINE
  8
0
  6
CONTINUOUS
 10
53.688751
 20
353.493774
 11
55.688751
 21
351.493774
  0
LINE
  8
0
  6
CONTINUOUS
 10
58.188751
 20
358.993774
 11
53.688759
 21
358.993774
  0
CIRCLE
  8
0
  6
CONTINUOUS
 10
57.188751
 20
354.993774
 40
2.250000
  0
ARC
  8
0
  6
CONTINUOUS
 10
58.188751
 20
355.993774
 40
3.000000
 50
0.000000
 51
90.000000
  0
LINE
  8
0
  6
CONTINUOUS
 10
61.188751
 20
355.993774
 11
61.188751
 21
351.493774
  0
LINE
  8
0
  6
CENTER
 10
78.688751
 20
344.027985
 11
78.688751
 21
408.160034
  0
LINE
  8
0
  6
CONTINUOUS
 10
54.688755
 20
358.993805
 11
54.688755
 21
393.993805
  0
LINE
  8
0
  6
CONTINUOUS
 10
96.188751
 20
400.493805
 11
61.188770
 21
400.493805
  0
LINE
  8
0
  6
CONTINUOUS
 10
102.688744
 20
393.993805
 11
102.688744
 21
358.993805
  0
LINE
  8
0
  6
CONTINUOUS
 10
61.188751
 20
352.493805
 11
96.188728
 21
352.493805
  0
LINE
  8
0
  6
CONTINUOUS
 10
58.188770
 20
393.993805
 11
53.688770
 21
393.993805
  0
ARC
  8
0
  6
CONTINUOUS
 10
58.188770
 20
396.993805
 40
3.000000
 50
-90.000000
 51
0.000000
  0
LINE
  8
0
  6
CONTINUOUS
 10
61.188770
 20
396.993805
 11
61.188770
 21
401.493805
  0
CIRCLE
  8
0
  6
CONTINUOUS
 10
57.188770
 20
397.993805
 40
2.250000
  0
LINE
  8
0
  6
CONTINUOUS
 10
99.188728
 20
358.993805
 11
103.688728
 21
358.993805
  0
ARC
  8
0
  6
CONTINUOUS
 10
99.188728
 20
355.993805
 40
3.000000
 50
90.000000
 51
180.000000
  0
LINE
  8
0
  6
CONTINUOUS
 10
96.188728
 20
355.993805
 11
96.188728
 21
351.493805
  0
CIRCLE
  8
0
  6
CONTINUOUS
 10
100.188728
 20
354.993805
 40
2.250000
  0
LINE
  8
0
  6
CONTINUOUS
 10
55.188751
 20
128.268829
 11
101.688751
 21
128.268829
  0
LINE
  8
0
  6
CONTINUOUS
 10
103.688728
 20
172.268829
 11
103.688751
 21
130.268829
  0
LINE
  8
0
  6
CONTINUOUS
 10
53.688751
 20
172.268829
 11
53.688751
 21
130.268829
  0
LINE
  8
0
  6
CONTINUOUS
 10
53.688751
 20
140.268829
 11
103.688751
 21
140.268829
  0
LINE
  8
0
  6
CONTINUOUS
 10
101.688751
 20
128.268829
 11
103.688751
 21
130.268829
  0
LINE
  8
0
  6
CONTINUOUS
 10
53.688751
 20
130.268829
 11
55.688751
 21
128.268829
  0
LINE
  8
0
  6
CONTINUOUS
 10
53.688751
 20
130.268829
 11
103.688751
 21
130.268829
  0
LINE
  8
0
  6
CONTINUOUS
 10
53.688751
 20
141.268829
 11
103.688744
 21
141.268829
  0
LINE
  8
0
  6
CONTINUOUS
 10
54.688751
 20
173.268829
 11
102.688728
 21
173.268829
  0
LINE
  8
0
  6
CONTINUOUS
 10
102.688728
 20
173.268829
 11
103.688728
 21
172.268829
  0
LINE
  8
0
  6
CONTINUOUS
 10
54.688751
 20
173.268829
 11
53.688751
 21
172.268829
  0
LINE
  8
0
  6
CONTINUOUS
 10
53.688751
 20
172.268829
 11
103.688728
 21
172.268829
  0
LINE
  8
0
  6
CENTER
 10
78.688751
 20
121.879318
 11
78.688751
 21
178.579315
  0
LINE
  8
0
  6
CENTER
 10
51.313751
 20
156.268829
 11
55.938751
 21
156.268829
  0
LINE
  8
0
  6
CONTINUOUS
 10
55.188751
 20
128.268829
 11
55.188751
 21
126.768829
  0
LINE
  8
0
  6
CONTINUOUS
 10
101.188751
 20
128.268829
 11
101.188751
 21
126.768829
  0
LINE
  8
0
  6
CONTINUOUS
 10
52.813751
 20
166.768829
 11
54.813751
 21
166.768829
  0
LINE
  8
0
  6
CONTINUOUS
 10
52.813751
 20
145.768829
 11
54.813751
 21
145.768829
  0
LINE
  8
0
  6
CONTINUOUS
 10
172.688751
 20
347.493805
 11
172.688751
 21
333.493774
  0
TEXT
  8
0
 10
-8.000000
 20
-6.000000
 40
4.000000
 41
1.000000
  1
HLM-28R-300~450-S90WK
 50
0.000000
  0
ENDSEC
  0
EOF
