  0
SECTION
  2
HEADER
  9
$CLAYER
  8
1
  9
$LTSCALE
 40
3.0
  0
ENDSEC
  0
SECTION
  2
TABLES
  0
TABLE
  2
LTYPE
 70
     4
  0
LTYPE
  2
CONTINUOUS
  3
solid line
 70
    64
 72
    65
 73
     0
 40
0.0
  0
LTYPE
  2
DASHED
  3
__ __ __ __ __ __ __ __ __ __ __ __ __ __ __
 70
    64
 72
    65
 73
     2
 40
0.75
 49
0.5
 49
-0.25
  0
LTYPE
  2
CENTER
  3
____ _ ____ _ ____ _ ____ _ ____ _ ____ _ ____
 70
    64
 72
    65
 73
     4
 40
2.0
 49
1.25
 49
-0.25
 49
0.25
 49
-0.25
  0
LTYPE
  2
PHANTOM
  3
_____ _ _ _____ _ _ _____ _ _ _____ _ _ ____
 70
    64
 72
    65
 73
     6
 40
2.5
 49
1.25
 49
-0.25
 49
0.25
 49
-0.25
 49
0.25
 49
-0.25
  0
ENDTAB
  0
TABLE
  2
LAYER
 70
     1
  0
LAYER
  2
0
 70
    64
 62
     7
  6
CONTINUOUS
  0
ENDTAB
  0
TABLE
  2
STYLE
 70
     1
  0
STYLE
  2
STANDARD
 70
     0
 40
0.000000
 41
1.000000
 50
0.000000
 71
     0
 42
3.000000
  3
txt
  4
BIGFONT
  0
ENDTAB
  0
ENDSEC
  0
SECTION
  2
BLOCKS
  0
ENDSEC
  0
SECTION
  2
ENTITIES
  0
LINE
  8
0
  6
CONTINUOUS
 10
130.872498
 20
124.768829
 11
130.872498
 21
38.768806
  0
LINE
  8
0
  6
CONTINUOUS
 10
20.872499
 20
126.768829
 11
139.872498
 21
126.768829
  0
LINE
  8
0
  6
CONTINUOUS
 10
20.872499
 20
36.768829
 11
139.872498
 21
36.768829
  0
LINE
  8
0
  6
CONTINUOUS
 10
20.872499
 20
126.768829
 11
20.872499
 21
36.768829
  0
LINE
  8
0
  6
CONTINUOUS
 10
20.872499
 20
116.178131
 11
129.834824
 21
116.178131
  0
LINE
  8
0
  6
CONTINUOUS
 10
20.872499
 20
47.359528
 11
129.834824
 21
47.359528
  0
ARC
  8
0
  6
CONTINUOUS
 10
132.872498
 20
124.768845
 40
2.000000
 50
90.000000
 51
180.000000
  0
ARC
  8
0
  6
CONTINUOUS
 10
132.872498
 20
38.768829
 40
2.000000
 50
180.000000
 51
270.000000
  0
LINE
  8
0
  6
CONTINUOUS
 10
0.372500
 20
46.768829
 11
0.372500
 21
116.768829
  0
LINE
  8
0
  6
CONTINUOUS
 10
4.913942
 20
126.768829
 11
20.872499
 21
126.768829
  0
LINE
  8
0
  6
CONTINUOUS
 10
0.872500
 20
123.768829
 11
0.872500
 21
39.768829
  0
LINE
  8
0
  6
CONTINUOUS
 10
20.872499
 20
116.178131
 11
2.622500
 21
116.178131
  0
LINE
  8
0
  6
CONTINUOUS
 10
1.449846
 20
124.768806
 11
0.872500
 21
123.768829
  0
ARC
  8
0
  6
CONTINUOUS
 10
4.913958
 20
122.768829
 40
4.000000
 50
90.000000
 51
150.000397
  0
LINE
  8
0
  6
CONTINUOUS
 10
4.913942
 20
36.768829
 11
20.872499
 21
36.768829
  0
LINE
  8
0
  6
CONTINUOUS
 10
20.872499
 20
47.359528
 11
2.622500
 21
47.359528
  0
LINE
  8
0
  6
CONTINUOUS
 10
1.449846
 20
38.768829
 11
0.872500
 21
39.768829
  0
ARC
  8
0
  6
CONTINUOUS
 10
4.913958
 20
40.768806
 40
4.000000
 50
-150.000397
 51
-90.000000
  0
LINE
  8
0
  6
CONTINUOUS
 10
21.372499
 20
128.268829
 11
21.372499
 21
126.768829
  0
LINE
  8
0
  6
CONTINUOUS
 10
14.372500
 20
128.268829
 11
14.372500
 21
126.768829
  0
LINE
  8
0
  6
CONTINUOUS
 10
14.372500
 20
128.268829
 11
21.372499
 21
128.268829
  0
LINE
  8
0
  6
CONTINUOUS
 10
18.772503
 20
141.268829
 11
18.772503
 21
128.268829
  0
LINE
  8
0
  6
CONTINUOUS
 10
16.972498
 20
141.893829
 11
16.972498
 21
128.268829
  0
LINE
  8
0
  6
CONTINUOUS
 10
15.172504
 20
139.831329
 11
15.172504
 21
128.268829
  0
LINE
  8
0
  6
CONTINUOUS
 10
20.572500
 20
140.643829
 11
20.572500
 21
128.268829
  0
LINE
  8
0
  6
CONTINUOUS
 10
16.972498
 20
141.893829
 11
18.772503
 21
141.268829
  0
LINE
  8
0
  6
CONTINUOUS
 10
15.172504
 20
139.831329
 11
16.972498
 21
140.456329
  0
LINE
  8
0
  6
CONTINUOUS
 10
20.572500
 20
140.643829
 11
18.773500
 21
140.196106
  0
LINE
  8
0
  6
CONTINUOUS
 10
0.372500
 20
116.768829
 11
0.872500
 21
117.268829
  0
LINE
  8
0
  6
CONTINUOUS
 10
0.372500
 20
46.768829
 11
0.872500
 21
46.268829
  0
LINE
  8
0
  6
CONTINUOUS
 10
339.372498
 20
156.140442
 11
339.372498
 21
10.768828
  0
LINE
  8
0
  6
CONTINUOUS
 10
214.372498
 20
10.768828
 11
339.372498
 21
10.768828
  0
LINE
  8
0
  6
CENTER
 10
223.417297
 20
130.768829
 11
334.583740
 21
130.768829
  0
LINE
  8
0
  6
CENTER
 10
276.872498
 20
202.268784
 11
276.872498
 21
2.268828
  0
LINE
  8
0
  6
CONTINUOUS
 10
254.426895
 20
185.268784
 11
299.318115
 21
185.268784
  0
LINE
  8
0
  6
CONTINUOUS
 10
302.152893
 20
184.387482
 11
337.207306
 21
160.259064
  0
LINE
  8
0
  6
CONTINUOUS
 10
217.372498
 20
25.768827
 11
336.372498
 21
25.768827
  0
LINE
  8
0
  6
CONTINUOUS
 10
329.372498
 20
24.231327
 11
329.372498
 21
10.768828
  0
LINE
  8
0
  6
CONTINUOUS
 10
225.372498
 20
24.231327
 11
225.372498
 21
10.768828
  0
LINE
  8
0
  6
CENTER
 10
316.872498
 20
33.018829
 11
316.872498
 21
4.018828
  0
LINE
  8
0
  6
CENTER
 10
236.872498
 20
33.018829
 11
236.872498
 21
5.268828
  0
LINE
  8
0
  6
DASHED
 10
322.372498
 20
25.768827
 11
322.372498
 21
10.768828
  0
LINE
  8
0
  6
DASHED
 10
311.372498
 20
25.768827
 11
311.372498
 21
10.768828
  0
LINE
  8
0
  6
DASHED
 10
242.372498
 20
25.768827
 11
242.372498
 21
10.768828
  0
LINE
  8
0
  6
DASHED
 10
231.372498
 20
25.768827
 11
231.372498
 21
10.768828
  0
ARC
  8
0
  6
CONTINUOUS
 10
256.872498
 20
80.768829
 40
26.500000
 50
170.529099
 51
270.000000
  0
ARC
  8
0
  6
CONTINUOUS
 10
296.872498
 20
80.768829
 40
26.500000
 50
-90.000000
 51
9.470950
  0
LINE
  8
0
  6
CONTINUOUS
 10
230.733704
 20
85.129303
 11
239.390503
 21
137.021667
  0
LINE
  8
0
  6
CONTINUOUS
 10
314.354492
 20
137.021667
 11
323.011292
 21
85.129333
  0
LINE
  8
0
  6
CONTINUOUS
 10
256.872498
 20
54.268829
 11
296.872498
 21
54.268829
  0
ARC
  8
0
  6
CONTINUOUS
 10
334.372498
 20
156.140381
 40
5.000000
 50
0.000000
 51
55.460110
  0
ARC
  8
0
  6
CONTINUOUS
 10
299.318115
 20
180.268784
 40
5.000000
 50
55.460079
 51
90.000000
  0
ARC
  8
0
  6
CONTINUOUS
 10
254.460907
 20
180.268784
 40
5.000000
 50
90.000000
 51
91.038872
  0
LINE
  8
0
  6
CONTINUOUS
 10
256.872498
 20
30.399603
 11
256.872498
 21
25.768827
  0
LINE
  8
0
  6
CONTINUOUS
 10
296.872498
 20
30.399603
 11
296.872498
 21
25.768827
  0
LINE
  8
0
  6
CONTINUOUS
 10
214.372498
 20
10.768828
 11
214.372498
 21
156.140411
  0
ARC
  8
0
  6
CONTINUOUS
 10
256.872498
 20
80.768829
 40
24.000000
 50
169.576294
 51
270.000000
  0
ARC
  8
0
  6
CONTINUOUS
 10
296.872498
 20
80.768829
 40
24.000000
 50
-90.000000
 51
9.471373
  0
LINE
  8
0
  6
CONTINUOUS
 10
256.872498
 20
56.768829
 11
296.872498
 21
56.768829
  0
CIRCLE
  8
0
  6
CONTINUOUS
 10
276.872498
 20
130.768829
 40
33.500000
  0
ARC
  8
0
  6
CONTINUOUS
 10
276.872498
 20
130.768829
 40
38.000000
 50
9.470961
 51
170.529099
  0
ARC
  8
0
  6
CONTINUOUS
 10
276.872498
 20
130.768829
 40
38.000000
 50
9.470963
 51
170.529007
  0
ARC
  8
0
  6
CONTINUOUS
 10
276.872498
 20
130.768829
 40
35.500000
 50
-189.470795
 51
9.471022
  0
LINE
  8
0
  6
CONTINUOUS
 10
233.199707
 20
84.717926
 11
241.856293
 21
136.610168
  0
LINE
  8
0
  6
CONTINUOUS
 10
311.888489
 20
136.610291
 11
320.545288
 21
84.718140
  0
LINE
  8
0
  6
CENTER
 10
162.441559
 20
94.768829
 11
238.122498
 21
94.768829
  0
LINE
  8
0
  6
CONTINUOUS
 10
194.372498
 20
94.768829
 11
194.372498
 21
30.768730
  0
LINE
  8
0
  6
CONTINUOUS
 10
194.372498
 20
94.768829
 11
194.372498
 21
158.768936
  0
LINE
  8
0
  6
CONTINUOUS
 10
216.537506
 20
160.259048
 11
251.592102
 21
184.387451
  0
ARC
  8
0
  6
CONTINUOUS
 10
254.426895
 20
180.268784
 40
5.000000
 50
90.000000
 51
124.540298
  0
ARC
  8
0
  6
CONTINUOUS
 10
219.372498
 20
156.140427
 40
5.000000
 50
124.540398
 51
180.000000
  0
ARC
  8
0
  6
CONTINUOUS
 10
217.372498
 20
22.768848
 40
3.000000
 50
90.000000
 51
180.000000
  0
ARC
  8
0
  6
CONTINUOUS
 10
336.372498
 20
22.768827
 40
3.000000
 50
0.000000
 51
90.000000
  0
LINE
  8
0
  6
CONTINUOUS
 10
266.576111
 20
66.768829
 11
262.415710
 21
66.768829
  0
LINE
  8
0
  6
CONTINUOUS
 10
268.872498
 20
73.737572
 11
268.872498
 21
66.768829
  0
LINE
  8
0
  6
CONTINUOUS
 10
272.872498
 20
76.268829
 11
272.872498
 21
78.768829
  0
LINE
  8
0
  6
CONTINUOUS
 10
280.872498
 20
76.268829
 11
280.872498
 21
78.768829
  0
LINE
  8
0
  6
CONTINUOUS
 10
276.091309
 20
77.300079
 11
276.091309
 21
68.081329
  0
LINE
  8
0
  6
CONTINUOUS
 10
277.591309
 20
77.300079
 11
277.591309
 21
68.081329
  0
LINE
  8
0
  6
CONTINUOUS
 10
285.466309
 20
77.300079
 11
285.466309
 21
68.018829
  0
LINE
  8
0
  6
CONTINUOUS
 10
286.841309
 20
72.378204
 11
286.841309
 21
68.018829
  0
LINE
  8
0
  6
CONTINUOUS
 10
266.974487
 20
77.175079
 11
263.119507
 21
77.175079
  0
LINE
  8
0
  6
CONTINUOUS
 10
263.119507
 20
77.175079
 11
262.216309
 21
76.055077
  0
LINE
  8
0
  6
CONTINUOUS
 10
262.324890
 20
78.768829
 11
260.872498
 21
76.909065
  0
LINE
  8
0
  6
CONTINUOUS
 10
262.216309
 20
69.141747
 11
263.133911
 21
68.175072
  0
LINE
  8
0
  6
CONTINUOUS
 10
260.872498
 20
68.325989
 11
262.415710
 21
66.768829
  0
LINE
  8
0
  6
CONTINUOUS
 10
260.872498
 20
76.909065
 11
260.872498
 21
68.325989
  0
LINE
  8
0
  6
CONTINUOUS
 10
262.216309
 20
76.055077
 11
262.216309
 21
69.141747
  0
LINE
  8
0
  6
CONTINUOUS
 10
267.716309
 20
76.457970
 11
266.959290
 21
77.175079
  0
LINE
  8
0
  6
CONTINUOUS
 10
267.704315
 20
78.768829
 11
268.872498
 21
77.472336
  0
LINE
  8
0
  6
CONTINUOUS
 10
267.716309
 20
76.268829
 11
268.872498
 21
76.268829
  0
LINE
  8
0
  6
CONTINUOUS
 10
262.324890
 20
78.768829
 11
267.704315
 21
78.768829
  0
LINE
  8
0
  6
CONTINUOUS
 10
265.622498
 20
73.737572
 11
268.872498
 21
73.737572
  0
LINE
  8
0
  6
CONTINUOUS
 10
267.716309
 20
72.425072
 11
265.622498
 21
72.425072
  0
LINE
  8
0
  6
CONTINUOUS
 10
265.216309
 20
68.175072
 11
263.133911
 21
68.175072
  0
LINE
  8
0
  6
CONTINUOUS
 10
267.716309
 20
71.175072
 11
267.716309
 21
72.175072
  0
ARC
  8
0
  6
CONTINUOUS
 10
265.216309
 20
70.675072
 40
2.500000
 50
-89.999786
 51
0.000109
  0
LINE
  8
0
  6
CONTINUOUS
 10
267.716309
 20
67.725388
 11
267.716309
 21
66.768829
  0
LINE
  8
0
  6
CONTINUOUS
 10
268.872498
 20
77.472336
 11
268.872498
 21
76.268829
  0
LINE
  8
0
  6
CONTINUOUS
 10
267.716309
 20
72.425072
 11
267.716309
 21
70.675072
  0
LINE
  8
0
  6
CONTINUOUS
 10
265.622498
 20
73.737572
 11
265.622498
 21
72.425072
  0
LINE
  8
0
  6
CONTINUOUS
 10
267.716309
 20
66.768829
 11
268.872498
 21
66.768829
  0
LINE
  8
0
  6
CONTINUOUS
 10
267.716309
 20
67.725388
 11
266.576111
 21
66.768829
  0
LINE
  8
0
  6
CONTINUOUS
 10
277.591309
 20
68.081329
 11
278.091309
 21
68.081329
  0
LINE
  8
0
  6
CONTINUOUS
 10
275.497498
 20
68.081329
 11
275.497498
 21
66.768829
  0
LINE
  8
0
  6
CONTINUOUS
 10
278.091309
 20
68.081329
 11
278.091309
 21
66.768829
  0
LINE
  8
0
  6
CONTINUOUS
 10
280.038086
 20
76.268829
 11
280.872498
 21
76.268829
  0
LINE
  8
0
  6
CONTINUOUS
 10
272.872498
 20
76.268829
 11
273.760498
 21
76.268829
  0
LINE
  8
0
  6
CONTINUOUS
 10
272.872498
 20
78.768829
 11
280.872498
 21
78.768829
  0
LINE
  8
0
  6
CONTINUOUS
 10
275.497498
 20
66.768829
 11
278.091309
 21
66.768829
  0
LINE
  8
0
  6
CONTINUOUS
 10
275.497498
 20
68.081329
 11
276.091309
 21
68.081329
  0
ARC
  8
0
  6
CONTINUOUS
 10
289.669312
 20
75.565704
 40
3.203126
 50
-73.981873
 51
90.003510
  0
ARC
  8
0
  6
CONTINUOUS
 10
289.669312
 20
75.565704
 40
1.954124
 50
-82.585274
 51
62.411850
  0
LINE
  8
0
  6
CONTINUOUS
 10
284.872498
 20
78.768829
 11
289.669312
 21
78.768829
  0
LINE
  8
0
  6
CONTINUOUS
 10
289.921509
 20
73.627907
 11
286.841309
 21
73.627907
  0
LINE
  8
0
  6
CONTINUOUS
 10
284.872498
 20
78.768829
 11
284.872498
 21
77.300079
  0
LINE
  8
0
  6
CONTINUOUS
 10
286.841309
 20
77.300079
 11
286.841309
 21
73.627907
  0
LINE
  8
0
  6
CONTINUOUS
 10
290.553314
 20
72.486946
 11
292.535706
 21
68.018829
  0
LINE
  8
0
  6
CONTINUOUS
 10
289.401703
 20
72.378204
 11
291.277893
 21
68.018829
  0
LINE
  8
0
  6
CONTINUOUS
 10
284.872498
 20
68.018829
 11
285.466309
 21
68.018829
  0
LINE
  8
0
  6
CONTINUOUS
 10
286.841309
 20
68.018829
 11
287.388092
 21
68.018829
  0
LINE
  8
0
  6
CONTINUOUS
 10
287.388092
 20
66.768829
 11
284.872498
 21
66.768829
  0
LINE
  8
0
  6
CONTINUOUS
 10
291.028687
 20
68.018829
 11
291.277893
 21
68.018829
  0
LINE
  8
0
  6
CONTINUOUS
 10
292.535706
 20
68.018829
 11
292.872498
 21
68.018829
  0
LINE
  8
0
  6
CONTINUOUS
 10
291.028687
 20
66.768829
 11
292.872498
 21
66.768829
  0
LINE
  8
0
  6
CONTINUOUS
 10
292.872498
 20
68.018829
 11
292.872498
 21
66.768829
  0
LINE
  8
0
  6
CONTINUOUS
 10
291.028687
 20
68.018829
 11
291.028687
 21
66.768829
  0
LINE
  8
0
  6
CONTINUOUS
 10
287.388092
 20
68.018829
 11
287.388092
 21
66.768829
  0
LINE
  8
0
  6
CONTINUOUS
 10
284.872498
 20
68.018829
 11
284.872498
 21
66.768829
  0
LINE
  8
0
  6
CONTINUOUS
 10
274.190308
 20
77.300079
 11
273.760498
 21
76.268829
  0
LINE
  8
0
  6
CONTINUOUS
 10
279.675690
 20
77.300079
 11
280.038086
 21
76.268829
  0
LINE
  8
0
  6
CONTINUOUS
 10
277.591309
 20
77.300079
 11
279.675690
 21
77.300079
  0
LINE
  8
0
  6
CONTINUOUS
 10
276.091309
 20
77.300079
 11
274.190308
 21
77.300079
  0
LINE
  8
0
  6
CONTINUOUS
 10
286.841309
 20
72.378204
 11
289.401703
 21
72.378204
  0
LINE
  8
0
  6
CONTINUOUS
 10
284.872498
 20
77.300079
 11
285.466309
 21
77.300079
  0
LINE
  8
0
  6
CONTINUOUS
 10
286.841309
 20
77.300079
 11
290.574310
 21
77.297646
  0
LINE
  8
0
  6
CONTINUOUS
 10
267.716309
 20
76.457970
 11
267.716309
 21
76.268829
  0
LINE
  8
0
  6
CONTINUOUS
 10
572.116028
 20
41.768829
 11
572.116028
 21
45.747547
  0
LINE
  8
0
  6
CONTINUOUS
 10
482.115997
 20
41.768829
 11
482.115997
 21
45.747486
  0
LINE
  8
0
  6
CONTINUOUS
 10
487.115997
 20
36.768829
 11
490.115997
 21
36.768829
  0
LINE
  8
0
  6
CONTINUOUS
 10
567.116028
 20
36.768829
 11
564.116028
 21
36.768829
  0
ARC
  8
0
  6
CONTINUOUS
 10
487.115997
 20
41.768829
 40
5.000000
 50
180.000000
 51
270.000000
  0
ARC
  8
0
  6
CONTINUOUS
 10
567.116028
 20
41.768829
 40
5.000000
 50
-90.000000
 51
0.000000
  0
ARC
  8
0
  6
CONTINUOUS
 10
568.128418
 20
53.756866
 40
8.000000
 50
306.780975
 51
358.958740
  0
ARC
  8
0
  6
CONTINUOUS
 10
486.103790
 20
53.756607
 40
8.000000
 50
181.041107
 51
233.216995
  0
ARC
  8
0
  6
CONTINUOUS
 10
574.116028
 20
45.747566
 40
2.000000
 50
126.781197
 51
180.000000
  0
ARC
  8
0
  6
CONTINUOUS
 10
480.115997
 20
45.747486
 40
2.000000
 50
0.000000
 51
53.217121
  0
LINE
  8
0
  6
CENTER
 10
527.116028
 20
-6.560012
 11
527.116028
 21
200.825623
  0
LINE
  8
0
  6
CENTER
 10
415.916260
 20
130.768829
 11
590.970642
 21
130.768829
  0
LINE
  8
0
  6
CONTINUOUS
 10
464.115997
 20
10.768828
 11
499.615997
 21
10.768828
  0
LINE
  8
0
  6
CONTINUOUS
 10
468.115997
 20
25.768827
 11
486.115997
 21
25.768827
  0
LINE
  8
0
  6
CONTINUOUS
 10
586.116028
 20
25.768827
 11
568.116028
 21
25.768827
  0
LINE
  8
0
  6
CONTINUOUS
 10
491.615997
 20
158.768829
 11
562.366028
 21
158.768829
  0
LINE
  8
0
  6
CONTINUOUS
 10
561.168396
 20
184.674713
 11
527.116028
 21
185.268829
  0
LINE
  8
0
  6
CONTINUOUS
 10
493.063599
 20
184.674301
 11
527.116028
 21
185.268829
  0
LINE
  8
0
  6
CONTINUOUS
 10
564.116028
 20
181.675171
 11
564.116028
 21
10.768808
  0
LINE
  8
0
  6
CONTINUOUS
 10
490.115997
 20
181.674774
 11
490.115997
 21
10.768828
  0
LINE
  8
0
  6
CONTINUOUS
 10
474.115997
 20
101.056564
 11
474.115997
 21
160.481064
  0
LINE
  8
0
  6
CONTINUOUS
 10
580.116028
 20
160.481094
 11
580.116028
 21
101.056564
  0
LINE
  8
0
  6
CONTINUOUS
 10
481.115997
 20
60.569248
 11
481.115997
 21
133.268829
  0
LINE
  8
0
  6
CONTINUOUS
 10
573.116028
 20
60.569248
 11
573.116028
 21
133.268829
  0
LINE
  8
0
  6
CONTINUOUS
 10
590.116028
 20
22.464766
 11
590.116028
 21
10.768828
  0
LINE
  8
0
  6
CONTINUOUS
 10
464.115997
 20
22.464766
 11
464.115997
 21
10.768828
  0
LINE
  8
0
  6
CENTER
 10
477.115997
 20
33.768829
 11
477.115997
 21
-0.584572
  0
LINE
  8
0
  6
CENTER
 10
577.116028
 20
34.268829
 11
577.116028
 21
-0.584572
  0
LINE
  8
0
  6
DASHED
 10
471.615997
 20
25.768827
 11
471.615997
 21
10.768828
  0
LINE
  8
0
  6
DASHED
 10
482.615997
 20
25.768827
 11
482.615997
 21
10.768828
  0
LINE
  8
0
  6
DASHED
 10
571.616028
 20
25.768827
 11
571.616028
 21
10.768828
  0
LINE
  8
0
  6
DASHED
 10
582.616028
 20
25.768827
 11
582.616028
 21
10.768828
  0
ARC
  8
0
  6
CONTINUOUS
 10
493.115997
 20
181.674789
 40
3.000000
 50
91.000526
 51
180.000000
  0
ARC
  8
0
  6
CONTINUOUS
 10
561.116028
 20
181.675140
 40
3.000000
 50
0.000000
 51
89.000580
  0
LINE
  8
0
  6
CONTINUOUS
 10
554.616028
 20
10.768828
 11
590.116028
 21
10.768828
  0
LINE
  8
0
  6
CONTINUOUS
 10
500.615997
 20
11.768828
 11
553.616028
 21
11.768828
  0
LINE
  8
0
  6
CONTINUOUS
 10
477.762207
 20
165.294342
 11
486.469604
 21
167.743301
  0
LINE
  8
0
  6
CONTINUOUS
 10
477.762207
 20
96.243309
 11
478.928192
 21
95.915375
  0
LINE
  8
0
  6
CONTINUOUS
 10
484.777802
 20
55.751667
 11
486.454193
 21
55.285988
  0
LINE
  8
0
  6
CONTINUOUS
 10
569.454224
 20
55.751667
 11
567.777771
 21
55.285988
  0
LINE
  8
0
  6
CONTINUOUS
 10
576.469604
 20
96.243309
 11
575.303772
 21
95.915382
  0
LINE
  8
0
  6
CONTINUOUS
 10
576.469604
 20
165.294342
 11
567.762390
 21
167.743301
  0
ARC
  8
0
  6
CONTINUOUS
 10
479.115997
 20
160.481110
 40
5.000000
 50
105.709000
 51
180.000000
  0
ARC
  8
0
  6
CONTINUOUS
 10
479.115997
 20
101.056602
 40
5.000000
 50
180.000000
 51
254.291702
  0
ARC
  8
0
  6
CONTINUOUS
 10
486.115997
 20
60.569286
 40
5.000000
 50
180.000000
 51
254.476196
  0
ARC
  8
0
  6
CONTINUOUS
 10
568.116028
 20
60.569248
 40
5.000000
 50
-74.475708
 51
0.000000
  0
ARC
  8
0
  6
CONTINUOUS
 10
575.116028
 20
101.056557
 40
5.000000
 50
-74.291199
 51
0.000000
  0
ARC
  8
0
  6
CONTINUOUS
 10
575.116028
 20
160.481064
 40
5.000000
 50
0.000000
 51
74.291527
  0
ARC
  8
0
  6
CONTINUOUS
 10
576.116028
 20
93.027451
 40
3.000000
 50
105.709000
 51
180.000000
  0
ARC
  8
0
  6
CONTINUOUS
 10
478.115997
 20
93.027412
 40
3.000000
 50
0.000000
 51
74.291397
  0
ARC
  8
0
  6
CONTINUOUS
 10
485.115997
 20
172.556564
 40
5.000000
 50
-74.291199
 51
0.000000
  0
ARC
  8
0
  6
CONTINUOUS
 10
569.116028
 20
172.556595
 40
5.000000
 50
180.000000
 51
254.291702
  0
ARC
  8
0
  6
CONTINUOUS
 10
569.116028
 20
50.468430
 40
5.000000
 50
105.524399
 51
180.000000
  0
ARC
  8
0
  6
CONTINUOUS
 10
485.115997
 20
50.468388
 40
5.000000
 50
0.000000
 51
74.475952
  0
LINE
  8
0
  6
CONTINUOUS
 10
554.616028
 20
10.768828
 11
553.616028
 21
11.768828
  0
LINE
  8
0
  6
CONTINUOUS
 10
499.615997
 20
10.768828
 11
500.615997
 21
11.768828
  0
LINE
  8
0
  6
CENTER
 10
453.355621
 20
94.768822
 11
599.571533
 21
94.768822
  0
LINE
  8
0
  6
CONTINUOUS
 10
286.872498
 20
126.768867
 11
286.872498
 21
134.768875
  0
LINE
  8
0
  6
CONTINUOUS
 10
293.872498
 20
126.768890
 11
293.872498
 21
134.768890
  0
LINE
  8
0
  6
CONTINUOUS
 10
293.872498
 20
126.768890
 11
286.872498
 21
126.768867
  0
LINE
  8
0
  6
CONTINUOUS
 10
293.872498
 20
134.768890
 11
286.872498
 21
134.768875
  0
ARC
  8
0
  6
CONTINUOUS
 10
276.872498
 20
130.768829
 40
14.000000
 50
16.601500
 51
343.398499
  0
LINE
  8
0
  6
CONTINUOUS
 10
427.115997
 20
116.768829
 11
427.115997
 21
144.768829
  0
LINE
  8
0
  6
CONTINUOUS
 10
472.115997
 20
144.768829
 11
427.115997
 21
144.768829
  0
LINE
  8
0
  6
CONTINUOUS
 10
472.115997
 20
116.768829
 11
427.115997
 21
116.768829
  0
LINE
  8
0
  6
CONTINUOUS
 10
472.115997
 20
145.768829
 11
472.115997
 21
115.768829
  0
LINE
  8
0
  6
CONTINUOUS
 10
474.115997
 20
115.768829
 11
472.115997
 21
115.768829
  0
ARC
  8
0
  6
CONTINUOUS
 10
463.115997
 20
130.768829
 40
4.000000
 50
-90.000000
 51
90.000000
  0
LINE
  8
0
  6
CONTINUOUS
 10
463.115997
 20
134.768829
 11
427.115997
 21
134.768829
  0
LINE
  8
0
  6
CONTINUOUS
 10
463.115997
 20
126.768829
 11
427.115997
 21
126.768829
  0
LINE
  8
0
  6
CONTINUOUS
 10
474.115997
 20
145.768829
 11
472.115997
 21
145.768829
  0
LINE
  8
0
  6
CONTINUOUS
 10
187.872498
 20
158.768936
 11
194.372498
 21
158.768936
  0
LINE
  8
0
  6
CONTINUOUS
 10
187.872498
 20
30.768730
 11
194.372498
 21
30.768730
  0
LINE
  8
0
  6
CONTINUOUS
 10
139.872498
 20
126.768829
 11
185.872498
 21
128.375183
  0
LINE
  8
0
  6
CONTINUOUS
 10
194.372498
 20
34.865646
 11
139.872498
 21
36.768829
  0
ARC
  8
0
  6
CONTINUOUS
 10
187.872513
 20
156.768951
 40
2.000000
 50
90.000000
 51
180.000000
  0
ARC
  8
0
  6
CONTINUOUS
 10
187.872498
 20
32.768730
 40
2.000000
 50
180.260773
 51
270.000000
  0
LINE
  8
0
  6
CENTER
 10
-13.646289
 20
81.768829
 11
238.122498
 21
81.768829
  0
LINE
  8
0
  6
CONTINUOUS
 10
139.872498
 20
126.768829
 11
139.872498
 21
36.768829
  0
LINE
  8
0
  6
CONTINUOUS
 10
185.140274
 20
134.536591
 11
179.425751
 21
128.822083
  0
LINE
  8
0
  6
CONTINUOUS
 10
216.635880
 20
413.493805
 11
335.778564
 21
413.493805
  0
ARC
  8
0
  6
CONTINUOUS
 10
335.778564
 20
410.493805
 40
3.000000
 50
1.000000
 51
90.000000
  0
LINE
  8
0
  6
CONTINUOUS
 10
321.866760
 20
418.847534
 11
322.757202
 21
415.681549
  0
ARC
  8
0
  6
CONTINUOUS
 10
325.645142
 20
416.493805
 40
3.000000
 50
195.708649
 51
270.000000
  0
ARC
  8
0
  6
CONTINUOUS
 10
208.450104
 20
430.720367
 40
3.000000
 50
1.500200
 51
77.801201
  0
LINE
  8
0
  6
CONTINUOUS
 10
211.449097
 20
430.798920
 11
211.805099
 21
417.204132
  0
ARC
  8
0
  6
CONTINUOUS
 10
209.717896
 20
436.584900
 40
3.000000
 50
-164.999893
 51
-102.198799
  0
LINE
  8
0
  6
CENTER
 10
-13.918477
 20
376.493805
 11
354.776367
 21
376.493805
  0
LINE
  8
0
  6
CONTINUOUS
 10
227.887375
 20
313.493805
 11
262.872498
 21
313.493805
  0
LINE
  8
0
  6
CONTINUOUS
 10
339.372498
 20
376.493805
 11
338.726654
 21
413.493805
  0
LINE
  8
0
  6
CONTINUOUS
 10
330.562408
 20
436.186462
 11
338.726654
 21
413.493805
  0
ARC
  8
0
  6
CONTINUOUS
 10
325.857635
 20
434.493805
 40
5.000000
 50
19.787489
 51
90.000000
  0
LINE
  8
0
  6
CONTINUOUS
 10
339.372498
 20
376.493805
 11
338.726654
 21
339.493805
  0
LINE
  8
0
  6
CONTINUOUS
 10
330.562408
 20
316.801147
 11
338.726654
 21
339.493805
  0
ARC
  8
0
  6
CONTINUOUS
 10
325.857635
 20
318.493805
 40
5.000000
 50
-90.000000
 51
-19.787489
  0
LINE
  8
0
  6
CONTINUOUS
 10
216.635880
 20
413.493805
 11
335.778564
 21
413.493805
  0
LINE
  8
0
  6
CENTER
 10
276.872498
 20
265.079681
 11
276.872498
 21
452.567505
  0
ARC
  8
0
  6
CONTINUOUS
 10
335.778564
 20
410.493805
 40
3.000000
 50
1.000000
 51
90.000000
  0
ARC
  8
0
  6
CONTINUOUS
 10
335.778564
 20
342.493805
 40
3.000000
 50
-90.000000
 51
-1.000000
  0
LINE
  8
0
  6
CONTINUOUS
 10
216.709106
 20
339.493805
 11
335.778564
 21
339.493805
  0
LINE
  8
0
  6
CONTINUOUS
 10
306.584747
 20
429.493805
 11
247.160248
 21
429.493805
  0
LINE
  8
0
  6
CONTINUOUS
 10
311.398010
 20
425.847534
 11
312.341248
 21
422.493805
  0
ARC
  8
0
  6
CONTINUOUS
 10
306.584747
 20
424.493805
 40
5.000000
 50
15.708638
 51
90.000000
  0
LINE
  8
0
  6
CONTINUOUS
 10
312.341248
 20
422.493805
 11
317.053497
 21
422.493805
  0
ARC
  8
0
  6
CONTINUOUS
 10
317.053497
 20
417.493805
 40
5.000000
 50
15.708638
 51
90.000000
  0
LINE
  8
0
  6
CONTINUOUS
 10
242.346985
 20
425.847534
 11
241.403748
 21
422.493805
  0
ARC
  8
0
  6
CONTINUOUS
 10
247.160248
 20
424.493805
 40
5.000000
 50
90.000000
 51
164.291367
  0
LINE
  8
0
  6
CONTINUOUS
 10
241.403748
 20
422.493805
 11
236.691483
 21
422.493805
  0
LINE
  8
0
  6
CONTINUOUS
 10
231.878235
 20
418.847534
 11
230.987808
 21
415.681549
  0
ARC
  8
0
  6
CONTINUOUS
 10
236.691483
 20
417.493805
 40
5.000000
 50
90.000000
 51
164.291367
  0
ARC
  8
0
  6
CONTINUOUS
 10
228.099854
 20
416.493805
 40
3.000000
 50
-90.000000
 51
-15.708638
  0
LINE
  8
0
  6
CONTINUOUS
 10
306.584747
 20
323.493805
 11
247.160248
 21
323.493805
  0
LINE
  8
0
  6
CONTINUOUS
 10
311.398010
 20
327.140076
 11
312.341248
 21
330.493805
  0
ARC
  8
0
  6
CONTINUOUS
 10
306.584747
 20
328.493805
 40
5.000000
 50
-90.000000
 51
-15.708638
  0
LINE
  8
0
  6
CONTINUOUS
 10
312.341248
 20
330.493805
 11
317.053497
 21
330.493805
  0
LINE
  8
0
  6
CONTINUOUS
 10
321.866760
 20
334.140076
 11
322.757202
 21
337.306030
  0
ARC
  8
0
  6
CONTINUOUS
 10
317.053497
 20
335.493805
 40
5.000000
 50
-90.000000
 51
-15.708638
  0
ARC
  8
0
  6
CONTINUOUS
 10
325.645142
 20
336.493805
 40
3.000000
 50
-270.000000
 51
-195.708633
  0
LINE
  8
0
  6
CONTINUOUS
 10
242.346985
 20
327.140076
 11
241.403748
 21
330.493805
  0
ARC
  8
0
  6
CONTINUOUS
 10
247.160248
 20
328.493805
 40
5.000000
 50
-164.291367
 51
-90.000000
  0
LINE
  8
0
  6
CONTINUOUS
 10
241.403748
 20
330.493805
 11
236.691483
 21
330.493805
  0
LINE
  8
0
  6
CONTINUOUS
 10
231.878235
 20
334.140076
 11
230.987808
 21
337.306030
  0
ARC
  8
0
  6
CONTINUOUS
 10
236.691483
 20
335.493805
 40
5.000000
 50
-164.291367
 51
-90.000000
  0
ARC
  8
0
  6
CONTINUOUS
 10
228.099854
 20
336.493805
 40
3.000000
 50
15.708638
 51
90.000000
  0
LINE
  8
0
  6
CONTINUOUS
 10
223.182602
 20
436.186462
 11
215.104752
 21
413.734009
  0
ARC
  8
0
  6
CONTINUOUS
 10
227.887375
 20
434.493805
 40
5.000000
 50
90.000000
 51
160.212509
  0
LINE
  8
0
  6
CONTINUOUS
 10
223.182602
 20
316.801147
 11
215.120605
 21
339.209564
  0
ARC
  8
0
  6
CONTINUOUS
 10
227.887375
 20
318.493805
 40
5.000000
 50
199.787491
 51
270.000000
  0
LINE
  8
0
  6
CONTINUOUS
 10
227.887375
 20
439.493805
 11
276.872498
 21
439.493805
  0
LINE
  8
0
  6
CENTER
 10
316.872498
 20
437.607086
 11
316.872498
 21
418.165680
  0
LINE
  8
0
  6
CENTER
 10
306.961609
 20
426.493805
 11
325.480164
 21
426.493805
  0
ARC
  8
0
  6
CONTINUOUS
 10
316.872498
 20
426.493805
 40
5.500000
 50
-59.465683
 51
187.598495
  0
ARC
  8
0
  6
CONTINUOUS
 10
236.872498
 20
426.493805
 40
5.500000
 50
-7.598608
 51
239.465683
  0
LINE
  8
0
  6
CENTER
 10
236.872498
 20
437.607086
 11
236.872498
 21
418.165680
  0
LINE
  8
0
  6
CENTER
 10
246.783386
 20
426.493805
 11
228.264832
 21
426.493805
  0
ARC
  8
0
  6
CONTINUOUS
 10
236.872498
 20
326.493805
 40
5.500000
 50
-239.465683
 51
7.598608
  0
LINE
  8
0
  6
CENTER
 10
246.783386
 20
326.493805
 11
228.264832
 21
326.493805
  0
LINE
  8
0
  6
CENTER
 10
236.872498
 20
315.380524
 11
236.872498
 21
334.821930
  0
LINE
  8
0
  6
CENTER
 10
316.872498
 20
315.380524
 11
316.872498
 21
334.821930
  0
LINE
  8
0
  6
CENTER
 10
306.961609
 20
326.493805
 11
325.480164
 21
326.493805
  0
ARC
  8
0
  6
CONTINUOUS
 10
316.872498
 20
326.493805
 40
5.500000
 50
-187.598602
 51
59.465683
  0
LINE
  8
0
  6
CONTINUOUS
 10
300.872498
 20
342.493805
 11
300.872498
 21
410.493805
  0
LINE
  8
0
  6
CONTINUOUS
 10
252.872498
 20
342.493805
 11
252.872498
 21
410.493805
  0
LINE
  8
0
  6
CONTINUOUS
 10
211.952789
 20
335.787903
 11
206.704163
 21
316.199707
  0
LINE
  8
0
  6
CONTINUOUS
 10
211.449097
 20
321.641754
 11
211.805099
 21
335.236572
  0
ARC
  8
0
  6
CONTINUOUS
 10
208.450104
 20
321.720367
 40
3.000000
 50
282.198792
 51
358.499786
  0
ARC
  8
0
  6
CONTINUOUS
 10
209.717896
 20
315.855774
 40
3.000000
 50
102.198799
 51
165.000031
  0
ARC
  8
0
  6
CONTINUOUS
 10
208.450104
 20
430.720367
 40
3.000000
 50
1.500200
 51
77.801201
  0
LINE
  8
0
  6
CONTINUOUS
 10
211.449097
 20
430.798920
 11
211.805099
 21
417.204132
  0
ARC
  8
0
  6
CONTINUOUS
 10
209.717896
 20
436.584900
 40
3.000000
 50
-164.999893
 51
-102.198799
  0
LINE
  8
0
  6
CONTINUOUS
 10
201.801300
 20
440.493805
 11
194.372498
 21
440.493805
  0
LINE
  8
0
  6
CONTINUOUS
 10
206.557663
 20
436.787872
 11
211.879501
 21
416.926300
  0
ARC
  8
0
  6
CONTINUOUS
 10
216.782425
 20
334.493805
 40
5.000000
 50
90.000000
 51
165.000031
  0
ARC
  8
0
  6
CONTINUOUS
 10
216.635880
 20
418.493805
 40
5.000000
 50
194.999847
 51
270.000000
  0
LINE
  8
0
  6
CONTINUOUS
 10
276.872498
 20
439.493805
 11
325.857635
 21
439.493805
  0
LINE
  8
0
  6
CONTINUOUS
 10
293.872498
 20
276.493805
 11
262.872498
 21
276.493805
  0
LINE
  8
0
  6
CONTINUOUS
 10
262.872498
 20
321.493805
 11
262.872498
 21
276.493805
  0
LINE
  8
0
  6
CONTINUOUS
 10
290.872498
 20
321.493805
 11
290.872498
 21
316.493805
  0
LINE
  8
0
  6
CONTINUOUS
 10
261.872498
 20
321.493805
 11
291.872498
 21
321.493805
  0
LINE
  8
0
  6
CONTINUOUS
 10
291.872498
 20
323.493805
 11
291.872498
 21
321.493805
  0
LINE
  8
0
  6
CONTINUOUS
 10
261.872498
 20
323.493805
 11
261.872498
 21
321.493805
  0
LINE
  8
0
  6
CONTINUOUS
 10
290.288910
 20
316.493805
 11
293.872498
 21
316.493805
  0
LINE
  8
0
  6
CONTINUOUS
 10
290.288910
 20
316.493805
 11
290.288910
 21
276.493805
  0
LINE
  8
0
  6
CONTINUOUS
 10
293.872498
 20
276.493805
 11
293.872498
 21
316.493805
  0
LINE
  8
0
  6
CONTINUOUS
 10
293.872498
 20
313.493805
 11
325.857635
 21
313.493805
  0
LINE
  8
0
  6
CONTINUOUS
 10
194.372498
 20
312.493805
 11
201.874542
 21
312.493805
  0
ARC
  8
0
  6
CONTINUOUS
 10
201.874542
 20
317.493805
 40
5.000000
 50
270.000000
 51
345.000031
  0
ARC
  8
0
  6
CONTINUOUS
 10
201.728027
 20
435.493805
 40
5.000000
 50
14.999846
 51
90.000000
  0
LINE
  8
0
  6
CONTINUOUS
 10
214.372498
 20
376.493805
 11
214.966888
 21
410.546143
  0
LINE
  8
0
  6
CONTINUOUS
 10
214.372498
 20
376.493805
 11
214.966888
 21
342.441437
  0
ARC
  8
0
  6
CONTINUOUS
 10
217.966431
 20
410.493805
 40
3.000000
 50
90.000000
 51
179.000000
  0
ARC
  8
0
  6
CONTINUOUS
 10
217.966431
 20
342.493805
 40
3.000000
 50
181.000000
 51
270.000000
  0
LINE
  8
0
  6
CONTINUOUS
 10
212.818146
 20
158.768936
 11
194.372498
 21
158.768936
  0
LINE
  8
0
  6
CONTINUOUS
 10
194.372498
 20
30.768730
 11
209.372498
 21
30.768730
  0
ARC
  8
0
  6
CONTINUOUS
 10
209.372513
 20
25.768711
 40
5.000000
 50
0.000000
 51
90.000000
  0
LINE
  8
0
  6
CONTINUOUS
 10
467.360596
 20
26.392803
 11
486.871399
 21
30.144865
  0
ARC
  8
0
  6
CONTINUOUS
 10
527.116028
 20
94.768829
 40
64.000099
 50
-54.681290
 51
34.093521
  0
ARC
  8
0
  6
CONTINUOUS
 10
527.116028
 20
94.768829
 40
64.000099
 50
159.894516
 51
234.681290
  0
ARC
  8
0
  6
CONTINUOUS
 10
468.115997
 20
21.768827
 40
4.000000
 50
90.000000
 51
180.000000
  0
ARC
  8
0
  6
CONTINUOUS
 10
468.115997
 20
22.464766
 40
4.000000
 50
100.885529
 51
180.000000
  0
ARC
  8
0
  6
CONTINUOUS
 10
486.115997
 20
34.072891
 40
4.000000
 50
-79.114502
 51
0.000000
  0
ARC
  8
0
  6
CONTINUOUS
 10
486.115997
 20
29.768827
 40
4.000000
 50
-90.000000
 51
0.000000
  0
LINE
  8
0
  6
CONTINUOUS
 10
586.871399
 20
26.392803
 11
567.360596
 21
30.144865
  0
ARC
  8
0
  6
CONTINUOUS
 10
586.116028
 20
21.768827
 40
4.000000
 50
0.000000
 51
90.000000
  0
ARC
  8
0
  6
CONTINUOUS
 10
586.116028
 20
22.464766
 40
4.000000
 50
0.000000
 51
79.114471
  0
ARC
  8
0
  6
CONTINUOUS
 10
568.116028
 20
34.072891
 40
4.000000
 50
180.000000
 51
259.114502
  0
ARC
  8
0
  6
CONTINUOUS
 10
568.116028
 20
29.768827
 40
4.000000
 50
180.000000
 51
270.000000
  0
LINE
  8
0
  6
CONTINUOUS
 10
258.314392
 20
30.768827
 11
295.430603
 21
30.768827
  0
LINE
  8
0
  6
CONTINUOUS
 10
255.971771
 20
29.642902
 11
253.773270
 21
26.894754
  0
ARC
  8
0
  6
CONTINUOUS
 10
251.430649
 20
28.768827
 40
3.000000
 50
270.000000
 51
321.340454
  0
ARC
  8
0
  6
CONTINUOUS
 10
258.314392
 20
27.768827
 40
3.000000
 50
90.000000
 51
141.340454
  0
LINE
  8
0
  6
CONTINUOUS
 10
297.773224
 20
29.642902
 11
299.971741
 21
26.894754
  0
ARC
  8
0
  6
CONTINUOUS
 10
302.314331
 20
28.768827
 40
3.000000
 50
-141.340454
 51
-90.000000
  0
ARC
  8
0
  6
CONTINUOUS
 10
295.430603
 20
27.768827
 40
3.000000
 50
38.659546
 51
90.000000
  0
ARC
  8
0
  6
CONTINUOUS
 10
212.818146
 20
163.768936
 40
5.000000
 50
270.000000
 51
304.539978
  0
LINE
  8
0
  6
CONTINUOUS
 10
194.372498
 20
440.493805
 11
194.372498
 21
312.493805
  0
LINE
  8
0
  6
CONTINUOUS
 10
212.872498
 20
146.368835
 11
214.372498
 21
146.368835
  0
LINE
  8
0
  6
CONTINUOUS
 10
212.872498
 20
43.168846
 11
214.372498
 21
43.168846
  0
ARC
  8
0
  6
CONTINUOUS
 10
396.825714
 20
94.768829
 40
191.053177
 50
164.330902
 51
195.669098
  0
ARC
  8
0
  6
CONTINUOUS
 10
396.825714
 20
94.768829
 40
190.053177
 50
178.548599
 51
181.478500
  0
LINE
  8
0
  6
CONTINUOUS
 10
208.872498
 20
99.768829
 11
207.867706
 21
99.768829
  0
LINE
  8
0
  6
CONTINUOUS
 10
211.372498
 20
97.268829
 11
211.372498
 21
92.268829
  0
ARC
  8
0
  6
CONTINUOUS
 10
207.867706
 20
100.767227
 40
1.000000
 50
178.182098
 51
270.000000
  0
ARC
  8
0
  6
CONTINUOUS
 10
208.872498
 20
97.268829
 40
2.500000
 50
0.000000
 51
90.000000
  0
LINE
  8
0
  6
CONTINUOUS
 10
208.872498
 20
89.768829
 11
207.867706
 21
89.768829
  0
ARC
  8
0
  6
CONTINUOUS
 10
207.867706
 20
88.770432
 40
1.000000
 50
-270.000000
 51
-178.182098
  0
ARC
  8
0
  6
CONTINUOUS
 10
208.872498
 20
92.268829
 40
2.500000
 50
-90.000000
 51
0.000000
  0
LINE
  8
0
  6
CONTINUOUS
 10
139.872498
 20
61.262829
 11
183.872498
 21
61.262829
  0
LINE
  8
0
  6
CONTINUOUS
 10
139.872498
 20
46.249828
 11
194.372498
 21
46.249828
  0
LINE
  8
0
  6
CONTINUOUS
 10
186.440475
 20
54.201828
 11
194.372498
 21
54.201828
  0
LINE
  8
0
  6
CONTINUOUS
 10
185.872498
 20
55.416561
 11
185.872498
 21
156.768951
  0
ARC
  8
0
  6
CONTINUOUS
 10
183.372543
 20
32.748249
 40
2.500000
 50
0.260773
 51
88.000000
  0
ARC
  8
0
  6
CONTINUOUS
 10
183.372498
 20
136.304367
 40
2.500000
 50
-45.000000
 51
0.000000
  0
ARC
  8
0
  6
CONTINUOUS
 10
177.657990
 20
130.589844
 40
2.500000
 50
272.000000
 51
315.000000
  0
LINE
  8
0
  6
CONTINUOUS
 10
185.872498
 20
314.493805
 11
185.872498
 21
438.493805
  0
LINE
  8
0
  6
CONTINUOUS
 10
139.872498
 20
421.493805
 11
183.436111
 21
423.015076
  0
LINE
  8
0
  6
CONTINUOUS
 10
139.872498
 20
331.493805
 11
183.436111
 21
329.972534
  0
LINE
  8
0
  6
CONTINUOUS
 10
139.872498
 20
425.505798
 11
139.872498
 21
327.481812
  0
LINE
  8
0
  6
CONTINUOUS
 10
187.872498
 20
440.493805
 11
194.372498
 21
440.493805
  0
LINE
  8
0
  6
CONTINUOUS
 10
187.872498
 20
312.493805
 11
194.372498
 21
312.493805
  0
LINE
  8
0
  6
CONTINUOUS
 10
178.729507
 20
400.493805
 11
185.844482
 21
400.493805
  0
LINE
  8
0
  6
CONTINUOUS
 10
179.334641
 20
352.493805
 11
185.844482
 21
352.493805
  0
LINE
  8
0
  6
CONTINUOUS
 10
178.729507
 20
398.289307
 11
178.729507
 21
354.576721
  0
LINE
  8
0
  6
CONTINUOUS
 10
130.872498
 20
419.493805
 11
130.872498
 21
405.493805
  0
LINE
  8
0
  6
CONTINUOUS
 10
20.872499
 20
421.493805
 11
139.872498
 21
421.493805
  0
LINE
  8
0
  6
CONTINUOUS
 10
20.872499
 20
331.493805
 11
139.872498
 21
331.493805
  0
LINE
  8
0
  6
CONTINUOUS
 10
20.872499
 20
421.493805
 11
20.872499
 21
383.359833
  0
LINE
  8
0
  6
CONTINUOUS
 10
20.872499
 20
405.493805
 11
130.872498
 21
405.493805
  0
LINE
  8
0
  6
CONTINUOUS
 10
20.872499
 20
347.493805
 11
130.872498
 21
347.493805
  0
ARC
  8
0
  6
CONTINUOUS
 10
132.872498
 20
419.493805
 40
2.000000
 50
90.000000
 51
180.000000
  0
ARC
  8
0
  6
CONTINUOUS
 10
132.872498
 20
333.493805
 40
2.000000
 50
180.000000
 51
270.000000
  0
LINE
  8
0
  6
CONTINUOUS
 10
0.372500
 20
341.493805
 11
0.372500
 21
411.493805
  0
LINE
  8
0
  6
CONTINUOUS
 10
4.913942
 20
421.493805
 11
20.872499
 21
421.493805
  0
LINE
  8
0
  6
CONTINUOUS
 10
0.872500
 20
418.493805
 11
0.872500
 21
334.493805
  0
LINE
  8
0
  6
CONTINUOUS
 10
20.872499
 20
405.493805
 11
2.622500
 21
405.493805
  0
LINE
  8
0
  6
CONTINUOUS
 10
1.449846
 20
419.493774
 11
0.872500
 21
418.493805
  0
ARC
  8
0
  6
CONTINUOUS
 10
4.913958
 20
417.493805
 40
4.000000
 50
90.000000
 51
150.000397
  0
LINE
  8
0
  6
CONTINUOUS
 10
4.913942
 20
331.493805
 11
20.872499
 21
331.493805
  0
LINE
  8
0
  6
CONTINUOUS
 10
20.872499
 20
347.493805
 11
2.622500
 21
347.493805
  0
LINE
  8
0
  6
CONTINUOUS
 10
1.449846
 20
333.493805
 11
0.872500
 21
334.493805
  0
ARC
  8
0
  6
CONTINUOUS
 10
4.913958
 20
335.493774
 40
4.000000
 50
-150.000397
 51
-90.000000
  0
LINE
  8
0
  6
CONTINUOUS
 10
0.372500
 20
411.493805
 11
0.872500
 21
411.993805
  0
LINE
  8
0
  6
CONTINUOUS
 10
0.372500
 20
341.493805
 11
0.872500
 21
340.993805
  0
LINE
  8
0
  6
CONTINUOUS
 10
139.872498
 20
421.493805
 11
139.872498
 21
331.493805
  0
ARC
  8
0
  6
CONTINUOUS
 10
187.872498
 20
438.493805
 40
2.000000
 50
90.000000
 51
180.000000
  0
ARC
  8
0
  6
CONTINUOUS
 10
187.872498
 20
314.493805
 40
2.000000
 50
180.000000
 51
270.000000
  0
ARC
  8
0
  6
CONTINUOUS
 10
183.348862
 20
425.513550
 40
2.500000
 50
272.000000
 51
359.895721
  0
ARC
  8
0
  6
CONTINUOUS
 10
183.348862
 20
327.474060
 40
2.500000
 50
0.104292
 51
88.000000
  0
LINE
  8
0
  6
CONTINUOUS
 10
185.872498
 20
423.100159
 11
185.844482
 21
423.099182
  0
LINE
  8
0
  6
CONTINUOUS
 10
140.372192
 20
426.023254
 11
185.872498
 21
427.612152
  0
LINE
  8
0
  6
CONTINUOUS
 10
139.872498
 20
425.505798
 11
140.372192
 21
426.023254
  0
LINE
  8
0
  6
CONTINUOUS
 10
140.372192
 20
326.964355
 11
185.872498
 21
325.375458
  0
LINE
  8
0
  6
CONTINUOUS
 10
139.872498
 20
327.481812
 11
140.372192
 21
326.964355
  0
LINE
  8
0
  6
CONTINUOUS
 10
14.372500
 20
370.493805
 11
14.372500
 21
382.493805
  0
LINE
  8
0
  6
CONTINUOUS
 10
21.372499
 20
370.493805
 11
21.372499
 21
382.493805
  0
LINE
  8
0
  6
CONTINUOUS
 10
15.372500
 20
383.493805
 11
20.372499
 21
383.493805
  0
LINE
  8
0
  6
CONTINUOUS
 10
20.372499
 20
369.493805
 11
15.372500
 21
369.493805
  0
ARC
  8
0
  6
CONTINUOUS
 10
20.372499
 20
382.493805
 40
1.000000
 50
0.000000
 51
90.000000
  0
ARC
  8
0
  6
CONTINUOUS
 10
15.372500
 20
382.493805
 40
1.000000
 50
90.000000
 51
180.000000
  0
ARC
  8
0
  6
CONTINUOUS
 10
15.372500
 20
370.493805
 40
1.000000
 50
180.000000
 51
270.000000
  0
ARC
  8
0
  6
CONTINUOUS
 10
20.372499
 20
370.493805
 40
1.000000
 50
-90.000000
 51
0.000000
  0
LINE
  8
0
  6
CONTINUOUS
 10
18.872499
 20
372.993805
 11
18.872499
 21
379.993805
  0
LINE
  8
0
  6
CONTINUOUS
 10
16.872499
 20
372.993805
 11
16.872499
 21
379.993805
  0
ARC
  8
0
  6
CONTINUOUS
 10
17.872499
 20
379.993805
 40
1.000000
 50
90.000000
 51
180.000000
  0
ARC
  8
0
  6
CONTINUOUS
 10
17.872499
 20
379.993805
 40
1.000000
 50
0.000000
 51
90.000000
  0
ARC
  8
0
  6
CONTINUOUS
 10
17.872499
 20
372.993805
 40
1.000000
 50
180.000000
 51
270.000000
  0
ARC
  8
0
  6
CONTINUOUS
 10
17.872499
 20
372.993805
 40
1.000000
 50
-90.000000
 51
0.000000
  0
LINE
  8
0
  6
CONTINUOUS
 10
20.872499
 20
369.627777
 11
20.872499
 21
331.493805
  0
LINE
  8
0
  6
CONTINUOUS
 10
130.872498
 20
347.493805
 11
130.872498
 21
333.493774
  0
TEXT
  8
0
 10
-13.000000
 20
-6.000000
 40
4.000000
 41
1.000000
  1
HLM-28R-1200~1800-T25
 50
0.000000
  0
ENDSEC
  0
EOF
