  0
SECTION
  2
HEADER
  9
$CLAYER
  8
1
  9
$LTSCALE
 40
3.0
  0
ENDSEC
  0
SECTION
  2
TABLES
  0
TABLE
  2
LTYPE
 70
     4
  0
LTYPE
  2
CONTINUOUS
  3
solid line
 70
    64
 72
    65
 73
     0
 40
0.0
  0
LTYPE
  2
DASHED
  3
__ __ __ __ __ __ __ __ __ __ __ __ __ __ __
 70
    64
 72
    65
 73
     2
 40
0.75
 49
0.5
 49
-0.25
  0
LTYPE
  2
CENTER
  3
____ _ ____ _ ____ _ ____ _ ____ _ ____ _ ____
 70
    64
 72
    65
 73
     4
 40
2.0
 49
1.25
 49
-0.25
 49
0.25
 49
-0.25
  0
LTYPE
  2
PHANTOM
  3
_____ _ _ _____ _ _ _____ _ _ _____ _ _ ____
 70
    64
 72
    65
 73
     6
 40
2.5
 49
1.25
 49
-0.25
 49
0.25
 49
-0.25
 49
0.25
 49
-0.25
  0
ENDTAB
  0
TABLE
  2
LAYER
 70
     1
  0
LAYER
  2
0
 70
    64
 62
     7
  6
CONTINUOUS
  0
ENDTAB
  0
TABLE
  2
STYLE
 70
     1
  0
STYLE
  2
STANDARD
 70
     0
 40
0.000000
 41
1.000000
 50
0.000000
 71
     0
 42
3.000000
  3
txt
  4
BIGFONT
  0
ENDTAB
  0
ENDSEC
  0
SECTION
  2
BLOCKS
  0
ENDSEC
  0
SECTION
  2
ENTITIES
  0
LINE
  8
0
  6
CONTINUOUS
 10
163.396255
 20
117.025078
 11
163.396255
 21
31.025059
  0
LINE
  8
0
  6
CONTINUOUS
 10
53.396252
 20
119.025078
 11
172.396255
 21
119.025078
  0
LINE
  8
0
  6
CONTINUOUS
 10
53.396252
 20
29.025078
 11
172.396255
 21
29.025078
  0
LINE
  8
0
  6
CONTINUOUS
 10
53.396252
 20
108.434380
 11
162.358566
 21
108.434380
  0
LINE
  8
0
  6
CONTINUOUS
 10
53.396252
 20
39.615780
 11
162.358566
 21
39.615780
  0
ARC
  8
0
  6
CONTINUOUS
 10
165.396255
 20
117.025101
 40
2.000000
 50
90.000000
 51
180.000000
  0
ARC
  8
0
  6
CONTINUOUS
 10
165.396255
 20
31.025078
 40
2.000000
 50
180.000000
 51
270.000000
  0
LINE
  8
0
  6
CONTINUOUS
 10
371.896240
 20
148.396698
 11
371.896240
 21
3.025078
  0
LINE
  8
0
  6
CONTINUOUS
 10
246.896255
 20
3.025078
 11
371.896240
 21
3.025078
  0
LINE
  8
0
  6
CENTER
 10
255.941055
 20
123.025078
 11
367.107513
 21
123.025078
  0
LINE
  8
0
  6
CENTER
 10
309.396240
 20
194.525040
 11
309.396240
 21
-5.474922
  0
LINE
  8
0
  6
CONTINUOUS
 10
286.950653
 20
177.525040
 11
331.841858
 21
177.525040
  0
LINE
  8
0
  6
CONTINUOUS
 10
334.676636
 20
176.643738
 11
369.731049
 21
152.515320
  0
LINE
  8
0
  6
CONTINUOUS
 10
249.896255
 20
18.025078
 11
368.896240
 21
18.025078
  0
LINE
  8
0
  6
CONTINUOUS
 10
361.896240
 20
16.487577
 11
361.896240
 21
3.025078
  0
LINE
  8
0
  6
CONTINUOUS
 10
257.896240
 20
16.487577
 11
257.896240
 21
3.025078
  0
LINE
  8
0
  6
CENTER
 10
349.396240
 20
25.275078
 11
349.396240
 21
-3.724922
  0
LINE
  8
0
  6
CENTER
 10
269.396240
 20
25.275078
 11
269.396240
 21
-2.474922
  0
LINE
  8
0
  6
DASHED
 10
354.896240
 20
18.025078
 11
354.896240
 21
3.025078
  0
LINE
  8
0
  6
DASHED
 10
343.896240
 20
18.025078
 11
343.896240
 21
3.025078
  0
LINE
  8
0
  6
DASHED
 10
274.896240
 20
18.025078
 11
274.896240
 21
3.025078
  0
LINE
  8
0
  6
DASHED
 10
263.896240
 20
18.025078
 11
263.896240
 21
3.025078
  0
ARC
  8
0
  6
CONTINUOUS
 10
289.396240
 20
73.025078
 40
26.500000
 50
170.529099
 51
270.000000
  0
ARC
  8
0
  6
CONTINUOUS
 10
329.396240
 20
73.025078
 40
26.500000
 50
-90.000000
 51
9.470950
  0
LINE
  8
0
  6
CONTINUOUS
 10
263.257446
 20
77.385551
 11
271.914246
 21
129.277924
  0
LINE
  8
0
  6
CONTINUOUS
 10
346.878235
 20
129.277924
 11
355.535065
 21
77.385582
  0
LINE
  8
0
  6
CONTINUOUS
 10
289.396240
 20
46.525078
 11
329.396240
 21
46.525078
  0
ARC
  8
0
  6
CONTINUOUS
 10
366.896240
 20
148.396637
 40
5.000000
 50
0.000000
 51
55.460110
  0
ARC
  8
0
  6
CONTINUOUS
 10
331.841858
 20
172.525040
 40
5.000000
 50
55.460079
 51
90.000000
  0
ARC
  8
0
  6
CONTINUOUS
 10
286.984650
 20
172.525040
 40
5.000000
 50
90.000000
 51
91.038872
  0
LINE
  8
0
  6
CONTINUOUS
 10
289.396240
 20
22.655851
 11
289.396240
 21
18.025078
  0
LINE
  8
0
  6
CONTINUOUS
 10
329.396240
 20
22.655851
 11
329.396240
 21
18.025078
  0
LINE
  8
0
  6
CONTINUOUS
 10
246.896255
 20
3.025078
 11
246.896255
 21
148.396652
  0
ARC
  8
0
  6
CONTINUOUS
 10
289.396240
 20
73.025078
 40
24.000000
 50
169.576294
 51
270.000000
  0
ARC
  8
0
  6
CONTINUOUS
 10
329.396240
 20
73.025078
 40
24.000000
 50
-90.000000
 51
9.471373
  0
LINE
  8
0
  6
CONTINUOUS
 10
289.396240
 20
49.025078
 11
329.396240
 21
49.025078
  0
CIRCLE
  8
0
  6
CONTINUOUS
 10
309.396240
 20
123.025078
 40
33.500000
  0
ARC
  8
0
  6
CONTINUOUS
 10
309.396240
 20
123.025078
 40
38.000000
 50
9.470961
 51
170.529099
  0
ARC
  8
0
  6
CONTINUOUS
 10
309.396240
 20
123.025078
 40
38.000000
 50
9.470963
 51
170.529007
  0
ARC
  8
0
  6
CONTINUOUS
 10
309.396240
 20
123.025078
 40
35.500000
 50
-189.470795
 51
9.471022
  0
LINE
  8
0
  6
CONTINUOUS
 10
265.723450
 20
76.974174
 11
274.380035
 21
128.866425
  0
LINE
  8
0
  6
CONTINUOUS
 10
344.412262
 20
128.866531
 11
353.069061
 21
76.974388
  0
LINE
  8
0
  6
CENTER
 10
193.598755
 20
87.025078
 11
270.646240
 21
87.025078
  0
LINE
  8
0
  6
CONTINUOUS
 10
226.896255
 20
87.025078
 11
226.896255
 21
23.024981
  0
LINE
  8
0
  6
CONTINUOUS
 10
226.896255
 20
87.025078
 11
226.896255
 21
151.025177
  0
LINE
  8
0
  6
CONTINUOUS
 10
249.061249
 20
152.515305
 11
284.115845
 21
176.643692
  0
ARC
  8
0
  6
CONTINUOUS
 10
286.950653
 20
172.525040
 40
5.000000
 50
90.000000
 51
124.540298
  0
ARC
  8
0
  6
CONTINUOUS
 10
251.896255
 20
148.396683
 40
5.000000
 50
124.540398
 51
180.000000
  0
ARC
  8
0
  6
CONTINUOUS
 10
249.896255
 20
15.025098
 40
3.000000
 50
90.000000
 51
180.000000
  0
ARC
  8
0
  6
CONTINUOUS
 10
368.896240
 20
15.025078
 40
3.000000
 50
0.000000
 51
90.000000
  0
LINE
  8
0
  6
CONTINUOUS
 10
299.099854
 20
59.025078
 11
294.939453
 21
59.025078
  0
LINE
  8
0
  6
CONTINUOUS
 10
301.396240
 20
65.993820
 11
301.396240
 21
59.025078
  0
LINE
  8
0
  6
CONTINUOUS
 10
305.396240
 20
68.525078
 11
305.396240
 21
71.025078
  0
LINE
  8
0
  6
CONTINUOUS
 10
313.396240
 20
68.525078
 11
313.396240
 21
71.025078
  0
LINE
  8
0
  6
CONTINUOUS
 10
308.615051
 20
69.556328
 11
308.615051
 21
60.337578
  0
LINE
  8
0
  6
CONTINUOUS
 10
310.115051
 20
69.556328
 11
310.115051
 21
60.337578
  0
LINE
  8
0
  6
CONTINUOUS
 10
317.990051
 20
69.556328
 11
317.990051
 21
60.275078
  0
LINE
  8
0
  6
CONTINUOUS
 10
319.365051
 20
64.634460
 11
319.365051
 21
60.275078
  0
LINE
  8
0
  6
CONTINUOUS
 10
299.498260
 20
69.431328
 11
295.643250
 21
69.431328
  0
LINE
  8
0
  6
CONTINUOUS
 10
295.643250
 20
69.431328
 11
294.740051
 21
68.311333
  0
LINE
  8
0
  6
CONTINUOUS
 10
294.848663
 20
71.025078
 11
293.396240
 21
69.165321
  0
LINE
  8
0
  6
CONTINUOUS
 10
294.740051
 20
61.397999
 11
295.657654
 21
60.431316
  0
LINE
  8
0
  6
CONTINUOUS
 10
293.396240
 20
60.582237
 11
294.939453
 21
59.025078
  0
LINE
  8
0
  6
CONTINUOUS
 10
293.396240
 20
69.165321
 11
293.396240
 21
60.582237
  0
LINE
  8
0
  6
CONTINUOUS
 10
294.740051
 20
68.311333
 11
294.740051
 21
61.397999
  0
LINE
  8
0
  6
CONTINUOUS
 10
300.240051
 20
68.714226
 11
299.483063
 21
69.431328
  0
LINE
  8
0
  6
CONTINUOUS
 10
300.228058
 20
71.025078
 11
301.396240
 21
69.728584
  0
LINE
  8
0
  6
CONTINUOUS
 10
300.240051
 20
68.525078
 11
301.396240
 21
68.525078
  0
LINE
  8
0
  6
CONTINUOUS
 10
294.848663
 20
71.025078
 11
300.228058
 21
71.025078
  0
LINE
  8
0
  6
CONTINUOUS
 10
298.146240
 20
65.993820
 11
301.396240
 21
65.993820
  0
LINE
  8
0
  6
CONTINUOUS
 10
300.240051
 20
64.681320
 11
298.146240
 21
64.681320
  0
LINE
  8
0
  6
CONTINUOUS
 10
297.740051
 20
60.431316
 11
295.657654
 21
60.431316
  0
LINE
  8
0
  6
CONTINUOUS
 10
300.240051
 20
63.431316
 11
300.240051
 21
64.431320
  0
ARC
  8
0
  6
CONTINUOUS
 10
297.740051
 20
62.931316
 40
2.500000
 50
-89.999786
 51
0.000109
  0
LINE
  8
0
  6
CONTINUOUS
 10
300.240051
 20
59.981640
 11
300.240051
 21
59.025078
  0
LINE
  8
0
  6
CONTINUOUS
 10
301.396240
 20
69.728584
 11
301.396240
 21
68.525078
  0
LINE
  8
0
  6
CONTINUOUS
 10
300.240051
 20
64.681320
 11
300.240051
 21
62.931316
  0
LINE
  8
0
  6
CONTINUOUS
 10
298.146240
 20
65.993820
 11
298.146240
 21
64.681320
  0
LINE
  8
0
  6
CONTINUOUS
 10
300.240051
 20
59.025078
 11
301.396240
 21
59.025078
  0
LINE
  8
0
  6
CONTINUOUS
 10
300.240051
 20
59.981640
 11
299.099854
 21
59.025078
  0
LINE
  8
0
  6
CONTINUOUS
 10
310.115051
 20
60.337578
 11
310.615051
 21
60.337578
  0
LINE
  8
0
  6
CONTINUOUS
 10
308.021240
 20
60.337578
 11
308.021240
 21
59.025078
  0
LINE
  8
0
  6
CONTINUOUS
 10
310.615051
 20
60.337578
 11
310.615051
 21
59.025078
  0
LINE
  8
0
  6
CONTINUOUS
 10
312.561859
 20
68.525078
 11
313.396240
 21
68.525078
  0
LINE
  8
0
  6
CONTINUOUS
 10
305.396240
 20
68.525078
 11
306.284241
 21
68.525078
  0
LINE
  8
0
  6
CONTINUOUS
 10
305.396240
 20
71.025078
 11
313.396240
 21
71.025078
  0
LINE
  8
0
  6
CONTINUOUS
 10
308.021240
 20
59.025078
 11
310.615051
 21
59.025078
  0
LINE
  8
0
  6
CONTINUOUS
 10
308.021240
 20
60.337578
 11
308.615051
 21
60.337578
  0
ARC
  8
0
  6
CONTINUOUS
 10
322.193054
 20
67.821953
 40
3.203126
 50
-73.981873
 51
90.003510
  0
ARC
  8
0
  6
CONTINUOUS
 10
322.193054
 20
67.821953
 40
1.954124
 50
-82.585274
 51
62.411850
  0
LINE
  8
0
  6
CONTINUOUS
 10
317.396240
 20
71.025078
 11
322.193054
 21
71.025078
  0
LINE
  8
0
  6
CONTINUOUS
 10
322.445251
 20
65.884155
 11
319.365051
 21
65.884155
  0
LINE
  8
0
  6
CONTINUOUS
 10
317.396240
 20
71.025078
 11
317.396240
 21
69.556328
  0
LINE
  8
0
  6
CONTINUOUS
 10
319.365051
 20
69.556328
 11
319.365051
 21
65.884155
  0
LINE
  8
0
  6
CONTINUOUS
 10
323.077057
 20
64.743195
 11
325.059448
 21
60.275078
  0
LINE
  8
0
  6
CONTINUOUS
 10
321.925446
 20
64.634460
 11
323.801636
 21
60.275078
  0
LINE
  8
0
  6
CONTINUOUS
 10
317.396240
 20
60.275078
 11
317.990051
 21
60.275078
  0
LINE
  8
0
  6
CONTINUOUS
 10
319.365051
 20
60.275078
 11
319.911865
 21
60.275078
  0
LINE
  8
0
  6
CONTINUOUS
 10
319.911865
 20
59.025078
 11
317.396240
 21
59.025078
  0
LINE
  8
0
  6
CONTINUOUS
 10
323.552460
 20
60.275078
 11
323.801636
 21
60.275078
  0
LINE
  8
0
  6
CONTINUOUS
 10
325.059448
 20
60.275078
 11
325.396240
 21
60.275078
  0
LINE
  8
0
  6
CONTINUOUS
 10
323.552460
 20
59.025078
 11
325.396240
 21
59.025078
  0
LINE
  8
0
  6
CONTINUOUS
 10
325.396240
 20
60.275078
 11
325.396240
 21
59.025078
  0
LINE
  8
0
  6
CONTINUOUS
 10
323.552460
 20
60.275078
 11
323.552460
 21
59.025078
  0
LINE
  8
0
  6
CONTINUOUS
 10
319.911865
 20
60.275078
 11
319.911865
 21
59.025078
  0
LINE
  8
0
  6
CONTINUOUS
 10
317.396240
 20
60.275078
 11
317.396240
 21
59.025078
  0
LINE
  8
0
  6
CONTINUOUS
 10
306.714050
 20
69.556328
 11
306.284241
 21
68.525078
  0
LINE
  8
0
  6
CONTINUOUS
 10
312.199463
 20
69.556328
 11
312.561859
 21
68.525078
  0
LINE
  8
0
  6
CONTINUOUS
 10
310.115051
 20
69.556328
 11
312.199463
 21
69.556328
  0
LINE
  8
0
  6
CONTINUOUS
 10
308.615051
 20
69.556328
 11
306.714050
 21
69.556328
  0
LINE
  8
0
  6
CONTINUOUS
 10
319.365051
 20
64.634460
 11
321.925446
 21
64.634460
  0
LINE
  8
0
  6
CONTINUOUS
 10
317.396240
 20
69.556328
 11
317.990051
 21
69.556328
  0
LINE
  8
0
  6
CONTINUOUS
 10
319.365051
 20
69.556328
 11
323.098053
 21
69.553902
  0
LINE
  8
0
  6
CONTINUOUS
 10
300.240051
 20
68.714226
 11
300.240051
 21
68.525078
  0
LINE
  8
0
  6
CONTINUOUS
 10
606.762268
 20
34.025078
 11
606.762268
 21
38.003799
  0
LINE
  8
0
  6
CONTINUOUS
 10
516.762268
 20
34.025078
 11
516.762268
 21
38.003738
  0
LINE
  8
0
  6
CONTINUOUS
 10
521.762268
 20
29.025078
 11
524.762268
 21
29.025078
  0
LINE
  8
0
  6
CONTINUOUS
 10
601.762268
 20
29.025078
 11
598.762268
 21
29.025078
  0
ARC
  8
0
  6
CONTINUOUS
 10
521.762268
 20
34.025078
 40
5.000000
 50
180.000000
 51
270.000000
  0
ARC
  8
0
  6
CONTINUOUS
 10
601.762268
 20
34.025078
 40
5.000000
 50
-90.000000
 51
0.000000
  0
ARC
  8
0
  6
CONTINUOUS
 10
602.774658
 20
46.013119
 40
8.000000
 50
306.780975
 51
358.958740
  0
ARC
  8
0
  6
CONTINUOUS
 10
520.750061
 20
46.012859
 40
8.000000
 50
181.041107
 51
233.216995
  0
ARC
  8
0
  6
CONTINUOUS
 10
608.762268
 20
38.003819
 40
2.000000
 50
126.781197
 51
180.000000
  0
ARC
  8
0
  6
CONTINUOUS
 10
514.762268
 20
38.003738
 40
2.000000
 50
0.000000
 51
53.217121
  0
LINE
  8
0
  6
CENTER
 10
561.762268
 20
-14.303762
 11
561.762268
 21
198.944397
  0
LINE
  8
0
  6
CENTER
 10
444.491241
 20
123.025078
 11
629.003479
 21
123.025078
  0
LINE
  8
0
  6
CONTINUOUS
 10
498.762238
 20
3.025078
 11
534.262268
 21
3.025078
  0
LINE
  8
0
  6
CONTINUOUS
 10
502.762238
 20
18.025078
 11
520.762268
 21
18.025078
  0
LINE
  8
0
  6
CONTINUOUS
 10
620.762268
 20
18.025078
 11
602.762268
 21
18.025078
  0
LINE
  8
0
  6
CONTINUOUS
 10
526.262268
 20
151.025085
 11
597.012268
 21
151.025085
  0
LINE
  8
0
  6
CONTINUOUS
 10
595.814636
 20
176.930954
 11
561.762268
 21
177.525085
  0
LINE
  8
0
  6
CONTINUOUS
 10
527.709839
 20
176.930557
 11
561.762268
 21
177.525085
  0
LINE
  8
0
  6
CONTINUOUS
 10
598.762268
 20
173.931412
 11
598.762268
 21
3.025058
  0
LINE
  8
0
  6
CONTINUOUS
 10
524.762268
 20
173.931015
 11
524.762268
 21
3.025078
  0
LINE
  8
0
  6
CONTINUOUS
 10
508.762238
 20
93.312813
 11
508.762238
 21
152.737320
  0
LINE
  8
0
  6
CONTINUOUS
 10
614.762268
 20
152.737335
 11
614.762268
 21
93.312813
  0
LINE
  8
0
  6
CONTINUOUS
 10
515.762268
 20
52.825497
 11
515.762268
 21
125.525078
  0
LINE
  8
0
  6
CONTINUOUS
 10
607.762268
 20
52.825497
 11
607.762268
 21
125.525078
  0
LINE
  8
0
  6
CONTINUOUS
 10
624.762268
 20
14.721016
 11
624.762268
 21
3.025078
  0
LINE
  8
0
  6
CONTINUOUS
 10
498.762238
 20
14.721016
 11
498.762238
 21
3.025078
  0
LINE
  8
0
  6
CENTER
 10
511.762238
 20
26.025078
 11
511.762238
 21
-8.328322
  0
LINE
  8
0
  6
CENTER
 10
611.762268
 20
26.525078
 11
611.762268
 21
-8.328322
  0
LINE
  8
0
  6
DASHED
 10
506.262238
 20
18.025078
 11
506.262238
 21
3.025078
  0
LINE
  8
0
  6
DASHED
 10
517.262268
 20
18.025078
 11
517.262268
 21
3.025078
  0
LINE
  8
0
  6
DASHED
 10
606.262268
 20
18.025078
 11
606.262268
 21
3.025078
  0
LINE
  8
0
  6
DASHED
 10
617.262268
 20
18.025078
 11
617.262268
 21
3.025078
  0
ARC
  8
0
  6
CONTINUOUS
 10
527.762268
 20
173.931046
 40
3.000000
 50
91.000526
 51
180.000000
  0
ARC
  8
0
  6
CONTINUOUS
 10
595.762268
 20
173.931396
 40
3.000000
 50
0.000000
 51
89.000580
  0
LINE
  8
0
  6
CONTINUOUS
 10
589.262268
 20
3.025078
 11
624.762268
 21
3.025078
  0
LINE
  8
0
  6
CONTINUOUS
 10
535.262268
 20
4.025078
 11
588.262268
 21
4.025078
  0
LINE
  8
0
  6
CONTINUOUS
 10
512.408447
 20
157.550598
 11
521.115845
 21
159.999557
  0
LINE
  8
0
  6
CONTINUOUS
 10
512.408447
 20
88.499557
 11
513.574463
 21
88.171631
  0
LINE
  8
0
  6
CONTINUOUS
 10
519.424072
 20
48.007919
 11
521.100464
 21
47.542236
  0
LINE
  8
0
  6
CONTINUOUS
 10
604.100464
 20
48.007919
 11
602.424072
 21
47.542236
  0
LINE
  8
0
  6
CONTINUOUS
 10
611.115845
 20
88.499565
 11
609.950073
 21
88.171631
  0
LINE
  8
0
  6
CONTINUOUS
 10
611.115845
 20
157.550598
 11
602.408630
 21
159.999557
  0
ARC
  8
0
  6
CONTINUOUS
 10
513.762268
 20
152.737350
 40
5.000000
 50
105.709000
 51
180.000000
  0
ARC
  8
0
  6
CONTINUOUS
 10
513.762268
 20
93.312851
 40
5.000000
 50
180.000000
 51
254.291702
  0
ARC
  8
0
  6
CONTINUOUS
 10
520.762268
 20
52.825539
 40
5.000000
 50
180.000000
 51
254.476196
  0
ARC
  8
0
  6
CONTINUOUS
 10
602.762268
 20
52.825497
 40
5.000000
 50
-74.475708
 51
0.000000
  0
ARC
  8
0
  6
CONTINUOUS
 10
609.762268
 20
93.312805
 40
5.000000
 50
-74.291199
 51
0.000000
  0
ARC
  8
0
  6
CONTINUOUS
 10
609.762268
 20
152.737320
 40
5.000000
 50
0.000000
 51
74.291527
  0
ARC
  8
0
  6
CONTINUOUS
 10
610.762268
 20
85.283699
 40
3.000000
 50
105.709000
 51
180.000000
  0
ARC
  8
0
  6
CONTINUOUS
 10
512.762268
 20
85.283669
 40
3.000000
 50
0.000000
 51
74.291397
  0
ARC
  8
0
  6
CONTINUOUS
 10
519.762268
 20
164.812820
 40
5.000000
 50
-74.291199
 51
0.000000
  0
ARC
  8
0
  6
CONTINUOUS
 10
603.762268
 20
164.812836
 40
5.000000
 50
180.000000
 51
254.291702
  0
ARC
  8
0
  6
CONTINUOUS
 10
603.762268
 20
42.724678
 40
5.000000
 50
105.524399
 51
180.000000
  0
ARC
  8
0
  6
CONTINUOUS
 10
519.762268
 20
42.724640
 40
5.000000
 50
0.000000
 51
74.475952
  0
LINE
  8
0
  6
CONTINUOUS
 10
589.262268
 20
3.025078
 11
588.262268
 21
4.025078
  0
LINE
  8
0
  6
CONTINUOUS
 10
534.262268
 20
3.025078
 11
535.262268
 21
4.025078
  0
LINE
  8
0
  6
CENTER
 10
484.863495
 20
87.025070
 11
641.283508
 21
87.025070
  0
LINE
  8
0
  6
CONTINUOUS
 10
319.396240
 20
119.025116
 11
319.396240
 21
127.025116
  0
LINE
  8
0
  6
CONTINUOUS
 10
326.396240
 20
119.025139
 11
326.396240
 21
127.025139
  0
LINE
  8
0
  6
CONTINUOUS
 10
326.396240
 20
119.025139
 11
319.396240
 21
119.025116
  0
LINE
  8
0
  6
CONTINUOUS
 10
326.396240
 20
127.025139
 11
319.396240
 21
127.025116
  0
ARC
  8
0
  6
CONTINUOUS
 10
309.396240
 20
123.025078
 40
14.000000
 50
16.601500
 51
343.398499
  0
LINE
  8
0
  6
CONTINUOUS
 10
461.762238
 20
109.025078
 11
461.762238
 21
137.025085
  0
LINE
  8
0
  6
CONTINUOUS
 10
506.762238
 20
137.025085
 11
461.762238
 21
137.025085
  0
LINE
  8
0
  6
CONTINUOUS
 10
506.762238
 20
109.025078
 11
461.762238
 21
109.025078
  0
LINE
  8
0
  6
CONTINUOUS
 10
506.762238
 20
138.025085
 11
506.762238
 21
108.025078
  0
LINE
  8
0
  6
CONTINUOUS
 10
508.762238
 20
108.025078
 11
506.762238
 21
108.025078
  0
ARC
  8
0
  6
CONTINUOUS
 10
497.762238
 20
123.025078
 40
4.000000
 50
-90.000000
 51
90.000000
  0
LINE
  8
0
  6
CONTINUOUS
 10
497.762238
 20
127.025078
 11
461.762238
 21
127.025078
  0
LINE
  8
0
  6
CONTINUOUS
 10
497.762238
 20
119.025078
 11
461.762238
 21
119.025078
  0
LINE
  8
0
  6
CONTINUOUS
 10
508.762238
 20
138.025085
 11
506.762238
 21
138.025085
  0
LINE
  8
0
  6
CONTINUOUS
 10
220.396255
 20
151.025177
 11
226.896255
 21
151.025177
  0
LINE
  8
0
  6
CONTINUOUS
 10
220.396255
 20
23.024981
 11
226.896255
 21
23.024981
  0
LINE
  8
0
  6
CONTINUOUS
 10
172.396255
 20
119.025078
 11
218.396255
 21
120.631432
  0
LINE
  8
0
  6
CONTINUOUS
 10
226.896255
 20
27.121897
 11
172.396255
 21
29.025078
  0
ARC
  8
0
  6
CONTINUOUS
 10
220.396271
 20
149.025208
 40
2.000000
 50
90.000000
 51
180.000000
  0
ARC
  8
0
  6
CONTINUOUS
 10
220.396255
 20
25.024981
 40
2.000000
 50
180.260773
 51
270.000000
  0
LINE
  8
0
  6
CENTER
 10
-15.937500
 20
74.025078
 11
270.646240
 21
74.025078
  0
LINE
  8
0
  6
CONTINUOUS
 10
172.396255
 20
119.025078
 11
172.396255
 21
29.025078
  0
LINE
  8
0
  6
CONTINUOUS
 10
217.664017
 20
126.792847
 11
211.949509
 21
121.078331
  0
LINE
  8
0
  6
CONTINUOUS
 10
249.159622
 20
405.750061
 11
368.302307
 21
405.750061
  0
ARC
  8
0
  6
CONTINUOUS
 10
368.302307
 20
402.750061
 40
3.000000
 50
1.000000
 51
90.000000
  0
LINE
  8
0
  6
CONTINUOUS
 10
354.390503
 20
411.103790
 11
355.280945
 21
407.937805
  0
ARC
  8
0
  6
CONTINUOUS
 10
358.168884
 20
408.750061
 40
3.000000
 50
195.708649
 51
270.000000
  0
ARC
  8
0
  6
CONTINUOUS
 10
240.973846
 20
422.976624
 40
3.000000
 50
1.500200
 51
77.801201
  0
LINE
  8
0
  6
CONTINUOUS
 10
243.972855
 20
423.055176
 11
244.328842
 21
409.460388
  0
ARC
  8
0
  6
CONTINUOUS
 10
242.241653
 20
428.841156
 40
3.000000
 50
-164.999893
 51
-102.198799
  0
LINE
  8
0
  6
CENTER
 10
-17.842501
 20
368.750061
 11
387.300110
 21
368.750061
  0
LINE
  8
0
  6
CONTINUOUS
 10
260.411133
 20
305.750061
 11
295.396240
 21
305.750061
  0
LINE
  8
0
  6
CONTINUOUS
 10
371.896240
 20
368.750061
 11
371.250427
 21
405.750061
  0
LINE
  8
0
  6
CONTINUOUS
 10
363.086151
 20
428.442719
 11
371.250427
 21
405.750061
  0
ARC
  8
0
  6
CONTINUOUS
 10
358.381378
 20
426.750061
 40
5.000000
 50
19.787489
 51
90.000000
  0
LINE
  8
0
  6
CONTINUOUS
 10
371.896240
 20
368.750061
 11
371.250427
 21
331.750061
  0
LINE
  8
0
  6
CONTINUOUS
 10
363.086151
 20
309.057373
 11
371.250427
 21
331.750061
  0
ARC
  8
0
  6
CONTINUOUS
 10
358.381378
 20
310.750061
 40
5.000000
 50
-90.000000
 51
-19.787489
  0
LINE
  8
0
  6
CONTINUOUS
 10
249.159622
 20
405.750061
 11
368.302307
 21
405.750061
  0
LINE
  8
0
  6
CENTER
 10
309.396240
 20
249.512497
 11
309.396240
 21
444.823761
  0
ARC
  8
0
  6
CONTINUOUS
 10
368.302307
 20
402.750061
 40
3.000000
 50
1.000000
 51
90.000000
  0
ARC
  8
0
  6
CONTINUOUS
 10
368.302307
 20
334.750061
 40
3.000000
 50
-90.000000
 51
-1.000000
  0
LINE
  8
0
  6
CONTINUOUS
 10
249.232849
 20
331.750061
 11
368.302307
 21
331.750061
  0
LINE
  8
0
  6
CONTINUOUS
 10
339.108521
 20
421.750061
 11
279.683990
 21
421.750061
  0
LINE
  8
0
  6
CONTINUOUS
 10
343.921753
 20
418.103790
 11
344.864990
 21
414.750061
  0
ARC
  8
0
  6
CONTINUOUS
 10
339.108521
 20
416.750061
 40
5.000000
 50
15.708638
 51
90.000000
  0
LINE
  8
0
  6
CONTINUOUS
 10
344.864990
 20
414.750061
 11
349.577271
 21
414.750061
  0
ARC
  8
0
  6
CONTINUOUS
 10
349.577271
 20
409.750061
 40
5.000000
 50
15.708638
 51
90.000000
  0
LINE
  8
0
  6
CONTINUOUS
 10
274.870728
 20
418.103790
 11
273.927490
 21
414.750061
  0
ARC
  8
0
  6
CONTINUOUS
 10
279.683990
 20
416.750061
 40
5.000000
 50
90.000000
 51
164.291367
  0
LINE
  8
0
  6
CONTINUOUS
 10
273.927490
 20
414.750061
 11
269.215240
 21
414.750061
  0
LINE
  8
0
  6
CONTINUOUS
 10
264.401978
 20
411.103790
 11
263.511566
 21
407.937805
  0
ARC
  8
0
  6
CONTINUOUS
 10
269.215240
 20
409.750061
 40
5.000000
 50
90.000000
 51
164.291367
  0
ARC
  8
0
  6
CONTINUOUS
 10
260.623596
 20
408.750061
 40
3.000000
 50
-90.000000
 51
-15.708638
  0
LINE
  8
0
  6
CONTINUOUS
 10
339.108521
 20
315.750061
 11
279.683990
 21
315.750061
  0
LINE
  8
0
  6
CONTINUOUS
 10
343.921753
 20
319.396332
 11
344.864990
 21
322.750061
  0
ARC
  8
0
  6
CONTINUOUS
 10
339.108521
 20
320.750061
 40
5.000000
 50
-90.000000
 51
-15.708638
  0
LINE
  8
0
  6
CONTINUOUS
 10
344.864990
 20
322.750061
 11
349.577271
 21
322.750061
  0
LINE
  8
0
  6
CONTINUOUS
 10
354.390503
 20
326.396332
 11
355.280945
 21
329.562286
  0
ARC
  8
0
  6
CONTINUOUS
 10
349.577271
 20
327.750061
 40
5.000000
 50
-90.000000
 51
-15.708638
  0
ARC
  8
0
  6
CONTINUOUS
 10
358.168884
 20
328.750061
 40
3.000000
 50
-270.000000
 51
-195.708633
  0
LINE
  8
0
  6
CONTINUOUS
 10
274.870728
 20
319.396332
 11
273.927490
 21
322.750061
  0
ARC
  8
0
  6
CONTINUOUS
 10
279.683990
 20
320.750061
 40
5.000000
 50
-164.291367
 51
-90.000000
  0
LINE
  8
0
  6
CONTINUOUS
 10
273.927490
 20
322.750061
 11
269.215240
 21
322.750061
  0
LINE
  8
0
  6
CONTINUOUS
 10
264.401978
 20
326.396332
 11
263.511566
 21
329.562286
  0
ARC
  8
0
  6
CONTINUOUS
 10
269.215240
 20
327.750061
 40
5.000000
 50
-164.291367
 51
-90.000000
  0
ARC
  8
0
  6
CONTINUOUS
 10
260.623596
 20
328.750061
 40
3.000000
 50
15.708638
 51
90.000000
  0
LINE
  8
0
  6
CONTINUOUS
 10
255.706345
 20
428.442719
 11
247.628510
 21
405.990234
  0
ARC
  8
0
  6
CONTINUOUS
 10
260.411133
 20
426.750061
 40
5.000000
 50
90.000000
 51
160.212509
  0
LINE
  8
0
  6
CONTINUOUS
 10
255.706345
 20
309.057373
 11
247.644348
 21
331.465790
  0
ARC
  8
0
  6
CONTINUOUS
 10
260.411133
 20
310.750061
 40
5.000000
 50
199.787491
 51
270.000000
  0
LINE
  8
0
  6
CONTINUOUS
 10
260.411133
 20
431.750061
 11
309.396240
 21
431.750061
  0
LINE
  8
0
  6
CENTER
 10
349.396240
 20
429.863342
 11
349.396240
 21
410.421936
  0
LINE
  8
0
  6
CENTER
 10
339.485352
 20
418.750061
 11
358.003906
 21
418.750061
  0
ARC
  8
0
  6
CONTINUOUS
 10
349.396240
 20
418.750061
 40
5.500000
 50
-59.465683
 51
187.598495
  0
ARC
  8
0
  6
CONTINUOUS
 10
269.396240
 20
418.750061
 40
5.500000
 50
-7.598608
 51
239.465683
  0
LINE
  8
0
  6
CENTER
 10
269.396240
 20
429.863342
 11
269.396240
 21
410.421936
  0
LINE
  8
0
  6
CENTER
 10
279.307129
 20
418.750061
 11
260.788574
 21
418.750061
  0
ARC
  8
0
  6
CONTINUOUS
 10
269.396240
 20
318.750061
 40
5.500000
 50
-239.465683
 51
7.598608
  0
LINE
  8
0
  6
CENTER
 10
279.307129
 20
318.750061
 11
260.788574
 21
318.750061
  0
LINE
  8
0
  6
CENTER
 10
269.396240
 20
307.636780
 11
269.396240
 21
327.078186
  0
LINE
  8
0
  6
CENTER
 10
349.396240
 20
307.636780
 11
349.396240
 21
327.078186
  0
LINE
  8
0
  6
CENTER
 10
339.485352
 20
318.750061
 11
358.003906
 21
318.750061
  0
ARC
  8
0
  6
CONTINUOUS
 10
349.396240
 20
318.750061
 40
5.500000
 50
-187.598602
 51
59.465683
  0
LINE
  8
0
  6
CONTINUOUS
 10
333.396240
 20
334.750061
 11
333.396240
 21
402.750061
  0
LINE
  8
0
  6
CONTINUOUS
 10
285.396240
 20
334.750061
 11
285.396240
 21
402.750061
  0
LINE
  8
0
  6
CONTINUOUS
 10
244.476547
 20
328.044128
 11
239.227921
 21
308.455963
  0
LINE
  8
0
  6
CONTINUOUS
 10
243.972855
 20
313.898010
 11
244.328842
 21
327.492798
  0
ARC
  8
0
  6
CONTINUOUS
 10
240.973846
 20
313.976624
 40
3.000000
 50
282.198792
 51
358.499786
  0
ARC
  8
0
  6
CONTINUOUS
 10
242.241653
 20
308.112000
 40
3.000000
 50
102.198799
 51
165.000031
  0
ARC
  8
0
  6
CONTINUOUS
 10
240.973846
 20
422.976624
 40
3.000000
 50
1.500200
 51
77.801201
  0
LINE
  8
0
  6
CONTINUOUS
 10
243.972855
 20
423.055176
 11
244.328842
 21
409.460388
  0
ARC
  8
0
  6
CONTINUOUS
 10
242.241653
 20
428.841156
 40
3.000000
 50
-164.999893
 51
-102.198799
  0
LINE
  8
0
  6
CONTINUOUS
 10
234.325043
 20
432.750061
 11
226.896255
 21
432.750061
  0
LINE
  8
0
  6
CONTINUOUS
 10
239.081406
 20
429.044128
 11
244.403244
 21
409.182556
  0
ARC
  8
0
  6
CONTINUOUS
 10
249.306168
 20
326.750061
 40
5.000000
 50
90.000000
 51
165.000031
  0
ARC
  8
0
  6
CONTINUOUS
 10
249.159622
 20
410.750061
 40
5.000000
 50
194.999847
 51
270.000000
  0
LINE
  8
0
  6
CONTINUOUS
 10
309.396240
 20
431.750061
 11
358.381378
 21
431.750061
  0
LINE
  8
0
  6
CONTINUOUS
 10
326.396240
 20
268.750061
 11
295.396240
 21
268.750061
  0
LINE
  8
0
  6
CONTINUOUS
 10
295.396240
 20
313.750061
 11
295.396240
 21
268.750061
  0
LINE
  8
0
  6
CONTINUOUS
 10
323.396240
 20
313.750061
 11
323.396240
 21
308.750061
  0
LINE
  8
0
  6
CONTINUOUS
 10
294.396240
 20
313.750061
 11
324.396240
 21
313.750061
  0
LINE
  8
0
  6
CONTINUOUS
 10
324.396240
 20
315.750061
 11
324.396240
 21
313.750061
  0
LINE
  8
0
  6
CONTINUOUS
 10
294.396240
 20
315.750061
 11
294.396240
 21
313.750061
  0
LINE
  8
0
  6
CONTINUOUS
 10
322.812653
 20
308.750061
 11
326.396240
 21
308.750061
  0
LINE
  8
0
  6
CONTINUOUS
 10
322.812653
 20
308.750061
 11
322.812653
 21
268.750061
  0
LINE
  8
0
  6
CONTINUOUS
 10
326.396240
 20
268.750061
 11
326.396240
 21
308.750061
  0
LINE
  8
0
  6
CONTINUOUS
 10
326.396240
 20
305.750061
 11
358.381378
 21
305.750061
  0
LINE
  8
0
  6
CONTINUOUS
 10
226.896255
 20
304.750061
 11
234.398285
 21
304.750061
  0
ARC
  8
0
  6
CONTINUOUS
 10
234.398285
 20
309.750061
 40
5.000000
 50
270.000000
 51
345.000031
  0
ARC
  8
0
  6
CONTINUOUS
 10
234.251785
 20
427.750061
 40
5.000000
 50
14.999846
 51
90.000000
  0
LINE
  8
0
  6
CONTINUOUS
 10
246.896255
 20
368.750061
 11
247.490631
 21
402.802399
  0
LINE
  8
0
  6
CONTINUOUS
 10
246.896255
 20
368.750061
 11
247.490631
 21
334.697693
  0
ARC
  8
0
  6
CONTINUOUS
 10
250.490173
 20
402.750061
 40
3.000000
 50
90.000000
 51
179.000000
  0
ARC
  8
0
  6
CONTINUOUS
 10
250.490173
 20
334.750061
 40
3.000000
 50
181.000000
 51
270.000000
  0
LINE
  8
0
  6
CONTINUOUS
 10
245.341888
 20
151.025177
 11
226.896255
 21
151.025177
  0
LINE
  8
0
  6
CONTINUOUS
 10
226.896255
 20
23.024981
 11
241.896255
 21
23.024981
  0
ARC
  8
0
  6
CONTINUOUS
 10
241.896271
 20
18.024961
 40
5.000000
 50
0.000000
 51
90.000000
  0
LINE
  8
0
  6
CONTINUOUS
 10
502.006866
 20
18.649054
 11
521.517639
 21
22.401115
  0
ARC
  8
0
  6
CONTINUOUS
 10
561.762268
 20
87.025078
 40
64.000099
 50
-54.681290
 51
34.093521
  0
ARC
  8
0
  6
CONTINUOUS
 10
561.762268
 20
87.025078
 40
64.000099
 50
159.894516
 51
234.681290
  0
ARC
  8
0
  6
CONTINUOUS
 10
502.762238
 20
14.025078
 40
4.000000
 50
90.000000
 51
180.000000
  0
ARC
  8
0
  6
CONTINUOUS
 10
502.762238
 20
14.721016
 40
4.000000
 50
100.885529
 51
180.000000
  0
ARC
  8
0
  6
CONTINUOUS
 10
520.762268
 20
26.329142
 40
4.000000
 50
-79.114502
 51
0.000000
  0
ARC
  8
0
  6
CONTINUOUS
 10
520.762268
 20
22.025078
 40
4.000000
 50
-90.000000
 51
0.000000
  0
LINE
  8
0
  6
CONTINUOUS
 10
621.517639
 20
18.649054
 11
602.006836
 21
22.401115
  0
ARC
  8
0
  6
CONTINUOUS
 10
620.762268
 20
14.025078
 40
4.000000
 50
0.000000
 51
90.000000
  0
ARC
  8
0
  6
CONTINUOUS
 10
620.762268
 20
14.721016
 40
4.000000
 50
0.000000
 51
79.114471
  0
ARC
  8
0
  6
CONTINUOUS
 10
602.762268
 20
26.329142
 40
4.000000
 50
180.000000
 51
259.114502
  0
ARC
  8
0
  6
CONTINUOUS
 10
602.762268
 20
22.025078
 40
4.000000
 50
180.000000
 51
270.000000
  0
LINE
  8
0
  6
CONTINUOUS
 10
290.838135
 20
23.025078
 11
327.954376
 21
23.025078
  0
LINE
  8
0
  6
CONTINUOUS
 10
288.495514
 20
21.899153
 11
286.297028
 21
19.151005
  0
ARC
  8
0
  6
CONTINUOUS
 10
283.954407
 20
21.025078
 40
3.000000
 50
270.000000
 51
321.340454
  0
ARC
  8
0
  6
CONTINUOUS
 10
290.838135
 20
20.025078
 40
3.000000
 50
90.000000
 51
141.340454
  0
LINE
  8
0
  6
CONTINUOUS
 10
330.296997
 20
21.899153
 11
332.495483
 21
19.151005
  0
ARC
  8
0
  6
CONTINUOUS
 10
334.838104
 20
21.025078
 40
3.000000
 50
-141.340454
 51
-90.000000
  0
ARC
  8
0
  6
CONTINUOUS
 10
327.954376
 20
20.025078
 40
3.000000
 50
38.659546
 51
90.000000
  0
ARC
  8
0
  6
CONTINUOUS
 10
245.341888
 20
156.025177
 40
5.000000
 50
270.000000
 51
304.539978
  0
LINE
  8
0
  6
CONTINUOUS
 10
226.896255
 20
432.750061
 11
226.896255
 21
304.750061
  0
LINE
  8
0
  6
CONTINUOUS
 10
245.396255
 20
138.625076
 11
246.896255
 21
138.625076
  0
LINE
  8
0
  6
CONTINUOUS
 10
245.396255
 20
35.425098
 11
246.896255
 21
35.425098
  0
ARC
  8
0
  6
CONTINUOUS
 10
429.349457
 20
87.025078
 40
191.053177
 50
164.330902
 51
195.669098
  0
ARC
  8
0
  6
CONTINUOUS
 10
429.349457
 20
87.025078
 40
190.053177
 50
178.548599
 51
181.478500
  0
LINE
  8
0
  6
CONTINUOUS
 10
241.396255
 20
92.025078
 11
240.391449
 21
92.025078
  0
LINE
  8
0
  6
CONTINUOUS
 10
243.896255
 20
89.525078
 11
243.896255
 21
84.525078
  0
ARC
  8
0
  6
CONTINUOUS
 10
240.391449
 20
93.023476
 40
1.000000
 50
178.182098
 51
270.000000
  0
ARC
  8
0
  6
CONTINUOUS
 10
241.396255
 20
89.525078
 40
2.500000
 50
0.000000
 51
90.000000
  0
LINE
  8
0
  6
CONTINUOUS
 10
241.396255
 20
82.025078
 11
240.391449
 21
82.025078
  0
ARC
  8
0
  6
CONTINUOUS
 10
240.391449
 20
81.026680
 40
1.000000
 50
-270.000000
 51
-178.182098
  0
ARC
  8
0
  6
CONTINUOUS
 10
241.396255
 20
84.525078
 40
2.500000
 50
-90.000000
 51
0.000000
  0
LINE
  8
0
  6
CONTINUOUS
 10
172.396255
 20
53.519077
 11
216.396255
 21
53.519077
  0
LINE
  8
0
  6
CONTINUOUS
 10
172.396255
 20
38.506077
 11
226.896255
 21
38.506081
  0
LINE
  8
0
  6
CONTINUOUS
 10
218.964218
 20
46.458076
 11
226.896255
 21
46.458076
  0
LINE
  8
0
  6
CONTINUOUS
 10
218.396255
 20
47.672813
 11
218.396255
 21
149.025208
  0
ARC
  8
0
  6
CONTINUOUS
 10
215.896301
 20
25.004499
 40
2.500000
 50
0.260773
 51
88.000000
  0
ARC
  8
0
  6
CONTINUOUS
 10
215.896255
 20
128.560608
 40
2.500000
 50
-45.000000
 51
0.000000
  0
ARC
  8
0
  6
CONTINUOUS
 10
210.181732
 20
122.846100
 40
2.500000
 50
272.000000
 51
315.000000
  0
LINE
  8
0
  6
CONTINUOUS
 10
218.396255
 20
306.750061
 11
218.396255
 21
430.750061
  0
LINE
  8
0
  6
CONTINUOUS
 10
172.396255
 20
413.750061
 11
215.959869
 21
415.271332
  0
LINE
  8
0
  6
CONTINUOUS
 10
172.396255
 20
323.750061
 11
215.959869
 21
322.228760
  0
LINE
  8
0
  6
CONTINUOUS
 10
172.396255
 20
417.762054
 11
172.396255
 21
319.738037
  0
LINE
  8
0
  6
CONTINUOUS
 10
220.396255
 20
432.750061
 11
226.896255
 21
432.750061
  0
LINE
  8
0
  6
CONTINUOUS
 10
220.396255
 20
304.750061
 11
226.896255
 21
304.750061
  0
LINE
  8
0
  6
CONTINUOUS
 10
211.253250
 20
392.750061
 11
218.368225
 21
392.750061
  0
LINE
  8
0
  6
CONTINUOUS
 10
211.858398
 20
344.750061
 11
218.368225
 21
344.750061
  0
LINE
  8
0
  6
CONTINUOUS
 10
211.253250
 20
390.545532
 11
211.253250
 21
346.832977
  0
LINE
  8
0
  6
CONTINUOUS
 10
163.396255
 20
411.750061
 11
163.396255
 21
397.750061
  0
LINE
  8
0
  6
CONTINUOUS
 10
53.396252
 20
413.750061
 11
172.396255
 21
413.750061
  0
LINE
  8
0
  6
CONTINUOUS
 10
53.396252
 20
323.750061
 11
172.396255
 21
323.750061
  0
LINE
  8
0
  6
CONTINUOUS
 10
53.396252
 20
397.750061
 11
163.396255
 21
397.750061
  0
LINE
  8
0
  6
CONTINUOUS
 10
53.396252
 20
339.750061
 11
163.396255
 21
339.750061
  0
ARC
  8
0
  6
CONTINUOUS
 10
165.396255
 20
411.750061
 40
2.000000
 50
90.000000
 51
180.000000
  0
ARC
  8
0
  6
CONTINUOUS
 10
165.396255
 20
325.750061
 40
2.000000
 50
180.000000
 51
270.000000
  0
LINE
  8
0
  6
CONTINUOUS
 10
172.396255
 20
413.750061
 11
172.396255
 21
323.750061
  0
ARC
  8
0
  6
CONTINUOUS
 10
220.396255
 20
430.750061
 40
2.000000
 50
90.000000
 51
180.000000
  0
ARC
  8
0
  6
CONTINUOUS
 10
220.396255
 20
306.750061
 40
2.000000
 50
180.000000
 51
270.000000
  0
ARC
  8
0
  6
CONTINUOUS
 10
215.872620
 20
417.769806
 40
2.500000
 50
272.000000
 51
359.895721
  0
ARC
  8
0
  6
CONTINUOUS
 10
215.872620
 20
319.730286
 40
2.500000
 50
0.104292
 51
88.000000
  0
LINE
  8
0
  6
CONTINUOUS
 10
218.396255
 20
415.356415
 11
218.368225
 21
415.355438
  0
LINE
  8
0
  6
CONTINUOUS
 10
172.895950
 20
418.279510
 11
218.396255
 21
419.868408
  0
LINE
  8
0
  6
CONTINUOUS
 10
172.396255
 20
417.762054
 11
172.895950
 21
418.279510
  0
LINE
  8
0
  6
CONTINUOUS
 10
172.895950
 20
319.220612
 11
218.396255
 21
317.631683
  0
LINE
  8
0
  6
CONTINUOUS
 10
172.396255
 20
319.738037
 11
172.895950
 21
319.220612
  0
LINE
  8
0
  6
CONTINUOUS
 10
43.896252
 20
413.750061
 11
53.396252
 21
413.750061
  0
LINE
  8
0
  6
CONTINUOUS
 10
53.396252
 20
397.750061
 11
43.896252
 21
397.750061
  0
LINE
  8
0
  6
CONTINUOUS
 10
43.896252
 20
323.750061
 11
53.396252
 21
323.750061
  0
LINE
  8
0
  6
CONTINUOUS
 10
53.396252
 20
323.750061
 11
53.396252
 21
361.884033
  0
LINE
  8
0
  6
CONTINUOUS
 10
53.396252
 20
339.750061
 11
43.896252
 21
339.750061
  0
LINE
  8
0
  6
CONTINUOUS
 10
46.896252
 20
362.750061
 11
46.896252
 21
374.750061
  0
LINE
  8
0
  6
CONTINUOUS
 10
53.896252
 20
362.750061
 11
53.896252
 21
374.750061
  0
LINE
  8
0
  6
CONTINUOUS
 10
47.896252
 20
375.750061
 11
52.896252
 21
375.750061
  0
LINE
  8
0
  6
CONTINUOUS
 10
52.896252
 20
361.750061
 11
47.896252
 21
361.750061
  0
ARC
  8
0
  6
CONTINUOUS
 10
52.896252
 20
374.750061
 40
1.000000
 50
0.000000
 51
90.000000
  0
ARC
  8
0
  6
CONTINUOUS
 10
47.896252
 20
374.750061
 40
1.000000
 50
90.000000
 51
180.000000
  0
ARC
  8
0
  6
CONTINUOUS
 10
47.896252
 20
362.750061
 40
1.000000
 50
180.000000
 51
270.000000
  0
ARC
  8
0
  6
CONTINUOUS
 10
52.896252
 20
362.750061
 40
1.000000
 50
-90.000000
 51
0.000000
  0
LINE
  8
0
  6
CONTINUOUS
 10
51.396252
 20
365.250061
 11
51.396252
 21
372.250061
  0
LINE
  8
0
  6
CONTINUOUS
 10
49.396252
 20
365.250061
 11
49.396252
 21
372.250061
  0
ARC
  8
0
  6
CONTINUOUS
 10
50.396252
 20
372.250061
 40
1.000000
 50
90.000000
 51
180.000000
  0
ARC
  8
0
  6
CONTINUOUS
 10
50.396252
 20
372.250061
 40
1.000000
 50
0.000000
 51
90.000000
  0
ARC
  8
0
  6
CONTINUOUS
 10
50.396252
 20
365.250061
 40
1.000000
 50
180.000000
 51
270.000000
  0
ARC
  8
0
  6
CONTINUOUS
 10
50.396252
 20
365.250061
 40
1.000000
 50
-90.000000
 51
0.000000
  0
LINE
  8
0
  6
CONTINUOUS
 10
53.396252
 20
375.616089
 11
53.396252
 21
413.750061
  0
LINE
  8
0
  6
CONTINUOUS
 10
43.896252
 20
415.750061
 11
43.896252
 21
321.750061
  0
LINE
  8
0
  6
CONTINUOUS
 10
43.896252
 20
397.750061
 11
-0.078780
 21
397.750061
  0
LINE
  8
0
  6
CONTINUOUS
 10
43.896252
 20
339.750061
 11
-0.078780
 21
339.750061
  0
LINE
  8
0
  6
CONTINUOUS
 10
1.396230
 20
415.750061
 11
43.896252
 21
415.750061
  0
LINE
  8
0
  6
CONTINUOUS
 10
1.396230
 20
321.750061
 11
43.896252
 21
321.750061
  0
ARC
  8
0
  6
CONTINUOUS
 10
1.396260
 20
410.750061
 40
5.000000
 50
90.000000
 51
180.000000
  0
ARC
  8
0
  6
CONTINUOUS
 10
1.396230
 20
326.750061
 40
5.000000
 50
180.000000
 51
270.000000
  0
LINE
  8
0
  6
CONTINUOUS
 10
-3.603740
 20
410.750061
 11
-3.603770
 21
326.750031
  0
LINE
  8
0
  6
CONTINUOUS
 10
43.896252
 20
119.025078
 11
53.396252
 21
119.025078
  0
LINE
  8
0
  6
CONTINUOUS
 10
53.396252
 20
108.434380
 11
43.896252
 21
108.434380
  0
LINE
  8
0
  6
CONTINUOUS
 10
43.896252
 20
29.025078
 11
53.396252
 21
29.025078
  0
LINE
  8
0
  6
CONTINUOUS
 10
53.396252
 20
39.615788
 11
43.896252
 21
39.615788
  0
LINE
  8
0
  6
CONTINUOUS
 10
43.896252
 20
121.025078
 11
43.896252
 21
27.025078
  0
LINE
  8
0
  6
CONTINUOUS
 10
43.896252
 20
103.025078
 11
-0.078780
 21
103.025078
  0
LINE
  8
0
  6
CONTINUOUS
 10
43.896252
 20
45.025078
 11
-0.078780
 21
45.025078
  0
LINE
  8
0
  6
CONTINUOUS
 10
53.896252
 20
120.525078
 11
53.896252
 21
119.025078
  0
LINE
  8
0
  6
CONTINUOUS
 10
46.896252
 20
120.525078
 11
46.896252
 21
119.025078
  0
LINE
  8
0
  6
CONTINUOUS
 10
46.896252
 20
120.525078
 11
53.896252
 21
120.525078
  0
LINE
  8
0
  6
CONTINUOUS
 10
51.296242
 20
133.525085
 11
51.296242
 21
120.525078
  0
LINE
  8
0
  6
CONTINUOUS
 10
49.496239
 20
134.150085
 11
49.496239
 21
120.525078
  0
LINE
  8
0
  6
CONTINUOUS
 10
47.696239
 20
132.087585
 11
47.696239
 21
120.525078
  0
LINE
  8
0
  6
CONTINUOUS
 10
53.096249
 20
132.900085
 11
53.096249
 21
120.525078
  0
LINE
  8
0
  6
CONTINUOUS
 10
49.496239
 20
134.150085
 11
51.296242
 21
133.525085
  0
LINE
  8
0
  6
CONTINUOUS
 10
47.696239
 20
132.087585
 11
49.496239
 21
132.712585
  0
LINE
  8
0
  6
CONTINUOUS
 10
53.096249
 20
132.900085
 11
51.297249
 21
132.452377
  0
LINE
  8
0
  6
CONTINUOUS
 10
1.396230
 20
121.025078
 11
43.896252
 21
121.025078
  0
LINE
  8
0
  6
CONTINUOUS
 10
1.396230
 20
27.025078
 11
43.896252
 21
27.025078
  0
ARC
  8
0
  6
CONTINUOUS
 10
1.396260
 20
116.025078
 40
5.000000
 50
90.000000
 51
180.000000
  0
ARC
  8
0
  6
CONTINUOUS
 10
1.396230
 20
32.025078
 40
5.000000
 50
180.000000
 51
270.000000
  0
LINE
  8
0
  6
CONTINUOUS
 10
-3.603740
 20
116.025078
 11
-3.603770
 21
32.025066
  0
LINE
  8
0
  6
CONTINUOUS
 10
53.396252
 20
29.025078
 11
53.396252
 21
119.025078
  0
LINE
  8
0
  6
CONTINUOUS
 10
163.396255
 20
339.750061
 11
163.396255
 21
325.750031
  0
TEXT
  8
0
 10
-17.000000
 20
-14.000000
 40
4.000000
 41
1.000000
  1
HLM-28R-300~450-T90W
 50
0.000000
  0
ENDSEC
  0
EOF
