  0
SECTION
  2
HEADER
  9
$CLAYER
  8
1
  9
$LTSCALE
 40
3.0
  0
ENDSEC
  0
SECTION
  2
TABLES
  0
TABLE
  2
LTYPE
 70
     4
  0
LTYPE
  2
CONTINUOUS
  3
solid line
 70
    64
 72
    65
 73
     0
 40
0.0
  0
LTYPE
  2
DASHED
  3
__ __ __ __ __ __ __ __ __ __ __ __ __ __ __
 70
    64
 72
    65
 73
     2
 40
0.75
 49
0.5
 49
-0.25
  0
LTYPE
  2
CENTER
  3
____ _ ____ _ ____ _ ____ _ ____ _ ____ _ ____
 70
    64
 72
    65
 73
     4
 40
2.0
 49
1.25
 49
-0.25
 49
0.25
 49
-0.25
  0
LTYPE
  2
PHANTOM
  3
_____ _ _ _____ _ _ _____ _ _ _____ _ _ ____
 70
    64
 72
    65
 73
     6
 40
2.5
 49
1.25
 49
-0.25
 49
0.25
 49
-0.25
 49
0.25
 49
-0.25
  0
ENDTAB
  0
TABLE
  2
LAYER
 70
     1
  0
LAYER
  2
0
 70
    64
 62
     7
  6
CONTINUOUS
  0
ENDTAB
  0
TABLE
  2
STYLE
 70
     1
  0
STYLE
  2
STANDARD
 70
     0
 40
0.000000
 41
1.000000
 50
0.000000
 71
     0
 42
3.000000
  3
txt
  4
BIGFONT
  0
ENDTAB
  0
ENDSEC
  0
SECTION
  2
BLOCKS
  0
ENDSEC
  0
SECTION
  2
ENTITIES
  0
LINE
  8
0
  6
CONTINUOUS
 10
134.626251
 20
117.025078
 11
134.626251
 21
31.025059
  0
LINE
  8
0
  6
CONTINUOUS
 10
24.626249
 20
119.025078
 11
143.626251
 21
119.025078
  0
LINE
  8
0
  6
CONTINUOUS
 10
24.626249
 20
29.025078
 11
143.626251
 21
29.025078
  0
LINE
  8
0
  6
CONTINUOUS
 10
24.626249
 20
119.025078
 11
24.626249
 21
29.025078
  0
LINE
  8
0
  6
CONTINUOUS
 10
24.626249
 20
108.434380
 11
133.588577
 21
108.434380
  0
LINE
  8
0
  6
CONTINUOUS
 10
24.626249
 20
39.615780
 11
133.588577
 21
39.615780
  0
ARC
  8
0
  6
CONTINUOUS
 10
136.626251
 20
117.025101
 40
2.000000
 50
90.000000
 51
180.000000
  0
ARC
  8
0
  6
CONTINUOUS
 10
136.626251
 20
31.025078
 40
2.000000
 50
180.000000
 51
270.000000
  0
LINE
  8
0
  6
CONTINUOUS
 10
4.126250
 20
39.025078
 11
4.126250
 21
109.025078
  0
LINE
  8
0
  6
CONTINUOUS
 10
8.667692
 20
119.025078
 11
24.626249
 21
119.025078
  0
LINE
  8
0
  6
CONTINUOUS
 10
4.626250
 20
116.025078
 11
4.626250
 21
32.025078
  0
LINE
  8
0
  6
CONTINUOUS
 10
24.626249
 20
108.434380
 11
6.376250
 21
108.434380
  0
LINE
  8
0
  6
CONTINUOUS
 10
5.203596
 20
117.025055
 11
4.626250
 21
116.025078
  0
ARC
  8
0
  6
CONTINUOUS
 10
8.667708
 20
115.025078
 40
4.000000
 50
90.000000
 51
150.000397
  0
LINE
  8
0
  6
CONTINUOUS
 10
8.667692
 20
29.025078
 11
24.626249
 21
29.025078
  0
LINE
  8
0
  6
CONTINUOUS
 10
24.626249
 20
39.615780
 11
6.376250
 21
39.615780
  0
LINE
  8
0
  6
CONTINUOUS
 10
5.203596
 20
31.025078
 11
4.626250
 21
32.025078
  0
ARC
  8
0
  6
CONTINUOUS
 10
8.667708
 20
33.025059
 40
4.000000
 50
-150.000397
 51
-90.000000
  0
LINE
  8
0
  6
CONTINUOUS
 10
4.126250
 20
109.025078
 11
4.626250
 21
109.525078
  0
LINE
  8
0
  6
CONTINUOUS
 10
4.126250
 20
39.025078
 11
4.626250
 21
38.525078
  0
LINE
  8
0
  6
CONTINUOUS
 10
343.126251
 20
148.396698
 11
343.126251
 21
3.025078
  0
LINE
  8
0
  6
CONTINUOUS
 10
218.126251
 20
3.025078
 11
343.126251
 21
3.025078
  0
LINE
  8
0
  6
CENTER
 10
227.171051
 20
123.025078
 11
338.337494
 21
123.025078
  0
LINE
  8
0
  6
CENTER
 10
280.626251
 20
194.525040
 11
280.626251
 21
-5.474922
  0
LINE
  8
0
  6
CONTINUOUS
 10
258.180664
 20
177.525040
 11
303.071838
 21
177.525040
  0
LINE
  8
0
  6
CONTINUOUS
 10
305.906647
 20
176.643738
 11
340.961060
 21
152.515320
  0
LINE
  8
0
  6
CONTINUOUS
 10
221.126251
 20
18.025078
 11
340.126251
 21
18.025078
  0
LINE
  8
0
  6
CONTINUOUS
 10
333.126251
 20
16.487577
 11
333.126251
 21
3.025078
  0
LINE
  8
0
  6
CONTINUOUS
 10
229.126251
 20
16.487577
 11
229.126251
 21
3.025078
  0
LINE
  8
0
  6
CENTER
 10
320.626251
 20
25.275078
 11
320.626251
 21
-3.724922
  0
LINE
  8
0
  6
CENTER
 10
240.626251
 20
25.275078
 11
240.626251
 21
-2.474922
  0
LINE
  8
0
  6
DASHED
 10
326.126251
 20
18.025078
 11
326.126251
 21
3.025078
  0
LINE
  8
0
  6
DASHED
 10
315.126251
 20
18.025078
 11
315.126251
 21
3.025078
  0
LINE
  8
0
  6
DASHED
 10
246.126251
 20
18.025078
 11
246.126251
 21
3.025078
  0
LINE
  8
0
  6
DASHED
 10
235.126251
 20
18.025078
 11
235.126251
 21
3.025078
  0
ARC
  8
0
  6
CONTINUOUS
 10
260.626251
 20
73.025078
 40
26.500000
 50
170.529099
 51
270.000000
  0
ARC
  8
0
  6
CONTINUOUS
 10
300.626251
 20
73.025078
 40
26.500000
 50
-90.000000
 51
9.470950
  0
LINE
  8
0
  6
CONTINUOUS
 10
234.487457
 20
77.385551
 11
243.144257
 21
129.277924
  0
LINE
  8
0
  6
CONTINUOUS
 10
318.108246
 20
129.277924
 11
326.765045
 21
77.385582
  0
LINE
  8
0
  6
CONTINUOUS
 10
260.626251
 20
46.525078
 11
300.626251
 21
46.525078
  0
ARC
  8
0
  6
CONTINUOUS
 10
338.126251
 20
148.396637
 40
5.000000
 50
0.000000
 51
55.460110
  0
ARC
  8
0
  6
CONTINUOUS
 10
303.071838
 20
172.525040
 40
5.000000
 50
55.460079
 51
90.000000
  0
ARC
  8
0
  6
CONTINUOUS
 10
258.214661
 20
172.525040
 40
5.000000
 50
90.000000
 51
91.038872
  0
LINE
  8
0
  6
CONTINUOUS
 10
260.626251
 20
22.655851
 11
260.626251
 21
18.025078
  0
LINE
  8
0
  6
CONTINUOUS
 10
300.626251
 20
22.655851
 11
300.626251
 21
18.025078
  0
LINE
  8
0
  6
CONTINUOUS
 10
218.126251
 20
3.025078
 11
218.126251
 21
148.396652
  0
ARC
  8
0
  6
CONTINUOUS
 10
260.626251
 20
73.025078
 40
24.000000
 50
169.576294
 51
270.000000
  0
ARC
  8
0
  6
CONTINUOUS
 10
300.626251
 20
73.025078
 40
24.000000
 50
-90.000000
 51
9.471373
  0
LINE
  8
0
  6
CONTINUOUS
 10
260.626251
 20
49.025078
 11
300.626251
 21
49.025078
  0
CIRCLE
  8
0
  6
CONTINUOUS
 10
280.626251
 20
123.025078
 40
33.500000
  0
ARC
  8
0
  6
CONTINUOUS
 10
280.626251
 20
123.025078
 40
38.000000
 50
9.470961
 51
170.529099
  0
ARC
  8
0
  6
CONTINUOUS
 10
280.626251
 20
123.025078
 40
38.000000
 50
9.470963
 51
170.529007
  0
ARC
  8
0
  6
CONTINUOUS
 10
280.626251
 20
123.025078
 40
35.500000
 50
-189.470795
 51
9.471022
  0
LINE
  8
0
  6
CONTINUOUS
 10
236.953445
 20
76.974174
 11
245.610046
 21
128.866425
  0
LINE
  8
0
  6
CONTINUOUS
 10
315.642242
 20
128.866531
 11
324.299042
 21
76.974388
  0
LINE
  8
0
  6
CENTER
 10
118.479378
 20
87.025078
 11
244.315308
 21
87.025078
  0
LINE
  8
0
  6
CONTINUOUS
 10
198.126251
 20
87.025078
 11
198.126251
 21
23.024981
  0
LINE
  8
0
  6
CONTINUOUS
 10
198.126251
 20
87.025078
 11
198.126251
 21
151.025177
  0
LINE
  8
0
  6
CONTINUOUS
 10
220.291245
 20
152.515305
 11
255.345856
 21
176.643692
  0
ARC
  8
0
  6
CONTINUOUS
 10
258.180664
 20
172.525040
 40
5.000000
 50
90.000000
 51
124.540298
  0
ARC
  8
0
  6
CONTINUOUS
 10
223.126251
 20
148.396683
 40
5.000000
 50
124.540398
 51
180.000000
  0
ARC
  8
0
  6
CONTINUOUS
 10
221.126251
 20
15.025098
 40
3.000000
 50
90.000000
 51
180.000000
  0
ARC
  8
0
  6
CONTINUOUS
 10
340.126251
 20
15.025078
 40
3.000000
 50
0.000000
 51
90.000000
  0
LINE
  8
0
  6
CONTINUOUS
 10
270.329865
 20
59.025078
 11
266.169464
 21
59.025078
  0
LINE
  8
0
  6
CONTINUOUS
 10
272.626251
 20
65.993820
 11
272.626251
 21
59.025078
  0
LINE
  8
0
  6
CONTINUOUS
 10
276.626251
 20
68.525078
 11
276.626251
 21
71.025078
  0
LINE
  8
0
  6
CONTINUOUS
 10
284.626251
 20
68.525078
 11
284.626251
 21
71.025078
  0
LINE
  8
0
  6
CONTINUOUS
 10
279.845062
 20
69.556328
 11
279.845062
 21
60.337578
  0
LINE
  8
0
  6
CONTINUOUS
 10
281.345062
 20
69.556328
 11
281.345062
 21
60.337578
  0
LINE
  8
0
  6
CONTINUOUS
 10
289.220062
 20
69.556328
 11
289.220062
 21
60.275078
  0
LINE
  8
0
  6
CONTINUOUS
 10
290.595062
 20
64.634460
 11
290.595062
 21
60.275078
  0
LINE
  8
0
  6
CONTINUOUS
 10
270.728241
 20
69.431328
 11
266.873260
 21
69.431328
  0
LINE
  8
0
  6
CONTINUOUS
 10
266.873260
 20
69.431328
 11
265.970062
 21
68.311333
  0
LINE
  8
0
  6
CONTINUOUS
 10
266.078644
 20
71.025078
 11
264.626251
 21
69.165321
  0
LINE
  8
0
  6
CONTINUOUS
 10
265.970062
 20
61.397999
 11
266.887665
 21
60.431316
  0
LINE
  8
0
  6
CONTINUOUS
 10
264.626251
 20
60.582237
 11
266.169464
 21
59.025078
  0
LINE
  8
0
  6
CONTINUOUS
 10
264.626251
 20
69.165321
 11
264.626251
 21
60.582237
  0
LINE
  8
0
  6
CONTINUOUS
 10
265.970062
 20
68.311333
 11
265.970062
 21
61.397999
  0
LINE
  8
0
  6
CONTINUOUS
 10
271.470062
 20
68.714226
 11
270.713043
 21
69.431328
  0
LINE
  8
0
  6
CONTINUOUS
 10
271.458038
 20
71.025078
 11
272.626251
 21
69.728584
  0
LINE
  8
0
  6
CONTINUOUS
 10
271.470062
 20
68.525078
 11
272.626251
 21
68.525078
  0
LINE
  8
0
  6
CONTINUOUS
 10
266.078644
 20
71.025078
 11
271.458038
 21
71.025078
  0
LINE
  8
0
  6
CONTINUOUS
 10
269.376251
 20
65.993820
 11
272.626251
 21
65.993820
  0
LINE
  8
0
  6
CONTINUOUS
 10
271.470062
 20
64.681320
 11
269.376251
 21
64.681320
  0
LINE
  8
0
  6
CONTINUOUS
 10
268.970062
 20
60.431316
 11
266.887665
 21
60.431316
  0
LINE
  8
0
  6
CONTINUOUS
 10
271.470062
 20
63.431316
 11
271.470062
 21
64.431320
  0
ARC
  8
0
  6
CONTINUOUS
 10
268.970062
 20
62.931316
 40
2.500000
 50
-89.999786
 51
0.000109
  0
LINE
  8
0
  6
CONTINUOUS
 10
271.470062
 20
59.981640
 11
271.470062
 21
59.025078
  0
LINE
  8
0
  6
CONTINUOUS
 10
272.626251
 20
69.728584
 11
272.626251
 21
68.525078
  0
LINE
  8
0
  6
CONTINUOUS
 10
271.470062
 20
64.681320
 11
271.470062
 21
62.931316
  0
LINE
  8
0
  6
CONTINUOUS
 10
269.376251
 20
65.993820
 11
269.376251
 21
64.681320
  0
LINE
  8
0
  6
CONTINUOUS
 10
271.470062
 20
59.025078
 11
272.626251
 21
59.025078
  0
LINE
  8
0
  6
CONTINUOUS
 10
271.470062
 20
59.981640
 11
270.329865
 21
59.025078
  0
LINE
  8
0
  6
CONTINUOUS
 10
281.345062
 20
60.337578
 11
281.845062
 21
60.337578
  0
LINE
  8
0
  6
CONTINUOUS
 10
279.251251
 20
60.337578
 11
279.251251
 21
59.025078
  0
LINE
  8
0
  6
CONTINUOUS
 10
281.845062
 20
60.337578
 11
281.845062
 21
59.025078
  0
LINE
  8
0
  6
CONTINUOUS
 10
283.791840
 20
68.525078
 11
284.626251
 21
68.525078
  0
LINE
  8
0
  6
CONTINUOUS
 10
276.626251
 20
68.525078
 11
277.514252
 21
68.525078
  0
LINE
  8
0
  6
CONTINUOUS
 10
276.626251
 20
71.025078
 11
284.626251
 21
71.025078
  0
LINE
  8
0
  6
CONTINUOUS
 10
279.251251
 20
59.025078
 11
281.845062
 21
59.025078
  0
LINE
  8
0
  6
CONTINUOUS
 10
279.251251
 20
60.337578
 11
279.845062
 21
60.337578
  0
ARC
  8
0
  6
CONTINUOUS
 10
293.423065
 20
67.821953
 40
3.203126
 50
-73.981873
 51
90.003510
  0
ARC
  8
0
  6
CONTINUOUS
 10
293.423065
 20
67.821953
 40
1.954124
 50
-82.585274
 51
62.411850
  0
LINE
  8
0
  6
CONTINUOUS
 10
288.626251
 20
71.025078
 11
293.423065
 21
71.025078
  0
LINE
  8
0
  6
CONTINUOUS
 10
293.675262
 20
65.884155
 11
290.595062
 21
65.884155
  0
LINE
  8
0
  6
CONTINUOUS
 10
288.626251
 20
71.025078
 11
288.626251
 21
69.556328
  0
LINE
  8
0
  6
CONTINUOUS
 10
290.595062
 20
69.556328
 11
290.595062
 21
65.884155
  0
LINE
  8
0
  6
CONTINUOUS
 10
294.307037
 20
64.743195
 11
296.289459
 21
60.275078
  0
LINE
  8
0
  6
CONTINUOUS
 10
293.155457
 20
64.634460
 11
295.031647
 21
60.275078
  0
LINE
  8
0
  6
CONTINUOUS
 10
288.626251
 20
60.275078
 11
289.220062
 21
60.275078
  0
LINE
  8
0
  6
CONTINUOUS
 10
290.595062
 20
60.275078
 11
291.141846
 21
60.275078
  0
LINE
  8
0
  6
CONTINUOUS
 10
291.141846
 20
59.025078
 11
288.626251
 21
59.025078
  0
LINE
  8
0
  6
CONTINUOUS
 10
294.782440
 20
60.275078
 11
295.031647
 21
60.275078
  0
LINE
  8
0
  6
CONTINUOUS
 10
296.289459
 20
60.275078
 11
296.626251
 21
60.275078
  0
LINE
  8
0
  6
CONTINUOUS
 10
294.782440
 20
59.025078
 11
296.626251
 21
59.025078
  0
LINE
  8
0
  6
CONTINUOUS
 10
296.626251
 20
60.275078
 11
296.626251
 21
59.025078
  0
LINE
  8
0
  6
CONTINUOUS
 10
294.782440
 20
60.275078
 11
294.782440
 21
59.025078
  0
LINE
  8
0
  6
CONTINUOUS
 10
291.141846
 20
60.275078
 11
291.141846
 21
59.025078
  0
LINE
  8
0
  6
CONTINUOUS
 10
288.626251
 20
60.275078
 11
288.626251
 21
59.025078
  0
LINE
  8
0
  6
CONTINUOUS
 10
277.944061
 20
69.556328
 11
277.514252
 21
68.525078
  0
LINE
  8
0
  6
CONTINUOUS
 10
283.429443
 20
69.556328
 11
283.791840
 21
68.525078
  0
LINE
  8
0
  6
CONTINUOUS
 10
281.345062
 20
69.556328
 11
283.429443
 21
69.556328
  0
LINE
  8
0
  6
CONTINUOUS
 10
279.845062
 20
69.556328
 11
277.944061
 21
69.556328
  0
LINE
  8
0
  6
CONTINUOUS
 10
290.595062
 20
64.634460
 11
293.155457
 21
64.634460
  0
LINE
  8
0
  6
CONTINUOUS
 10
288.626251
 20
69.556328
 11
289.220062
 21
69.556328
  0
LINE
  8
0
  6
CONTINUOUS
 10
290.595062
 20
69.556328
 11
294.328064
 21
69.553902
  0
LINE
  8
0
  6
CONTINUOUS
 10
271.470062
 20
68.714226
 11
271.470062
 21
68.525078
  0
LINE
  8
0
  6
CONTINUOUS
 10
585.079773
 20
34.025078
 11
585.079773
 21
38.003799
  0
LINE
  8
0
  6
CONTINUOUS
 10
495.079742
 20
34.025078
 11
495.079742
 21
38.003738
  0
LINE
  8
0
  6
CONTINUOUS
 10
500.079742
 20
29.025078
 11
503.079742
 21
29.025078
  0
LINE
  8
0
  6
CONTINUOUS
 10
580.079773
 20
29.025078
 11
577.079773
 21
29.025078
  0
ARC
  8
0
  6
CONTINUOUS
 10
500.079742
 20
34.025078
 40
5.000000
 50
180.000000
 51
270.000000
  0
ARC
  8
0
  6
CONTINUOUS
 10
580.079773
 20
34.025078
 40
5.000000
 50
-90.000000
 51
0.000000
  0
ARC
  8
0
  6
CONTINUOUS
 10
581.092163
 20
46.013119
 40
8.000000
 50
306.780975
 51
358.958740
  0
ARC
  8
0
  6
CONTINUOUS
 10
499.067535
 20
46.012859
 40
8.000000
 50
181.041107
 51
233.216995
  0
ARC
  8
0
  6
CONTINUOUS
 10
587.079773
 20
38.003819
 40
2.000000
 50
126.781197
 51
180.000000
  0
ARC
  8
0
  6
CONTINUOUS
 10
493.079742
 20
38.003738
 40
2.000000
 50
0.000000
 51
53.217121
  0
LINE
  8
0
  6
CENTER
 10
540.079773
 20
-14.303762
 11
540.079773
 21
198.944397
  0
LINE
  8
0
  6
CENTER
 10
422.808746
 20
123.025078
 11
657.116760
 21
123.025078
  0
LINE
  8
0
  6
CONTINUOUS
 10
477.079742
 20
3.025078
 11
512.579773
 21
3.025078
  0
LINE
  8
0
  6
CONTINUOUS
 10
481.079742
 20
18.025078
 11
499.079742
 21
18.025078
  0
LINE
  8
0
  6
CONTINUOUS
 10
599.079773
 20
18.025078
 11
581.079773
 21
18.025078
  0
LINE
  8
0
  6
CONTINUOUS
 10
504.579742
 20
151.025085
 11
575.329773
 21
151.025085
  0
LINE
  8
0
  6
CONTINUOUS
 10
574.132141
 20
176.930954
 11
540.079773
 21
177.525085
  0
LINE
  8
0
  6
CONTINUOUS
 10
506.027344
 20
176.930557
 11
540.079773
 21
177.525085
  0
LINE
  8
0
  6
CONTINUOUS
 10
577.079773
 20
173.931412
 11
577.079773
 21
3.025058
  0
LINE
  8
0
  6
CONTINUOUS
 10
503.079742
 20
173.931015
 11
503.079742
 21
3.025078
  0
LINE
  8
0
  6
CONTINUOUS
 10
487.079742
 20
93.312813
 11
487.079742
 21
152.737320
  0
LINE
  8
0
  6
CONTINUOUS
 10
593.079773
 20
152.737335
 11
593.079773
 21
93.312813
  0
LINE
  8
0
  6
CONTINUOUS
 10
494.079742
 20
52.825497
 11
494.079742
 21
125.525078
  0
LINE
  8
0
  6
CONTINUOUS
 10
586.079773
 20
52.825497
 11
586.079773
 21
125.525078
  0
LINE
  8
0
  6
CONTINUOUS
 10
603.079773
 20
14.721016
 11
603.079773
 21
3.025078
  0
LINE
  8
0
  6
CONTINUOUS
 10
477.079742
 20
14.721016
 11
477.079742
 21
3.025078
  0
LINE
  8
0
  6
CENTER
 10
490.079742
 20
26.025078
 11
490.079742
 21
-8.328322
  0
LINE
  8
0
  6
CENTER
 10
590.079773
 20
26.525078
 11
590.079773
 21
-8.328322
  0
LINE
  8
0
  6
DASHED
 10
484.579742
 20
18.025078
 11
484.579742
 21
3.025078
  0
LINE
  8
0
  6
DASHED
 10
495.579742
 20
18.025078
 11
495.579742
 21
3.025078
  0
LINE
  8
0
  6
DASHED
 10
584.579773
 20
18.025078
 11
584.579773
 21
3.025078
  0
LINE
  8
0
  6
DASHED
 10
595.579773
 20
18.025078
 11
595.579773
 21
3.025078
  0
ARC
  8
0
  6
CONTINUOUS
 10
506.079742
 20
173.931046
 40
3.000000
 50
91.000526
 51
180.000000
  0
ARC
  8
0
  6
CONTINUOUS
 10
574.079773
 20
173.931396
 40
3.000000
 50
0.000000
 51
89.000580
  0
LINE
  8
0
  6
CONTINUOUS
 10
567.579773
 20
3.025078
 11
603.079773
 21
3.025078
  0
LINE
  8
0
  6
CONTINUOUS
 10
513.579773
 20
4.025078
 11
566.579773
 21
4.025078
  0
LINE
  8
0
  6
CONTINUOUS
 10
490.725952
 20
157.550598
 11
499.433350
 21
159.999557
  0
LINE
  8
0
  6
CONTINUOUS
 10
490.725952
 20
88.499557
 11
491.891937
 21
88.171631
  0
LINE
  8
0
  6
CONTINUOUS
 10
497.741547
 20
48.007919
 11
499.417938
 21
47.542236
  0
LINE
  8
0
  6
CONTINUOUS
 10
582.417969
 20
48.007919
 11
580.741577
 21
47.542236
  0
LINE
  8
0
  6
CONTINUOUS
 10
589.433350
 20
88.499565
 11
588.267578
 21
88.171631
  0
LINE
  8
0
  6
CONTINUOUS
 10
589.433350
 20
157.550598
 11
580.726135
 21
159.999557
  0
ARC
  8
0
  6
CONTINUOUS
 10
492.079742
 20
152.737350
 40
5.000000
 50
105.709000
 51
180.000000
  0
ARC
  8
0
  6
CONTINUOUS
 10
492.079742
 20
93.312851
 40
5.000000
 50
180.000000
 51
254.291702
  0
ARC
  8
0
  6
CONTINUOUS
 10
499.079742
 20
52.825539
 40
5.000000
 50
180.000000
 51
254.476196
  0
ARC
  8
0
  6
CONTINUOUS
 10
581.079773
 20
52.825497
 40
5.000000
 50
-74.475708
 51
0.000000
  0
ARC
  8
0
  6
CONTINUOUS
 10
588.079773
 20
93.312805
 40
5.000000
 50
-74.291199
 51
0.000000
  0
ARC
  8
0
  6
CONTINUOUS
 10
588.079773
 20
152.737320
 40
5.000000
 50
0.000000
 51
74.291527
  0
ARC
  8
0
  6
CONTINUOUS
 10
589.079773
 20
85.283699
 40
3.000000
 50
105.709000
 51
180.000000
  0
ARC
  8
0
  6
CONTINUOUS
 10
491.079742
 20
85.283669
 40
3.000000
 50
0.000000
 51
74.291397
  0
ARC
  8
0
  6
CONTINUOUS
 10
498.079742
 20
164.812820
 40
5.000000
 50
-74.291199
 51
0.000000
  0
ARC
  8
0
  6
CONTINUOUS
 10
582.079773
 20
164.812836
 40
5.000000
 50
180.000000
 51
254.291702
  0
ARC
  8
0
  6
CONTINUOUS
 10
582.079773
 20
42.724678
 40
5.000000
 50
105.524399
 51
180.000000
  0
ARC
  8
0
  6
CONTINUOUS
 10
498.079742
 20
42.724640
 40
5.000000
 50
0.000000
 51
74.475952
  0
LINE
  8
0
  6
CONTINUOUS
 10
567.579773
 20
3.025078
 11
566.579773
 21
4.025078
  0
LINE
  8
0
  6
CONTINUOUS
 10
512.579773
 20
3.025078
 11
513.579773
 21
4.025078
  0
LINE
  8
0
  6
CENTER
 10
463.181000
 20
87.025070
 11
619.601013
 21
87.025070
  0
LINE
  8
0
  6
CONTINUOUS
 10
290.626251
 20
119.025116
 11
290.626251
 21
127.025116
  0
LINE
  8
0
  6
CONTINUOUS
 10
297.626251
 20
119.025139
 11
297.626251
 21
127.025139
  0
LINE
  8
0
  6
CONTINUOUS
 10
297.626251
 20
119.025139
 11
290.626251
 21
119.025116
  0
LINE
  8
0
  6
CONTINUOUS
 10
297.626251
 20
127.025139
 11
290.626251
 21
127.025116
  0
ARC
  8
0
  6
CONTINUOUS
 10
280.626251
 20
123.025078
 40
14.000000
 50
16.601500
 51
343.398499
  0
LINE
  8
0
  6
CONTINUOUS
 10
440.079742
 20
109.025078
 11
440.079742
 21
137.025085
  0
LINE
  8
0
  6
CONTINUOUS
 10
485.079742
 20
137.025085
 11
440.079742
 21
137.025085
  0
LINE
  8
0
  6
CONTINUOUS
 10
485.079742
 20
109.025078
 11
440.079742
 21
109.025078
  0
LINE
  8
0
  6
CONTINUOUS
 10
485.079742
 20
138.025085
 11
485.079742
 21
108.025078
  0
LINE
  8
0
  6
CONTINUOUS
 10
487.079742
 20
108.025078
 11
485.079742
 21
108.025078
  0
ARC
  8
0
  6
CONTINUOUS
 10
476.079742
 20
123.025078
 40
4.000000
 50
-90.000000
 51
90.000000
  0
LINE
  8
0
  6
CONTINUOUS
 10
476.079742
 20
127.025078
 11
440.079742
 21
127.025078
  0
LINE
  8
0
  6
CONTINUOUS
 10
476.079742
 20
119.025078
 11
440.079742
 21
119.025078
  0
LINE
  8
0
  6
CONTINUOUS
 10
487.079742
 20
138.025085
 11
485.079742
 21
138.025085
  0
LINE
  8
0
  6
CONTINUOUS
 10
640.079773
 20
109.025078
 11
640.079773
 21
137.025085
  0
LINE
  8
0
  6
CONTINUOUS
 10
595.079773
 20
137.025085
 11
640.079773
 21
137.025085
  0
LINE
  8
0
  6
CONTINUOUS
 10
595.079773
 20
109.025078
 11
640.079773
 21
109.025078
  0
LINE
  8
0
  6
CONTINUOUS
 10
595.079773
 20
138.025085
 11
595.079773
 21
108.025078
  0
LINE
  8
0
  6
CONTINUOUS
 10
593.079773
 20
108.025078
 11
595.079773
 21
108.025078
  0
ARC
  8
0
  6
CONTINUOUS
 10
604.079773
 20
123.025078
 40
4.000000
 50
90.000000
 51
270.000000
  0
LINE
  8
0
  6
CONTINUOUS
 10
604.079773
 20
127.025078
 11
640.079773
 21
127.025078
  0
LINE
  8
0
  6
CONTINUOUS
 10
604.079773
 20
119.025078
 11
640.079773
 21
119.025078
  0
LINE
  8
0
  6
CONTINUOUS
 10
593.079773
 20
138.025085
 11
595.079773
 21
138.025085
  0
LINE
  8
0
  6
CONTINUOUS
 10
191.626251
 20
151.025177
 11
198.126251
 21
151.025177
  0
LINE
  8
0
  6
CONTINUOUS
 10
191.626251
 20
23.024981
 11
198.126251
 21
23.024981
  0
LINE
  8
0
  6
CONTINUOUS
 10
143.626251
 20
119.025078
 11
189.626251
 21
120.631432
  0
LINE
  8
0
  6
CONTINUOUS
 10
198.126251
 20
27.121897
 11
143.626251
 21
29.025078
  0
ARC
  8
0
  6
CONTINUOUS
 10
191.626266
 20
149.025208
 40
2.000000
 50
90.000000
 51
180.000000
  0
ARC
  8
0
  6
CONTINUOUS
 10
191.626251
 20
25.024981
 40
2.000000
 50
180.260773
 51
270.000000
  0
LINE
  8
0
  6
CENTER
 10
-9.892539
 20
74.025078
 11
244.315308
 21
74.025078
  0
LINE
  8
0
  6
CONTINUOUS
 10
143.626251
 20
119.025078
 11
143.626251
 21
29.025078
  0
LINE
  8
0
  6
CONTINUOUS
 10
188.894012
 20
126.792847
 11
183.179504
 21
121.078331
  0
LINE
  8
0
  6
CONTINUOUS
 10
220.389618
 20
405.750061
 11
339.532318
 21
405.750061
  0
ARC
  8
0
  6
CONTINUOUS
 10
339.532318
 20
402.750061
 40
3.000000
 50
1.000000
 51
90.000000
  0
LINE
  8
0
  6
CONTINUOUS
 10
325.620514
 20
411.103790
 11
326.510956
 21
407.937805
  0
ARC
  8
0
  6
CONTINUOUS
 10
329.398895
 20
408.750061
 40
3.000000
 50
195.708649
 51
270.000000
  0
ARC
  8
0
  6
CONTINUOUS
 10
212.203857
 20
422.976624
 40
3.000000
 50
1.500200
 51
77.801201
  0
LINE
  8
0
  6
CONTINUOUS
 10
215.202850
 20
423.055176
 11
215.558853
 21
409.460388
  0
ARC
  8
0
  6
CONTINUOUS
 10
213.471649
 20
428.841156
 40
3.000000
 50
-164.999893
 51
-102.198799
  0
LINE
  8
0
  6
CENTER
 10
-10.164727
 20
368.750061
 11
358.530121
 21
368.750061
  0
LINE
  8
0
  6
CONTINUOUS
 10
231.641129
 20
305.750061
 11
266.626251
 21
305.750061
  0
LINE
  8
0
  6
CONTINUOUS
 10
343.126251
 20
368.750061
 11
342.480408
 21
405.750061
  0
LINE
  8
0
  6
CONTINUOUS
 10
334.316162
 20
428.442719
 11
342.480408
 21
405.750061
  0
ARC
  8
0
  6
CONTINUOUS
 10
329.611389
 20
426.750061
 40
5.000000
 50
19.787489
 51
90.000000
  0
LINE
  8
0
  6
CONTINUOUS
 10
343.126251
 20
368.750061
 11
342.480408
 21
331.750061
  0
LINE
  8
0
  6
CONTINUOUS
 10
334.316162
 20
309.057373
 11
342.480408
 21
331.750061
  0
ARC
  8
0
  6
CONTINUOUS
 10
329.611389
 20
310.750061
 40
5.000000
 50
-90.000000
 51
-19.787489
  0
LINE
  8
0
  6
CONTINUOUS
 10
220.389618
 20
405.750061
 11
339.532318
 21
405.750061
  0
LINE
  8
0
  6
CENTER
 10
280.626251
 20
249.512497
 11
280.626251
 21
479.856262
  0
ARC
  8
0
  6
CONTINUOUS
 10
339.532318
 20
402.750061
 40
3.000000
 50
1.000000
 51
90.000000
  0
ARC
  8
0
  6
CONTINUOUS
 10
339.532318
 20
334.750061
 40
3.000000
 50
-90.000000
 51
-1.000000
  0
LINE
  8
0
  6
CONTINUOUS
 10
220.462845
 20
331.750061
 11
339.532318
 21
331.750061
  0
LINE
  8
0
  6
CONTINUOUS
 10
310.338501
 20
421.750061
 11
250.913986
 21
421.750061
  0
LINE
  8
0
  6
CONTINUOUS
 10
315.151764
 20
418.103790
 11
316.095001
 21
414.750061
  0
ARC
  8
0
  6
CONTINUOUS
 10
310.338501
 20
416.750061
 40
5.000000
 50
15.708638
 51
90.000000
  0
LINE
  8
0
  6
CONTINUOUS
 10
316.095001
 20
414.750061
 11
320.807251
 21
414.750061
  0
ARC
  8
0
  6
CONTINUOUS
 10
320.807251
 20
409.750061
 40
5.000000
 50
15.708638
 51
90.000000
  0
LINE
  8
0
  6
CONTINUOUS
 10
246.100739
 20
418.103790
 11
245.157501
 21
414.750061
  0
ARC
  8
0
  6
CONTINUOUS
 10
250.913986
 20
416.750061
 40
5.000000
 50
90.000000
 51
164.291367
  0
LINE
  8
0
  6
CONTINUOUS
 10
245.157501
 20
414.750061
 11
240.445236
 21
414.750061
  0
LINE
  8
0
  6
CONTINUOUS
 10
235.631989
 20
411.103790
 11
234.741562
 21
407.937805
  0
ARC
  8
0
  6
CONTINUOUS
 10
240.445236
 20
409.750061
 40
5.000000
 50
90.000000
 51
164.291367
  0
ARC
  8
0
  6
CONTINUOUS
 10
231.853607
 20
408.750061
 40
3.000000
 50
-90.000000
 51
-15.708638
  0
LINE
  8
0
  6
CONTINUOUS
 10
310.338501
 20
315.750061
 11
250.913986
 21
315.750061
  0
LINE
  8
0
  6
CONTINUOUS
 10
315.151764
 20
319.396332
 11
316.095001
 21
322.750061
  0
ARC
  8
0
  6
CONTINUOUS
 10
310.338501
 20
320.750061
 40
5.000000
 50
-90.000000
 51
-15.708638
  0
LINE
  8
0
  6
CONTINUOUS
 10
316.095001
 20
322.750061
 11
320.807251
 21
322.750061
  0
LINE
  8
0
  6
CONTINUOUS
 10
325.620514
 20
326.396332
 11
326.510956
 21
329.562286
  0
ARC
  8
0
  6
CONTINUOUS
 10
320.807251
 20
327.750061
 40
5.000000
 50
-90.000000
 51
-15.708638
  0
ARC
  8
0
  6
CONTINUOUS
 10
329.398895
 20
328.750061
 40
3.000000
 50
-270.000000
 51
-195.708633
  0
LINE
  8
0
  6
CONTINUOUS
 10
246.100739
 20
319.396332
 11
245.157501
 21
322.750061
  0
ARC
  8
0
  6
CONTINUOUS
 10
250.913986
 20
320.750061
 40
5.000000
 50
-164.291367
 51
-90.000000
  0
LINE
  8
0
  6
CONTINUOUS
 10
245.157501
 20
322.750061
 11
240.445236
 21
322.750061
  0
LINE
  8
0
  6
CONTINUOUS
 10
235.631989
 20
326.396332
 11
234.741562
 21
329.562286
  0
ARC
  8
0
  6
CONTINUOUS
 10
240.445236
 20
327.750061
 40
5.000000
 50
-164.291367
 51
-90.000000
  0
ARC
  8
0
  6
CONTINUOUS
 10
231.853607
 20
328.750061
 40
3.000000
 50
15.708638
 51
90.000000
  0
LINE
  8
0
  6
CONTINUOUS
 10
226.936356
 20
428.442719
 11
218.858505
 21
405.990234
  0
ARC
  8
0
  6
CONTINUOUS
 10
231.641129
 20
426.750061
 40
5.000000
 50
90.000000
 51
160.212509
  0
LINE
  8
0
  6
CONTINUOUS
 10
226.936356
 20
309.057373
 11
218.874359
 21
331.465790
  0
ARC
  8
0
  6
CONTINUOUS
 10
231.641129
 20
310.750061
 40
5.000000
 50
199.787491
 51
270.000000
  0
LINE
  8
0
  6
CONTINUOUS
 10
231.641129
 20
431.750061
 11
266.626251
 21
431.750061
  0
LINE
  8
0
  6
CENTER
 10
320.626251
 20
429.863342
 11
320.626251
 21
410.421936
  0
LINE
  8
0
  6
CENTER
 10
310.715363
 20
418.750061
 11
329.233917
 21
418.750061
  0
ARC
  8
0
  6
CONTINUOUS
 10
320.626251
 20
418.750061
 40
5.500000
 50
-59.465683
 51
187.598495
  0
ARC
  8
0
  6
CONTINUOUS
 10
240.626251
 20
418.750061
 40
5.500000
 50
-7.598608
 51
239.465683
  0
LINE
  8
0
  6
CENTER
 10
240.626251
 20
429.863342
 11
240.626251
 21
410.421936
  0
LINE
  8
0
  6
CENTER
 10
250.537140
 20
418.750061
 11
232.018585
 21
418.750061
  0
ARC
  8
0
  6
CONTINUOUS
 10
240.626251
 20
318.750061
 40
5.500000
 50
-239.465683
 51
7.598608
  0
LINE
  8
0
  6
CENTER
 10
250.537140
 20
318.750061
 11
232.018585
 21
318.750061
  0
LINE
  8
0
  6
CENTER
 10
240.626251
 20
307.636780
 11
240.626251
 21
327.078186
  0
LINE
  8
0
  6
CENTER
 10
320.626251
 20
307.636780
 11
320.626251
 21
327.078186
  0
LINE
  8
0
  6
CENTER
 10
310.715363
 20
318.750061
 11
329.233917
 21
318.750061
  0
ARC
  8
0
  6
CONTINUOUS
 10
320.626251
 20
318.750061
 40
5.500000
 50
-187.598602
 51
59.465683
  0
LINE
  8
0
  6
CONTINUOUS
 10
304.626251
 20
334.750061
 11
304.626251
 21
402.750061
  0
LINE
  8
0
  6
CONTINUOUS
 10
256.626251
 20
334.750061
 11
256.626251
 21
402.750061
  0
LINE
  8
0
  6
CONTINUOUS
 10
215.706543
 20
328.044128
 11
210.457916
 21
308.455963
  0
LINE
  8
0
  6
CONTINUOUS
 10
215.202850
 20
313.898010
 11
215.558853
 21
327.492798
  0
ARC
  8
0
  6
CONTINUOUS
 10
212.203857
 20
313.976624
 40
3.000000
 50
282.198792
 51
358.499786
  0
ARC
  8
0
  6
CONTINUOUS
 10
213.471649
 20
308.112000
 40
3.000000
 50
102.198799
 51
165.000031
  0
ARC
  8
0
  6
CONTINUOUS
 10
212.203857
 20
422.976624
 40
3.000000
 50
1.500200
 51
77.801201
  0
LINE
  8
0
  6
CONTINUOUS
 10
215.202850
 20
423.055176
 11
215.558853
 21
409.460388
  0
ARC
  8
0
  6
CONTINUOUS
 10
213.471649
 20
428.841156
 40
3.000000
 50
-164.999893
 51
-102.198799
  0
LINE
  8
0
  6
CONTINUOUS
 10
205.555054
 20
432.750061
 11
198.126251
 21
432.750061
  0
LINE
  8
0
  6
CONTINUOUS
 10
210.311417
 20
429.044128
 11
215.633255
 21
409.182556
  0
ARC
  8
0
  6
CONTINUOUS
 10
220.536179
 20
326.750061
 40
5.000000
 50
90.000000
 51
165.000031
  0
ARC
  8
0
  6
CONTINUOUS
 10
220.389618
 20
410.750061
 40
5.000000
 50
194.999847
 51
270.000000
  0
LINE
  8
0
  6
CONTINUOUS
 10
297.626251
 20
468.750061
 11
266.626251
 21
468.750061
  0
LINE
  8
0
  6
CONTINUOUS
 10
266.626251
 20
423.750061
 11
266.626251
 21
468.750061
  0
LINE
  8
0
  6
CONTINUOUS
 10
294.626251
 20
423.750061
 11
294.626251
 21
428.750061
  0
LINE
  8
0
  6
CONTINUOUS
 10
265.626251
 20
423.750061
 11
295.626251
 21
423.750061
  0
LINE
  8
0
  6
CONTINUOUS
 10
295.626251
 20
421.750061
 11
295.626251
 21
423.750061
  0
LINE
  8
0
  6
CONTINUOUS
 10
265.626251
 20
421.750061
 11
265.626251
 21
423.750061
  0
LINE
  8
0
  6
CONTINUOUS
 10
297.626251
 20
431.750061
 11
329.611389
 21
431.750061
  0
LINE
  8
0
  6
CONTINUOUS
 10
294.042664
 20
428.750061
 11
297.626251
 21
428.750061
  0
LINE
  8
0
  6
CONTINUOUS
 10
294.042664
 20
428.750061
 11
294.042664
 21
468.750061
  0
LINE
  8
0
  6
CONTINUOUS
 10
297.626251
 20
468.750061
 11
297.626251
 21
428.750061
  0
LINE
  8
0
  6
CONTINUOUS
 10
297.626251
 20
268.750061
 11
266.626251
 21
268.750061
  0
LINE
  8
0
  6
CONTINUOUS
 10
266.626251
 20
313.750061
 11
266.626251
 21
268.750061
  0
LINE
  8
0
  6
CONTINUOUS
 10
294.626251
 20
313.750061
 11
294.626251
 21
308.750061
  0
LINE
  8
0
  6
CONTINUOUS
 10
265.626251
 20
313.750061
 11
295.626251
 21
313.750061
  0
LINE
  8
0
  6
CONTINUOUS
 10
295.626251
 20
315.750061
 11
295.626251
 21
313.750061
  0
LINE
  8
0
  6
CONTINUOUS
 10
265.626251
 20
315.750061
 11
265.626251
 21
313.750061
  0
LINE
  8
0
  6
CONTINUOUS
 10
294.042664
 20
308.750061
 11
297.626251
 21
308.750061
  0
LINE
  8
0
  6
CONTINUOUS
 10
294.042664
 20
308.750061
 11
294.042664
 21
268.750061
  0
LINE
  8
0
  6
CONTINUOUS
 10
297.626251
 20
268.750061
 11
297.626251
 21
308.750061
  0
LINE
  8
0
  6
CONTINUOUS
 10
297.626251
 20
305.750061
 11
329.611389
 21
305.750061
  0
LINE
  8
0
  6
CONTINUOUS
 10
198.126251
 20
304.750061
 11
205.628281
 21
304.750061
  0
ARC
  8
0
  6
CONTINUOUS
 10
205.628281
 20
309.750061
 40
5.000000
 50
270.000000
 51
345.000031
  0
ARC
  8
0
  6
CONTINUOUS
 10
205.481781
 20
427.750061
 40
5.000000
 50
14.999846
 51
90.000000
  0
LINE
  8
0
  6
CONTINUOUS
 10
218.126251
 20
368.750061
 11
218.720642
 21
402.802399
  0
LINE
  8
0
  6
CONTINUOUS
 10
218.126251
 20
368.750061
 11
218.720642
 21
334.697693
  0
ARC
  8
0
  6
CONTINUOUS
 10
221.720184
 20
402.750061
 40
3.000000
 50
90.000000
 51
179.000000
  0
ARC
  8
0
  6
CONTINUOUS
 10
221.720184
 20
334.750061
 40
3.000000
 50
181.000000
 51
270.000000
  0
LINE
  8
0
  6
CONTINUOUS
 10
216.571899
 20
151.025177
 11
198.126251
 21
151.025177
  0
LINE
  8
0
  6
CONTINUOUS
 10
198.126251
 20
23.024981
 11
213.126251
 21
23.024981
  0
ARC
  8
0
  6
CONTINUOUS
 10
213.126266
 20
18.024961
 40
5.000000
 50
0.000000
 51
90.000000
  0
LINE
  8
0
  6
CONTINUOUS
 10
480.324371
 20
18.649054
 11
499.835144
 21
22.401115
  0
ARC
  8
0
  6
CONTINUOUS
 10
540.079773
 20
87.025078
 40
64.000099
 50
-54.681290
 51
20.105476
  0
ARC
  8
0
  6
CONTINUOUS
 10
540.079773
 20
87.025078
 40
64.000099
 50
159.894516
 51
234.681290
  0
ARC
  8
0
  6
CONTINUOUS
 10
481.079742
 20
14.025078
 40
4.000000
 50
90.000000
 51
180.000000
  0
ARC
  8
0
  6
CONTINUOUS
 10
481.079742
 20
14.721016
 40
4.000000
 50
100.885529
 51
180.000000
  0
ARC
  8
0
  6
CONTINUOUS
 10
499.079742
 20
26.329142
 40
4.000000
 50
-79.114502
 51
0.000000
  0
ARC
  8
0
  6
CONTINUOUS
 10
499.079742
 20
22.025078
 40
4.000000
 50
-90.000000
 51
0.000000
  0
LINE
  8
0
  6
CONTINUOUS
 10
599.835144
 20
18.649054
 11
580.324341
 21
22.401115
  0
ARC
  8
0
  6
CONTINUOUS
 10
599.079773
 20
14.025078
 40
4.000000
 50
0.000000
 51
90.000000
  0
ARC
  8
0
  6
CONTINUOUS
 10
599.079773
 20
14.721016
 40
4.000000
 50
0.000000
 51
79.114471
  0
ARC
  8
0
  6
CONTINUOUS
 10
581.079773
 20
26.329142
 40
4.000000
 50
180.000000
 51
259.114502
  0
ARC
  8
0
  6
CONTINUOUS
 10
581.079773
 20
22.025078
 40
4.000000
 50
180.000000
 51
270.000000
  0
LINE
  8
0
  6
CONTINUOUS
 10
262.068146
 20
23.025078
 11
299.184357
 21
23.025078
  0
LINE
  8
0
  6
CONTINUOUS
 10
259.725525
 20
21.899153
 11
257.527008
 21
19.151005
  0
ARC
  8
0
  6
CONTINUOUS
 10
255.184402
 20
21.025078
 40
3.000000
 50
270.000000
 51
321.340454
  0
ARC
  8
0
  6
CONTINUOUS
 10
262.068146
 20
20.025078
 40
3.000000
 50
90.000000
 51
141.340454
  0
LINE
  8
0
  6
CONTINUOUS
 10
301.526978
 20
21.899153
 11
303.725494
 21
19.151005
  0
ARC
  8
0
  6
CONTINUOUS
 10
306.068085
 20
21.025078
 40
3.000000
 50
-141.340454
 51
-90.000000
  0
ARC
  8
0
  6
CONTINUOUS
 10
299.184357
 20
20.025078
 40
3.000000
 50
38.659546
 51
90.000000
  0
ARC
  8
0
  6
CONTINUOUS
 10
216.571899
 20
156.025177
 40
5.000000
 50
270.000000
 51
304.539978
  0
LINE
  8
0
  6
CONTINUOUS
 10
198.126251
 20
432.750061
 11
198.126251
 21
304.750061
  0
LINE
  8
0
  6
CONTINUOUS
 10
216.626251
 20
138.625076
 11
218.126251
 21
138.625076
  0
LINE
  8
0
  6
CONTINUOUS
 10
216.626251
 20
35.425098
 11
218.126251
 21
35.425098
  0
ARC
  8
0
  6
CONTINUOUS
 10
400.579437
 20
87.025078
 40
191.053177
 50
164.330902
 51
195.669098
  0
ARC
  8
0
  6
CONTINUOUS
 10
400.579437
 20
87.025078
 40
190.053177
 50
178.548599
 51
181.478500
  0
LINE
  8
0
  6
CONTINUOUS
 10
212.626251
 20
92.025078
 11
211.621445
 21
92.025078
  0
LINE
  8
0
  6
CONTINUOUS
 10
215.126251
 20
89.525078
 11
215.126251
 21
84.525078
  0
ARC
  8
0
  6
CONTINUOUS
 10
211.621445
 20
93.023476
 40
1.000000
 50
178.182098
 51
270.000000
  0
ARC
  8
0
  6
CONTINUOUS
 10
212.626251
 20
89.525078
 40
2.500000
 50
0.000000
 51
90.000000
  0
LINE
  8
0
  6
CONTINUOUS
 10
212.626251
 20
82.025078
 11
211.621445
 21
82.025078
  0
ARC
  8
0
  6
CONTINUOUS
 10
211.621445
 20
81.026680
 40
1.000000
 50
-270.000000
 51
-178.182098
  0
ARC
  8
0
  6
CONTINUOUS
 10
212.626251
 20
84.525078
 40
2.500000
 50
-90.000000
 51
0.000000
  0
LINE
  8
0
  6
CONTINUOUS
 10
143.626251
 20
53.519077
 11
187.626251
 21
53.519077
  0
LINE
  8
0
  6
CONTINUOUS
 10
143.626251
 20
38.506077
 11
198.126251
 21
38.506081
  0
LINE
  8
0
  6
CONTINUOUS
 10
190.194214
 20
46.458076
 11
198.126251
 21
46.458076
  0
LINE
  8
0
  6
CONTINUOUS
 10
189.626251
 20
47.672813
 11
189.626251
 21
149.025208
  0
ARC
  8
0
  6
CONTINUOUS
 10
187.126297
 20
25.004499
 40
2.500000
 50
0.260773
 51
88.000000
  0
ARC
  8
0
  6
CONTINUOUS
 10
187.126251
 20
128.560608
 40
2.500000
 50
-45.000000
 51
0.000000
  0
ARC
  8
0
  6
CONTINUOUS
 10
181.411743
 20
122.846100
 40
2.500000
 50
272.000000
 51
315.000000
  0
LINE
  8
0
  6
CONTINUOUS
 10
189.626251
 20
306.750061
 11
189.626251
 21
430.750061
  0
LINE
  8
0
  6
CONTINUOUS
 10
143.626251
 20
413.750061
 11
187.189865
 21
415.271332
  0
LINE
  8
0
  6
CONTINUOUS
 10
143.626251
 20
323.750061
 11
187.189865
 21
322.228760
  0
LINE
  8
0
  6
CONTINUOUS
 10
143.626251
 20
417.762054
 11
143.626251
 21
319.738037
  0
LINE
  8
0
  6
CONTINUOUS
 10
191.626251
 20
432.750061
 11
198.126251
 21
432.750061
  0
LINE
  8
0
  6
CONTINUOUS
 10
191.626251
 20
304.750061
 11
198.126251
 21
304.750061
  0
LINE
  8
0
  6
CONTINUOUS
 10
182.483246
 20
392.750061
 11
189.598221
 21
392.750061
  0
LINE
  8
0
  6
CONTINUOUS
 10
183.088394
 20
344.750061
 11
189.598221
 21
344.750061
  0
LINE
  8
0
  6
CONTINUOUS
 10
182.483246
 20
390.545532
 11
182.483246
 21
346.832977
  0
LINE
  8
0
  6
CONTINUOUS
 10
134.626251
 20
411.750061
 11
134.626251
 21
397.750061
  0
LINE
  8
0
  6
CONTINUOUS
 10
24.626249
 20
413.750061
 11
143.626251
 21
413.750061
  0
LINE
  8
0
  6
CONTINUOUS
 10
24.626249
 20
323.750061
 11
143.626251
 21
323.750061
  0
LINE
  8
0
  6
CONTINUOUS
 10
24.626249
 20
413.750061
 11
24.626249
 21
393.750031
  0
LINE
  8
0
  6
CONTINUOUS
 10
24.626249
 20
397.750061
 11
134.626251
 21
397.750061
  0
LINE
  8
0
  6
CONTINUOUS
 10
24.626249
 20
339.750061
 11
134.626251
 21
339.750061
  0
ARC
  8
0
  6
CONTINUOUS
 10
136.626251
 20
411.750061
 40
2.000000
 50
90.000000
 51
180.000000
  0
ARC
  8
0
  6
CONTINUOUS
 10
136.626251
 20
325.750061
 40
2.000000
 50
180.000000
 51
270.000000
  0
LINE
  8
0
  6
CONTINUOUS
 10
4.126250
 20
333.750061
 11
4.126250
 21
403.750061
  0
LINE
  8
0
  6
CONTINUOUS
 10
8.667692
 20
413.750061
 11
24.626249
 21
413.750061
  0
LINE
  8
0
  6
CONTINUOUS
 10
4.626250
 20
410.750061
 11
4.626250
 21
326.750061
  0
LINE
  8
0
  6
CONTINUOUS
 10
24.626249
 20
397.750061
 11
6.376250
 21
397.750061
  0
LINE
  8
0
  6
CONTINUOUS
 10
5.203596
 20
411.750031
 11
4.626250
 21
410.750061
  0
ARC
  8
0
  6
CONTINUOUS
 10
8.667708
 20
409.750061
 40
4.000000
 50
90.000000
 51
150.000397
  0
LINE
  8
0
  6
CONTINUOUS
 10
8.667692
 20
323.750061
 11
24.626249
 21
323.750061
  0
LINE
  8
0
  6
CONTINUOUS
 10
24.626249
 20
339.750061
 11
6.376250
 21
339.750061
  0
LINE
  8
0
  6
CONTINUOUS
 10
5.203596
 20
325.750061
 11
4.626250
 21
326.750061
  0
ARC
  8
0
  6
CONTINUOUS
 10
8.667708
 20
327.750031
 40
4.000000
 50
-150.000397
 51
-90.000000
  0
LINE
  8
0
  6
CONTINUOUS
 10
4.126250
 20
403.750061
 11
4.626250
 21
404.250061
  0
LINE
  8
0
  6
CONTINUOUS
 10
4.126250
 20
333.750061
 11
4.626250
 21
333.250061
  0
LINE
  8
0
  6
CONTINUOUS
 10
143.626251
 20
413.750061
 11
143.626251
 21
323.750061
  0
ARC
  8
0
  6
CONTINUOUS
 10
191.626251
 20
430.750061
 40
2.000000
 50
90.000000
 51
180.000000
  0
ARC
  8
0
  6
CONTINUOUS
 10
191.626251
 20
306.750061
 40
2.000000
 50
180.000000
 51
270.000000
  0
ARC
  8
0
  6
CONTINUOUS
 10
187.102615
 20
417.769806
 40
2.500000
 50
272.000000
 51
359.895721
  0
ARC
  8
0
  6
CONTINUOUS
 10
187.102615
 20
319.730286
 40
2.500000
 50
0.104292
 51
88.000000
  0
LINE
  8
0
  6
CONTINUOUS
 10
189.626251
 20
415.356415
 11
189.598221
 21
415.355438
  0
LINE
  8
0
  6
CONTINUOUS
 10
144.125946
 20
418.279510
 11
189.626251
 21
419.868408
  0
LINE
  8
0
  6
CONTINUOUS
 10
143.626251
 20
417.762054
 11
144.125946
 21
418.279510
  0
LINE
  8
0
  6
CONTINUOUS
 10
144.125946
 20
319.220612
 11
189.626251
 21
317.631683
  0
LINE
  8
0
  6
CONTINUOUS
 10
143.626251
 20
319.738037
 11
144.125946
 21
319.220612
  0
LINE
  8
0
  6
CONTINUOUS
 10
24.626249
 20
343.750031
 11
24.626249
 21
323.750061
  0
LINE
  8
0
  6
CONTINUOUS
 10
14.626250
 20
376.250031
 11
15.626250
 21
376.250031
  0
ARC
  8
0
  6
CONTINUOUS
 10
14.626270
 20
375.250031
 40
1.000000
 50
90.000000
 51
180.000000
  0
LINE
  8
0
  6
CONTINUOUS
 10
10.126265
 20
372.750031
 11
10.126265
 21
364.750031
  0
LINE
  8
0
  6
CONTINUOUS
 10
10.126265
 20
372.750031
 11
13.626265
 21
374.250031
  0
LINE
  8
0
  6
CONTINUOUS
 10
10.126250
 20
364.750031
 11
13.626250
 21
363.250031
  0
LINE
  8
0
  6
CONTINUOUS
 10
13.626265
 20
375.250031
 11
13.626265
 21
362.250031
  0
LINE
  8
0
  6
CONTINUOUS
 10
14.626250
 20
361.250031
 11
15.626250
 21
361.250031
  0
ARC
  8
0
  6
CONTINUOUS
 10
14.626270
 20
362.250031
 40
1.000000
 50
-180.000000
 51
-90.000000
  0
LINE
  8
0
  6
CONTINUOUS
 10
15.626250
 20
345.750031
 11
15.626250
 21
391.750031
  0
LINE
  8
0
  6
CONTINUOUS
 10
17.626249
 20
393.750031
 11
15.626250
 21
391.750031
  0
LINE
  8
0
  6
CONTINUOUS
 10
17.626249
 20
393.750031
 11
63.626240
 21
393.750031
  0
LINE
  8
0
  6
CONTINUOUS
 10
58.126251
 20
389.250031
 11
58.126251
 21
393.750031
  0
ARC
  8
0
  6
CONTINUOUS
 10
61.126251
 20
389.250031
 40
3.000000
 50
180.000000
 51
270.000000
  0
LINE
  8
0
  6
CONTINUOUS
 10
61.126251
 20
386.250031
 11
65.626244
 21
386.250031
  0
CIRCLE
  8
0
  6
CONTINUOUS
 10
62.126251
 20
390.250031
 40
2.250000
  0
LINE
  8
0
  6
CONTINUOUS
 10
65.626244
 20
345.750031
 11
65.626244
 21
391.750031
  0
LINE
  8
0
  6
CONTINUOUS
 10
63.626240
 20
393.750031
 11
65.626244
 21
391.750031
  0
LINE
  8
0
  6
CONTINUOUS
 10
63.626244
 20
343.750031
 11
65.626244
 21
345.750031
  0
LINE
  8
0
  6
CONTINUOUS
 10
63.626244
 20
343.750031
 11
17.626249
 21
343.750031
  0
LINE
  8
0
  6
CONTINUOUS
 10
15.626250
 20
345.750031
 11
17.626249
 21
343.750031
  0
LINE
  8
0
  6
CONTINUOUS
 10
20.126249
 20
351.250031
 11
15.626260
 21
351.250031
  0
CIRCLE
  8
0
  6
CONTINUOUS
 10
19.126249
 20
347.250031
 40
2.250000
  0
ARC
  8
0
  6
CONTINUOUS
 10
20.126249
 20
348.250031
 40
3.000000
 50
0.000000
 51
90.000000
  0
LINE
  8
0
  6
CONTINUOUS
 10
23.126249
 20
348.250031
 11
23.126249
 21
343.750031
  0
LINE
  8
0
  6
CENTER
 10
40.626251
 20
336.284241
 11
40.626251
 21
400.416290
  0
LINE
  8
0
  6
CONTINUOUS
 10
18.040468
 20
392.750061
 11
16.626257
 21
391.335846
  0
LINE
  8
0
  6
CONTINUOUS
 10
16.626257
 20
351.250061
 11
16.626257
 21
391.335846
  0
LINE
  8
0
  6
CONTINUOUS
 10
58.126251
 20
392.750061
 11
18.040468
 21
392.750061
  0
LINE
  8
0
  6
CONTINUOUS
 10
64.626244
 20
386.250061
 11
64.626244
 21
346.164276
  0
LINE
  8
0
  6
CONTINUOUS
 10
23.126249
 20
344.750061
 11
63.212032
 21
344.750061
  0
LINE
  8
0
  6
CONTINUOUS
 10
63.212032
 20
344.750061
 11
64.626244
 21
346.164276
  0
LINE
  8
0
  6
CONTINUOUS
 10
17.126249
 20
120.525078
 11
63.626251
 21
120.525078
  0
LINE
  8
0
  6
CONTINUOUS
 10
65.626244
 20
150.525085
 11
65.626251
 21
122.525078
  0
LINE
  8
0
  6
CONTINUOUS
 10
15.626250
 20
150.525085
 11
15.626250
 21
122.525078
  0
LINE
  8
0
  6
CONTINUOUS
 10
13.626250
 20
132.525085
 11
65.626251
 21
132.525085
  0
LINE
  8
0
  6
CONTINUOUS
 10
63.626251
 20
120.525078
 11
65.626251
 21
122.525078
  0
LINE
  8
0
  6
CONTINUOUS
 10
15.626250
 20
122.525078
 11
17.626249
 21
120.525078
  0
LINE
  8
0
  6
CONTINUOUS
 10
15.626250
 20
122.525078
 11
65.626251
 21
122.525078
  0
LINE
  8
0
  6
CONTINUOUS
 10
16.626249
 20
151.525085
 11
64.626244
 21
151.525085
  0
LINE
  8
0
  6
CONTINUOUS
 10
64.626244
 20
151.525085
 11
65.626244
 21
150.525085
  0
LINE
  8
0
  6
CONTINUOUS
 10
16.626249
 20
151.525085
 11
15.626250
 21
150.525085
  0
LINE
  8
0
  6
CONTINUOUS
 10
15.626250
 20
150.525085
 11
65.626244
 21
150.525085
  0
LINE
  8
0
  6
CENTER
 10
7.682502
 20
142.025085
 11
19.757500
 21
142.025085
  0
LINE
  8
0
  6
CONTINUOUS
 10
13.626258
 20
148.525085
 11
13.626250
 21
132.525085
  0
LINE
  8
0
  6
CONTINUOUS
 10
14.626250
 20
149.525085
 11
15.626250
 21
149.525085
  0
ARC
  8
0
  6
CONTINUOUS
 10
14.626260
 20
148.525085
 40
1.000000
 50
90.000000
 51
180.000000
  0
LINE
  8
0
  6
CONTINUOUS
 10
10.126258
 20
146.025085
 11
10.126258
 21
138.025085
  0
LINE
  8
0
  6
CONTINUOUS
 10
10.126258
 20
146.025085
 11
13.626258
 21
147.525085
  0
LINE
  8
0
  6
CONTINUOUS
 10
10.126250
 20
138.025085
 11
13.626250
 21
136.525085
  0
LINE
  8
0
  6
CENTER
 10
40.626251
 20
115.831329
 11
40.626251
 21
156.912582
  0
LINE
  8
0
  6
CONTINUOUS
 10
17.126249
 20
120.525078
 11
17.126249
 21
119.025078
  0
LINE
  8
0
  6
CONTINUOUS
 10
63.126251
 20
120.525078
 11
63.126251
 21
119.025078
  0
LINE
  8
0
  6
CONTINUOUS
 10
134.626251
 20
339.750061
 11
134.626251
 21
325.750031
  0
TEXT
  8
0
 10
-10.000000
 20
-14.000000
 40
4.000000
 41
1.000000
  1
HLM-28T-1200~1800-S25T
 50
0.000000
  0
ENDSEC
  0
EOF
