  0
SECTION
  2
HEADER
  9
$CLAYER
  8
1
  9
$LTSCALE
 40
3.0
  0
ENDSEC
  0
SECTION
  2
TABLES
  0
TABLE
  2
LTYPE
 70
     4
  0
LTYPE
  2
CONTINUOUS
  3
solid line
 70
    64
 72
    65
 73
     0
 40
0.0
  0
LTYPE
  2
DASHED
  3
__ __ __ __ __ __ __ __ __ __ __ __ __ __ __
 70
    64
 72
    65
 73
     2
 40
0.75
 49
0.5
 49
-0.25
  0
LTYPE
  2
CENTER
  3
____ _ ____ _ ____ _ ____ _ ____ _ ____ _ ____
 70
    64
 72
    65
 73
     4
 40
2.0
 49
1.25
 49
-0.25
 49
0.25
 49
-0.25
  0
LTYPE
  2
PHANTOM
  3
_____ _ _ _____ _ _ _____ _ _ _____ _ _ ____
 70
    64
 72
    65
 73
     6
 40
2.5
 49
1.25
 49
-0.25
 49
0.25
 49
-0.25
 49
0.25
 49
-0.25
  0
ENDTAB
  0
TABLE
  2
LAYER
 70
     1
  0
LAYER
  2
0
 70
    64
 62
     7
  6
CONTINUOUS
  0
ENDTAB
  0
TABLE
  2
STYLE
 70
     1
  0
STYLE
  2
STANDARD
 70
     0
 40
0.000000
 41
1.000000
 50
0.000000
 71
     0
 42
3.000000
  3
txt
  4
BIGFONT
  0
ENDTAB
  0
ENDSEC
  0
SECTION
  2
BLOCKS
  0
ENDSEC
  0
SECTION
  2
ENTITIES
  0
LINE
  8
0
  6
CONTINUOUS
 10
128.431244
 20
120.122581
 11
128.431244
 21
34.122559
  0
LINE
  8
0
  6
CONTINUOUS
 10
18.431250
 20
122.122581
 11
137.431244
 21
122.122581
  0
LINE
  8
0
  6
CONTINUOUS
 10
18.431250
 20
32.122578
 11
137.431244
 21
32.122578
  0
LINE
  8
0
  6
CONTINUOUS
 10
18.431250
 20
122.122581
 11
18.431250
 21
32.122578
  0
LINE
  8
0
  6
CONTINUOUS
 10
18.431250
 20
111.531876
 11
127.393570
 21
111.531876
  0
LINE
  8
0
  6
CONTINUOUS
 10
18.431250
 20
42.713280
 11
127.393570
 21
42.713280
  0
ARC
  8
0
  6
CONTINUOUS
 10
130.431244
 20
120.122597
 40
2.000000
 50
90.000000
 51
180.000000
  0
ARC
  8
0
  6
CONTINUOUS
 10
130.431244
 20
34.122578
 40
2.000000
 50
180.000000
 51
270.000000
  0
LINE
  8
0
  6
CONTINUOUS
 10
-2.068750
 20
42.122578
 11
-2.068750
 21
112.122581
  0
LINE
  8
0
  6
CONTINUOUS
 10
2.472692
 20
122.122581
 11
18.431250
 21
122.122581
  0
LINE
  8
0
  6
CONTINUOUS
 10
-1.568750
 20
119.122581
 11
-1.568750
 21
35.122578
  0
LINE
  8
0
  6
CONTINUOUS
 10
18.431250
 20
111.531876
 11
0.181250
 21
111.531876
  0
LINE
  8
0
  6
CONTINUOUS
 10
-0.991404
 20
120.122559
 11
-1.568750
 21
119.122581
  0
ARC
  8
0
  6
CONTINUOUS
 10
2.472708
 20
118.122581
 40
4.000000
 50
90.000000
 51
150.000397
  0
LINE
  8
0
  6
CONTINUOUS
 10
2.472692
 20
32.122578
 11
18.431250
 21
32.122578
  0
LINE
  8
0
  6
CONTINUOUS
 10
18.431250
 20
42.713280
 11
0.181250
 21
42.713280
  0
LINE
  8
0
  6
CONTINUOUS
 10
-0.991404
 20
34.122578
 11
-1.568750
 21
35.122578
  0
ARC
  8
0
  6
CONTINUOUS
 10
2.472708
 20
36.122559
 40
4.000000
 50
-150.000397
 51
-90.000000
  0
LINE
  8
0
  6
CONTINUOUS
 10
18.931250
 20
123.622581
 11
18.931250
 21
122.122581
  0
LINE
  8
0
  6
CONTINUOUS
 10
11.931250
 20
123.622581
 11
11.931250
 21
122.122581
  0
LINE
  8
0
  6
CONTINUOUS
 10
11.931250
 20
123.622581
 11
18.931250
 21
123.622581
  0
LINE
  8
0
  6
CONTINUOUS
 10
16.331251
 20
136.622574
 11
16.331251
 21
123.622581
  0
LINE
  8
0
  6
CONTINUOUS
 10
14.531248
 20
137.247574
 11
14.531248
 21
123.622581
  0
LINE
  8
0
  6
CONTINUOUS
 10
12.731254
 20
135.185074
 11
12.731254
 21
123.622581
  0
LINE
  8
0
  6
CONTINUOUS
 10
18.131250
 20
135.997574
 11
18.131250
 21
123.622581
  0
LINE
  8
0
  6
CONTINUOUS
 10
14.531248
 20
137.247574
 11
16.331251
 21
136.622574
  0
LINE
  8
0
  6
CONTINUOUS
 10
12.731254
 20
135.185074
 11
14.531248
 21
135.810074
  0
LINE
  8
0
  6
CONTINUOUS
 10
18.131250
 20
135.997574
 11
16.332251
 21
135.549850
  0
LINE
  8
0
  6
CONTINUOUS
 10
-2.068750
 20
112.122581
 11
-1.568750
 21
112.622581
  0
LINE
  8
0
  6
CONTINUOUS
 10
-2.068750
 20
42.122578
 11
-1.568750
 21
41.622578
  0
LINE
  8
0
  6
CONTINUOUS
 10
336.931244
 20
151.494202
 11
336.931244
 21
6.122578
  0
LINE
  8
0
  6
CONTINUOUS
 10
211.931244
 20
6.122578
 11
336.931244
 21
6.122578
  0
LINE
  8
0
  6
CENTER
 10
220.976044
 20
126.122581
 11
332.142487
 21
126.122581
  0
LINE
  8
0
  6
CENTER
 10
274.431244
 20
197.622543
 11
274.431244
 21
-2.377422
  0
LINE
  8
0
  6
CONTINUOUS
 10
251.985657
 20
180.622543
 11
296.876862
 21
180.622543
  0
LINE
  8
0
  6
CONTINUOUS
 10
299.711639
 20
179.741241
 11
334.766052
 21
155.612823
  0
LINE
  8
0
  6
CONTINUOUS
 10
214.931244
 20
21.122578
 11
333.931244
 21
21.122578
  0
LINE
  8
0
  6
CONTINUOUS
 10
326.931244
 20
19.585077
 11
326.931244
 21
6.122578
  0
LINE
  8
0
  6
CONTINUOUS
 10
222.931244
 20
19.585077
 11
222.931244
 21
6.122578
  0
LINE
  8
0
  6
CENTER
 10
314.431244
 20
28.372578
 11
314.431244
 21
-0.627422
  0
LINE
  8
0
  6
CENTER
 10
234.431244
 20
28.372578
 11
234.431244
 21
0.622578
  0
LINE
  8
0
  6
DASHED
 10
319.931244
 20
21.122578
 11
319.931244
 21
6.122578
  0
LINE
  8
0
  6
DASHED
 10
308.931244
 20
21.122578
 11
308.931244
 21
6.122578
  0
LINE
  8
0
  6
DASHED
 10
239.931244
 20
21.122578
 11
239.931244
 21
6.122578
  0
LINE
  8
0
  6
DASHED
 10
228.931244
 20
21.122578
 11
228.931244
 21
6.122578
  0
ARC
  8
0
  6
CONTINUOUS
 10
254.431244
 20
76.122581
 40
26.500000
 50
170.529099
 51
270.000000
  0
ARC
  8
0
  6
CONTINUOUS
 10
294.431244
 20
76.122581
 40
26.500000
 50
-90.000000
 51
9.470950
  0
LINE
  8
0
  6
CONTINUOUS
 10
228.292450
 20
80.483055
 11
236.949249
 21
132.375412
  0
LINE
  8
0
  6
CONTINUOUS
 10
311.913239
 20
132.375412
 11
320.570038
 21
80.483086
  0
LINE
  8
0
  6
CONTINUOUS
 10
254.431244
 20
49.622578
 11
294.431244
 21
49.622578
  0
ARC
  8
0
  6
CONTINUOUS
 10
331.931244
 20
151.494141
 40
5.000000
 50
0.000000
 51
55.460110
  0
ARC
  8
0
  6
CONTINUOUS
 10
296.876862
 20
175.622543
 40
5.000000
 50
55.460079
 51
90.000000
  0
ARC
  8
0
  6
CONTINUOUS
 10
252.019653
 20
175.622543
 40
5.000000
 50
90.000000
 51
91.038872
  0
LINE
  8
0
  6
CONTINUOUS
 10
254.431244
 20
25.753351
 11
254.431244
 21
21.122578
  0
LINE
  8
0
  6
CONTINUOUS
 10
294.431244
 20
25.753351
 11
294.431244
 21
21.122578
  0
LINE
  8
0
  6
CONTINUOUS
 10
211.931244
 20
6.122578
 11
211.931244
 21
151.494156
  0
ARC
  8
0
  6
CONTINUOUS
 10
254.431244
 20
76.122581
 40
24.000000
 50
169.576294
 51
270.000000
  0
ARC
  8
0
  6
CONTINUOUS
 10
294.431244
 20
76.122581
 40
24.000000
 50
-90.000000
 51
9.471373
  0
LINE
  8
0
  6
CONTINUOUS
 10
254.431244
 20
52.122578
 11
294.431244
 21
52.122578
  0
CIRCLE
  8
0
  6
CONTINUOUS
 10
274.431244
 20
126.122581
 40
33.500000
  0
ARC
  8
0
  6
CONTINUOUS
 10
274.431244
 20
126.122581
 40
38.000000
 50
9.470961
 51
170.529099
  0
ARC
  8
0
  6
CONTINUOUS
 10
274.431244
 20
126.122581
 40
38.000000
 50
9.470963
 51
170.529007
  0
ARC
  8
0
  6
CONTINUOUS
 10
274.431244
 20
126.122581
 40
35.500000
 50
-189.470795
 51
9.471022
  0
LINE
  8
0
  6
CONTINUOUS
 10
230.758453
 20
80.071671
 11
239.415054
 21
131.963913
  0
LINE
  8
0
  6
CONTINUOUS
 10
309.447235
 20
131.964035
 11
318.104065
 21
80.071892
  0
LINE
  8
0
  6
CENTER
 10
112.284378
 20
90.122581
 11
238.120316
 21
90.122581
  0
LINE
  8
0
  6
CONTINUOUS
 10
191.931244
 20
90.122581
 11
191.931244
 21
26.122480
  0
LINE
  8
0
  6
CONTINUOUS
 10
191.931244
 20
90.122581
 11
191.931244
 21
154.122681
  0
LINE
  8
0
  6
CONTINUOUS
 10
214.096252
 20
155.612793
 11
249.150848
 21
179.741196
  0
ARC
  8
0
  6
CONTINUOUS
 10
251.985657
 20
175.622543
 40
5.000000
 50
90.000000
 51
124.540298
  0
ARC
  8
0
  6
CONTINUOUS
 10
216.931244
 20
151.494171
 40
5.000000
 50
124.540398
 51
180.000000
  0
ARC
  8
0
  6
CONTINUOUS
 10
214.931244
 20
18.122599
 40
3.000000
 50
90.000000
 51
180.000000
  0
ARC
  8
0
  6
CONTINUOUS
 10
333.931244
 20
18.122578
 40
3.000000
 50
0.000000
 51
90.000000
  0
LINE
  8
0
  6
CONTINUOUS
 10
264.134857
 20
62.122578
 11
259.974457
 21
62.122578
  0
LINE
  8
0
  6
CONTINUOUS
 10
266.431244
 20
69.091316
 11
266.431244
 21
62.122578
  0
LINE
  8
0
  6
CONTINUOUS
 10
270.431244
 20
71.622581
 11
270.431244
 21
74.122581
  0
LINE
  8
0
  6
CONTINUOUS
 10
278.431244
 20
71.622581
 11
278.431244
 21
74.122581
  0
LINE
  8
0
  6
CONTINUOUS
 10
273.650055
 20
72.653831
 11
273.650055
 21
63.435078
  0
LINE
  8
0
  6
CONTINUOUS
 10
275.150055
 20
72.653831
 11
275.150055
 21
63.435078
  0
LINE
  8
0
  6
CONTINUOUS
 10
283.025055
 20
72.653831
 11
283.025055
 21
63.372578
  0
LINE
  8
0
  6
CONTINUOUS
 10
284.400055
 20
67.731956
 11
284.400055
 21
63.372578
  0
LINE
  8
0
  6
CONTINUOUS
 10
264.533264
 20
72.528831
 11
260.678253
 21
72.528831
  0
LINE
  8
0
  6
CONTINUOUS
 10
260.678253
 20
72.528831
 11
259.775055
 21
71.408829
  0
LINE
  8
0
  6
CONTINUOUS
 10
259.883636
 20
74.122581
 11
258.431244
 21
72.262817
  0
LINE
  8
0
  6
CONTINUOUS
 10
259.775055
 20
64.495499
 11
260.692657
 21
63.528816
  0
LINE
  8
0
  6
CONTINUOUS
 10
258.431244
 20
63.679737
 11
259.974457
 21
62.122578
  0
LINE
  8
0
  6
CONTINUOUS
 10
258.431244
 20
72.262817
 11
258.431244
 21
63.679737
  0
LINE
  8
0
  6
CONTINUOUS
 10
259.775055
 20
71.408829
 11
259.775055
 21
64.495499
  0
LINE
  8
0
  6
CONTINUOUS
 10
265.275055
 20
71.811722
 11
264.518036
 21
72.528831
  0
LINE
  8
0
  6
CONTINUOUS
 10
265.263062
 20
74.122581
 11
266.431244
 21
72.826088
  0
LINE
  8
0
  6
CONTINUOUS
 10
265.275055
 20
71.622581
 11
266.431244
 21
71.622581
  0
LINE
  8
0
  6
CONTINUOUS
 10
259.883636
 20
74.122581
 11
265.263062
 21
74.122581
  0
LINE
  8
0
  6
CONTINUOUS
 10
263.181244
 20
69.091316
 11
266.431244
 21
69.091316
  0
LINE
  8
0
  6
CONTINUOUS
 10
265.275055
 20
67.778816
 11
263.181244
 21
67.778816
  0
LINE
  8
0
  6
CONTINUOUS
 10
262.775055
 20
63.528816
 11
260.692657
 21
63.528816
  0
LINE
  8
0
  6
CONTINUOUS
 10
265.275055
 20
66.528816
 11
265.275055
 21
67.528816
  0
ARC
  8
0
  6
CONTINUOUS
 10
262.775055
 20
66.028816
 40
2.500000
 50
-89.999786
 51
0.000109
  0
LINE
  8
0
  6
CONTINUOUS
 10
265.275055
 20
63.079140
 11
265.275055
 21
62.122578
  0
LINE
  8
0
  6
CONTINUOUS
 10
266.431244
 20
72.826088
 11
266.431244
 21
71.622581
  0
LINE
  8
0
  6
CONTINUOUS
 10
265.275055
 20
67.778816
 11
265.275055
 21
66.028816
  0
LINE
  8
0
  6
CONTINUOUS
 10
263.181244
 20
69.091316
 11
263.181244
 21
67.778816
  0
LINE
  8
0
  6
CONTINUOUS
 10
265.275055
 20
62.122578
 11
266.431244
 21
62.122578
  0
LINE
  8
0
  6
CONTINUOUS
 10
265.275055
 20
63.079140
 11
264.134857
 21
62.122578
  0
LINE
  8
0
  6
CONTINUOUS
 10
275.150055
 20
63.435078
 11
275.650055
 21
63.435078
  0
LINE
  8
0
  6
CONTINUOUS
 10
273.056244
 20
63.435078
 11
273.056244
 21
62.122578
  0
LINE
  8
0
  6
CONTINUOUS
 10
275.650055
 20
63.435078
 11
275.650055
 21
62.122578
  0
LINE
  8
0
  6
CONTINUOUS
 10
277.596863
 20
71.622581
 11
278.431244
 21
71.622581
  0
LINE
  8
0
  6
CONTINUOUS
 10
270.431244
 20
71.622581
 11
271.319244
 21
71.622581
  0
LINE
  8
0
  6
CONTINUOUS
 10
270.431244
 20
74.122581
 11
278.431244
 21
74.122581
  0
LINE
  8
0
  6
CONTINUOUS
 10
273.056244
 20
62.122578
 11
275.650055
 21
62.122578
  0
LINE
  8
0
  6
CONTINUOUS
 10
273.056244
 20
63.435078
 11
273.650055
 21
63.435078
  0
ARC
  8
0
  6
CONTINUOUS
 10
287.228058
 20
70.919449
 40
3.203126
 50
-73.981873
 51
90.003510
  0
ARC
  8
0
  6
CONTINUOUS
 10
287.228058
 20
70.919449
 40
1.954124
 50
-82.585274
 51
62.411850
  0
LINE
  8
0
  6
CONTINUOUS
 10
282.431244
 20
74.122581
 11
287.228058
 21
74.122581
  0
LINE
  8
0
  6
CONTINUOUS
 10
287.480255
 20
68.981659
 11
284.400055
 21
68.981659
  0
LINE
  8
0
  6
CONTINUOUS
 10
282.431244
 20
74.122581
 11
282.431244
 21
72.653831
  0
LINE
  8
0
  6
CONTINUOUS
 10
284.400055
 20
72.653831
 11
284.400055
 21
68.981659
  0
LINE
  8
0
  6
CONTINUOUS
 10
288.112061
 20
67.840698
 11
290.094452
 21
63.372578
  0
LINE
  8
0
  6
CONTINUOUS
 10
286.960449
 20
67.731956
 11
288.836639
 21
63.372578
  0
LINE
  8
0
  6
CONTINUOUS
 10
282.431244
 20
63.372578
 11
283.025055
 21
63.372578
  0
LINE
  8
0
  6
CONTINUOUS
 10
284.400055
 20
63.372578
 11
284.946838
 21
63.372578
  0
LINE
  8
0
  6
CONTINUOUS
 10
284.946838
 20
62.122578
 11
282.431244
 21
62.122578
  0
LINE
  8
0
  6
CONTINUOUS
 10
288.587463
 20
63.372578
 11
288.836639
 21
63.372578
  0
LINE
  8
0
  6
CONTINUOUS
 10
290.094452
 20
63.372578
 11
290.431244
 21
63.372578
  0
LINE
  8
0
  6
CONTINUOUS
 10
288.587463
 20
62.122578
 11
290.431244
 21
62.122578
  0
LINE
  8
0
  6
CONTINUOUS
 10
290.431244
 20
63.372578
 11
290.431244
 21
62.122578
  0
LINE
  8
0
  6
CONTINUOUS
 10
288.587463
 20
63.372578
 11
288.587463
 21
62.122578
  0
LINE
  8
0
  6
CONTINUOUS
 10
284.946838
 20
63.372578
 11
284.946838
 21
62.122578
  0
LINE
  8
0
  6
CONTINUOUS
 10
282.431244
 20
63.372578
 11
282.431244
 21
62.122578
  0
LINE
  8
0
  6
CONTINUOUS
 10
271.749054
 20
72.653831
 11
271.319244
 21
71.622581
  0
LINE
  8
0
  6
CONTINUOUS
 10
277.234436
 20
72.653831
 11
277.596863
 21
71.622581
  0
LINE
  8
0
  6
CONTINUOUS
 10
275.150055
 20
72.653831
 11
277.234436
 21
72.653831
  0
LINE
  8
0
  6
CONTINUOUS
 10
273.650055
 20
72.653831
 11
271.749054
 21
72.653831
  0
LINE
  8
0
  6
CONTINUOUS
 10
284.400055
 20
67.731956
 11
286.960449
 21
67.731956
  0
LINE
  8
0
  6
CONTINUOUS
 10
282.431244
 20
72.653831
 11
283.025055
 21
72.653831
  0
LINE
  8
0
  6
CONTINUOUS
 10
284.400055
 20
72.653831
 11
288.133057
 21
72.651398
  0
LINE
  8
0
  6
CONTINUOUS
 10
265.275055
 20
71.811722
 11
265.275055
 21
71.622581
  0
LINE
  8
0
  6
CONTINUOUS
 10
563.397278
 20
37.122578
 11
563.397278
 21
41.101299
  0
LINE
  8
0
  6
CONTINUOUS
 10
473.397247
 20
37.122578
 11
473.397247
 21
41.101238
  0
LINE
  8
0
  6
CONTINUOUS
 10
478.397247
 20
32.122578
 11
481.397247
 21
32.122578
  0
LINE
  8
0
  6
CONTINUOUS
 10
558.397278
 20
32.122578
 11
555.397278
 21
32.122578
  0
ARC
  8
0
  6
CONTINUOUS
 10
478.397247
 20
37.122578
 40
5.000000
 50
180.000000
 51
270.000000
  0
ARC
  8
0
  6
CONTINUOUS
 10
558.397278
 20
37.122578
 40
5.000000
 50
-90.000000
 51
0.000000
  0
ARC
  8
0
  6
CONTINUOUS
 10
559.409668
 20
49.110619
 40
8.000000
 50
306.780975
 51
358.958740
  0
ARC
  8
0
  6
CONTINUOUS
 10
477.385040
 20
49.110359
 40
8.000000
 50
181.041107
 51
233.216995
  0
ARC
  8
0
  6
CONTINUOUS
 10
565.397278
 20
41.101318
 40
2.000000
 50
126.781197
 51
180.000000
  0
ARC
  8
0
  6
CONTINUOUS
 10
471.397247
 20
41.101238
 40
2.000000
 50
0.000000
 51
53.217121
  0
LINE
  8
0
  6
CENTER
 10
518.397278
 20
-11.206262
 11
518.397278
 21
193.399994
  0
LINE
  8
0
  6
CENTER
 10
408.096863
 20
126.122581
 11
629.541870
 21
126.122581
  0
LINE
  8
0
  6
CONTINUOUS
 10
455.397247
 20
6.122578
 11
490.897247
 21
6.122578
  0
LINE
  8
0
  6
CONTINUOUS
 10
459.397247
 20
21.122578
 11
477.397247
 21
21.122578
  0
LINE
  8
0
  6
CONTINUOUS
 10
577.397278
 20
21.122578
 11
559.397278
 21
21.122578
  0
LINE
  8
0
  6
CONTINUOUS
 10
482.897247
 20
154.122574
 11
553.647278
 21
154.122574
  0
LINE
  8
0
  6
CONTINUOUS
 10
552.449646
 20
180.028458
 11
518.397278
 21
180.622574
  0
LINE
  8
0
  6
CONTINUOUS
 10
484.344849
 20
180.028061
 11
518.397278
 21
180.622574
  0
LINE
  8
0
  6
CONTINUOUS
 10
555.397278
 20
177.028915
 11
555.397278
 21
6.122558
  0
LINE
  8
0
  6
CONTINUOUS
 10
481.397247
 20
177.028519
 11
481.397247
 21
6.122578
  0
LINE
  8
0
  6
CONTINUOUS
 10
465.397247
 20
96.410309
 11
465.397247
 21
155.834824
  0
LINE
  8
0
  6
CONTINUOUS
 10
571.397278
 20
155.834839
 11
571.397278
 21
96.410316
  0
LINE
  8
0
  6
CONTINUOUS
 10
472.397247
 20
55.922997
 11
472.397247
 21
128.622574
  0
LINE
  8
0
  6
CONTINUOUS
 10
564.397278
 20
55.922997
 11
564.397278
 21
128.622574
  0
LINE
  8
0
  6
CONTINUOUS
 10
581.397278
 20
17.818516
 11
581.397278
 21
6.122578
  0
LINE
  8
0
  6
CONTINUOUS
 10
455.397247
 20
17.818516
 11
455.397247
 21
6.122578
  0
LINE
  8
0
  6
CENTER
 10
468.397247
 20
29.122578
 11
468.397247
 21
-5.230822
  0
LINE
  8
0
  6
CENTER
 10
568.397278
 20
29.622578
 11
568.397278
 21
-5.230822
  0
LINE
  8
0
  6
DASHED
 10
462.897247
 20
21.122578
 11
462.897247
 21
6.122578
  0
LINE
  8
0
  6
DASHED
 10
473.897247
 20
21.122578
 11
473.897247
 21
6.122578
  0
LINE
  8
0
  6
DASHED
 10
562.897278
 20
21.122578
 11
562.897278
 21
6.122578
  0
LINE
  8
0
  6
DASHED
 10
573.897278
 20
21.122578
 11
573.897278
 21
6.122578
  0
ARC
  8
0
  6
CONTINUOUS
 10
484.397247
 20
177.028534
 40
3.000000
 50
91.000526
 51
180.000000
  0
ARC
  8
0
  6
CONTINUOUS
 10
552.397278
 20
177.028900
 40
3.000000
 50
0.000000
 51
89.000580
  0
LINE
  8
0
  6
CONTINUOUS
 10
545.897278
 20
6.122578
 11
581.397278
 21
6.122578
  0
LINE
  8
0
  6
CONTINUOUS
 10
491.897247
 20
7.122578
 11
544.897278
 21
7.122578
  0
LINE
  8
0
  6
CONTINUOUS
 10
469.043457
 20
160.648102
 11
477.750854
 21
163.097061
  0
LINE
  8
0
  6
CONTINUOUS
 10
469.043457
 20
91.597061
 11
470.209442
 21
91.269127
  0
LINE
  8
0
  6
CONTINUOUS
 10
476.059052
 20
51.105419
 11
477.735443
 21
50.639736
  0
LINE
  8
0
  6
CONTINUOUS
 10
560.735474
 20
51.105419
 11
559.059021
 21
50.639736
  0
LINE
  8
0
  6
CONTINUOUS
 10
567.750854
 20
91.597061
 11
566.585022
 21
91.269135
  0
LINE
  8
0
  6
CONTINUOUS
 10
567.750854
 20
160.648102
 11
559.043640
 21
163.097061
  0
ARC
  8
0
  6
CONTINUOUS
 10
470.397247
 20
155.834854
 40
5.000000
 50
105.709000
 51
180.000000
  0
ARC
  8
0
  6
CONTINUOUS
 10
470.397247
 20
96.410347
 40
5.000000
 50
180.000000
 51
254.291702
  0
ARC
  8
0
  6
CONTINUOUS
 10
477.397247
 20
55.923038
 40
5.000000
 50
180.000000
 51
254.476196
  0
ARC
  8
0
  6
CONTINUOUS
 10
559.397278
 20
55.922997
 40
5.000000
 50
-74.475708
 51
0.000000
  0
ARC
  8
0
  6
CONTINUOUS
 10
566.397278
 20
96.410309
 40
5.000000
 50
-74.291199
 51
0.000000
  0
ARC
  8
0
  6
CONTINUOUS
 10
566.397278
 20
155.834824
 40
5.000000
 50
0.000000
 51
74.291527
  0
ARC
  8
0
  6
CONTINUOUS
 10
567.397278
 20
88.381195
 40
3.000000
 50
105.709000
 51
180.000000
  0
ARC
  8
0
  6
CONTINUOUS
 10
469.397247
 20
88.381165
 40
3.000000
 50
0.000000
 51
74.291397
  0
ARC
  8
0
  6
CONTINUOUS
 10
476.397247
 20
167.910324
 40
5.000000
 50
-74.291199
 51
0.000000
  0
ARC
  8
0
  6
CONTINUOUS
 10
560.397278
 20
167.910339
 40
5.000000
 50
180.000000
 51
254.291702
  0
ARC
  8
0
  6
CONTINUOUS
 10
560.397278
 20
45.822178
 40
5.000000
 50
105.524399
 51
180.000000
  0
ARC
  8
0
  6
CONTINUOUS
 10
476.397247
 20
45.822140
 40
5.000000
 50
0.000000
 51
74.475952
  0
LINE
  8
0
  6
CONTINUOUS
 10
545.897278
 20
6.122578
 11
544.897278
 21
7.122578
  0
LINE
  8
0
  6
CONTINUOUS
 10
490.897247
 20
6.122578
 11
491.897247
 21
7.122578
  0
LINE
  8
0
  6
CENTER
 10
441.498505
 20
90.122574
 11
597.918518
 21
90.122574
  0
LINE
  8
0
  6
CONTINUOUS
 10
284.431244
 20
122.122620
 11
284.431244
 21
130.122620
  0
LINE
  8
0
  6
CONTINUOUS
 10
291.431244
 20
122.122635
 11
291.431244
 21
130.122635
  0
LINE
  8
0
  6
CONTINUOUS
 10
291.431244
 20
122.122635
 11
284.431244
 21
122.122620
  0
LINE
  8
0
  6
CONTINUOUS
 10
291.431244
 20
130.122635
 11
284.431244
 21
130.122620
  0
ARC
  8
0
  6
CONTINUOUS
 10
274.431244
 20
126.122581
 40
14.000000
 50
16.601500
 51
343.398499
  0
LINE
  8
0
  6
CONTINUOUS
 10
418.397247
 20
112.122581
 11
418.397247
 21
140.122574
  0
LINE
  8
0
  6
CONTINUOUS
 10
463.397247
 20
140.122574
 11
418.397247
 21
140.122574
  0
LINE
  8
0
  6
CONTINUOUS
 10
463.397247
 20
112.122581
 11
418.397247
 21
112.122581
  0
LINE
  8
0
  6
CONTINUOUS
 10
463.397247
 20
141.122574
 11
463.397247
 21
111.122581
  0
LINE
  8
0
  6
CONTINUOUS
 10
465.397247
 20
111.122581
 11
463.397247
 21
111.122581
  0
ARC
  8
0
  6
CONTINUOUS
 10
454.397247
 20
126.122581
 40
4.000000
 50
-90.000000
 51
90.000000
  0
LINE
  8
0
  6
CONTINUOUS
 10
454.397247
 20
130.122574
 11
418.397247
 21
130.122574
  0
LINE
  8
0
  6
CONTINUOUS
 10
454.397247
 20
122.122581
 11
418.397247
 21
122.122581
  0
LINE
  8
0
  6
CONTINUOUS
 10
465.397247
 20
141.122574
 11
463.397247
 21
141.122574
  0
LINE
  8
0
  6
CONTINUOUS
 10
618.397278
 20
112.122581
 11
618.397278
 21
140.122574
  0
LINE
  8
0
  6
CONTINUOUS
 10
573.397278
 20
140.122574
 11
618.397278
 21
140.122574
  0
LINE
  8
0
  6
CONTINUOUS
 10
573.397278
 20
112.122581
 11
618.397278
 21
112.122581
  0
LINE
  8
0
  6
CONTINUOUS
 10
573.397278
 20
141.122574
 11
573.397278
 21
111.122581
  0
LINE
  8
0
  6
CONTINUOUS
 10
571.397278
 20
111.122581
 11
573.397278
 21
111.122581
  0
ARC
  8
0
  6
CONTINUOUS
 10
582.397278
 20
126.122581
 40
4.000000
 50
90.000000
 51
270.000000
  0
LINE
  8
0
  6
CONTINUOUS
 10
582.397278
 20
130.122574
 11
618.397278
 21
130.122574
  0
LINE
  8
0
  6
CONTINUOUS
 10
582.397278
 20
122.122581
 11
618.397278
 21
122.122581
  0
LINE
  8
0
  6
CONTINUOUS
 10
571.397278
 20
141.122574
 11
573.397278
 21
141.122574
  0
LINE
  8
0
  6
CONTINUOUS
 10
185.431244
 20
154.122681
 11
191.931244
 21
154.122681
  0
LINE
  8
0
  6
CONTINUOUS
 10
185.431244
 20
26.122480
 11
191.931244
 21
26.122480
  0
LINE
  8
0
  6
CONTINUOUS
 10
137.431244
 20
122.122581
 11
183.431244
 21
123.728935
  0
LINE
  8
0
  6
CONTINUOUS
 10
191.931244
 20
30.219397
 11
137.431244
 21
32.122578
  0
ARC
  8
0
  6
CONTINUOUS
 10
185.431274
 20
152.122696
 40
2.000000
 50
90.000000
 51
180.000000
  0
ARC
  8
0
  6
CONTINUOUS
 10
185.431244
 20
28.122480
 40
2.000000
 50
180.260773
 51
270.000000
  0
LINE
  8
0
  6
CENTER
 10
-16.087540
 20
77.122581
 11
238.120316
 21
77.122581
  0
LINE
  8
0
  6
CONTINUOUS
 10
137.431244
 20
122.122581
 11
137.431244
 21
32.122578
  0
LINE
  8
0
  6
CONTINUOUS
 10
182.699020
 20
129.890350
 11
176.984512
 21
124.175835
  0
LINE
  8
0
  6
CONTINUOUS
 10
214.194626
 20
408.847565
 11
333.337311
 21
408.847565
  0
ARC
  8
0
  6
CONTINUOUS
 10
333.337311
 20
405.847565
 40
3.000000
 50
1.000000
 51
90.000000
  0
LINE
  8
0
  6
CONTINUOUS
 10
319.425507
 20
414.201294
 11
320.315948
 21
411.035309
  0
ARC
  8
0
  6
CONTINUOUS
 10
323.203888
 20
411.847565
 40
3.000000
 50
195.708649
 51
270.000000
  0
ARC
  8
0
  6
CONTINUOUS
 10
206.008850
 20
426.074127
 40
3.000000
 50
1.500200
 51
77.801201
  0
LINE
  8
0
  6
CONTINUOUS
 10
209.007843
 20
426.152679
 11
209.363846
 21
412.557892
  0
ARC
  8
0
  6
CONTINUOUS
 10
207.276657
 20
431.938660
 40
3.000000
 50
-164.999893
 51
-102.198799
  0
LINE
  8
0
  6
CENTER
 10
-16.359728
 20
371.847565
 11
352.335114
 21
371.847565
  0
LINE
  8
0
  6
CONTINUOUS
 10
225.446121
 20
308.847565
 11
260.431244
 21
308.847565
  0
LINE
  8
0
  6
CONTINUOUS
 10
336.931244
 20
371.847565
 11
336.285400
 21
408.847565
  0
LINE
  8
0
  6
CONTINUOUS
 10
328.121155
 20
431.540222
 11
336.285400
 21
408.847565
  0
ARC
  8
0
  6
CONTINUOUS
 10
323.416382
 20
429.847565
 40
5.000000
 50
19.787489
 51
90.000000
  0
LINE
  8
0
  6
CONTINUOUS
 10
336.931244
 20
371.847565
 11
336.285400
 21
334.847565
  0
LINE
  8
0
  6
CONTINUOUS
 10
328.121155
 20
312.154877
 11
336.285400
 21
334.847565
  0
ARC
  8
0
  6
CONTINUOUS
 10
323.416382
 20
313.847565
 40
5.000000
 50
-90.000000
 51
-19.787489
  0
LINE
  8
0
  6
CONTINUOUS
 10
214.194626
 20
408.847565
 11
333.337311
 21
408.847565
  0
LINE
  8
0
  6
CENTER
 10
274.431244
 20
252.610001
 11
274.431244
 21
482.953735
  0
ARC
  8
0
  6
CONTINUOUS
 10
333.337311
 20
405.847565
 40
3.000000
 50
1.000000
 51
90.000000
  0
ARC
  8
0
  6
CONTINUOUS
 10
333.337311
 20
337.847565
 40
3.000000
 50
-90.000000
 51
-1.000000
  0
LINE
  8
0
  6
CONTINUOUS
 10
214.267853
 20
334.847565
 11
333.337311
 21
334.847565
  0
LINE
  8
0
  6
CONTINUOUS
 10
304.143524
 20
424.847565
 11
244.718994
 21
424.847565
  0
LINE
  8
0
  6
CONTINUOUS
 10
308.956757
 20
421.201263
 11
309.899994
 21
417.847565
  0
ARC
  8
0
  6
CONTINUOUS
 10
304.143524
 20
419.847565
 40
5.000000
 50
15.708638
 51
90.000000
  0
LINE
  8
0
  6
CONTINUOUS
 10
309.899994
 20
417.847565
 11
314.612274
 21
417.847565
  0
ARC
  8
0
  6
CONTINUOUS
 10
314.612274
 20
412.847565
 40
5.000000
 50
15.708638
 51
90.000000
  0
LINE
  8
0
  6
CONTINUOUS
 10
239.905731
 20
421.201263
 11
238.962494
 21
417.847565
  0
ARC
  8
0
  6
CONTINUOUS
 10
244.718994
 20
419.847565
 40
5.000000
 50
90.000000
 51
164.291367
  0
LINE
  8
0
  6
CONTINUOUS
 10
238.962494
 20
417.847565
 11
234.250244
 21
417.847565
  0
LINE
  8
0
  6
CONTINUOUS
 10
229.436981
 20
414.201263
 11
228.546555
 21
411.035309
  0
ARC
  8
0
  6
CONTINUOUS
 10
234.250244
 20
412.847565
 40
5.000000
 50
90.000000
 51
164.291367
  0
ARC
  8
0
  6
CONTINUOUS
 10
225.658600
 20
411.847565
 40
3.000000
 50
-90.000000
 51
-15.708638
  0
LINE
  8
0
  6
CONTINUOUS
 10
304.143524
 20
318.847565
 11
244.718994
 21
318.847565
  0
LINE
  8
0
  6
CONTINUOUS
 10
308.956757
 20
322.493835
 11
309.899994
 21
325.847565
  0
ARC
  8
0
  6
CONTINUOUS
 10
304.143524
 20
323.847565
 40
5.000000
 50
-90.000000
 51
-15.708638
  0
LINE
  8
0
  6
CONTINUOUS
 10
309.899994
 20
325.847565
 11
314.612274
 21
325.847565
  0
LINE
  8
0
  6
CONTINUOUS
 10
319.425507
 20
329.493835
 11
320.315948
 21
332.659790
  0
ARC
  8
0
  6
CONTINUOUS
 10
314.612274
 20
330.847565
 40
5.000000
 50
-90.000000
 51
-15.708638
  0
ARC
  8
0
  6
CONTINUOUS
 10
323.203888
 20
331.847565
 40
3.000000
 50
-270.000000
 51
-195.708633
  0
LINE
  8
0
  6
CONTINUOUS
 10
239.905731
 20
322.493835
 11
238.962494
 21
325.847565
  0
ARC
  8
0
  6
CONTINUOUS
 10
244.718994
 20
323.847565
 40
5.000000
 50
-164.291367
 51
-90.000000
  0
LINE
  8
0
  6
CONTINUOUS
 10
238.962494
 20
325.847565
 11
234.250244
 21
325.847565
  0
LINE
  8
0
  6
CONTINUOUS
 10
229.436981
 20
329.493835
 11
228.546555
 21
332.659790
  0
ARC
  8
0
  6
CONTINUOUS
 10
234.250244
 20
330.847565
 40
5.000000
 50
-164.291367
 51
-90.000000
  0
ARC
  8
0
  6
CONTINUOUS
 10
225.658600
 20
331.847565
 40
3.000000
 50
15.708638
 51
90.000000
  0
LINE
  8
0
  6
CONTINUOUS
 10
220.741348
 20
431.540222
 11
212.663513
 21
409.087738
  0
ARC
  8
0
  6
CONTINUOUS
 10
225.446121
 20
429.847565
 40
5.000000
 50
90.000000
 51
160.212509
  0
LINE
  8
0
  6
CONTINUOUS
 10
220.741348
 20
312.154877
 11
212.679352
 21
334.563293
  0
ARC
  8
0
  6
CONTINUOUS
 10
225.446121
 20
313.847565
 40
5.000000
 50
199.787491
 51
270.000000
  0
LINE
  8
0
  6
CONTINUOUS
 10
225.446121
 20
434.847565
 11
260.431244
 21
434.847565
  0
LINE
  8
0
  6
CENTER
 10
314.431244
 20
432.960815
 11
314.431244
 21
413.519409
  0
LINE
  8
0
  6
CENTER
 10
304.520355
 20
421.847565
 11
323.038910
 21
421.847565
  0
ARC
  8
0
  6
CONTINUOUS
 10
314.431244
 20
421.847565
 40
5.500000
 50
-59.465683
 51
187.598495
  0
ARC
  8
0
  6
CONTINUOUS
 10
234.431244
 20
421.847565
 40
5.500000
 50
-7.598608
 51
239.465683
  0
LINE
  8
0
  6
CENTER
 10
234.431244
 20
432.960815
 11
234.431244
 21
413.519409
  0
LINE
  8
0
  6
CENTER
 10
244.342133
 20
421.847565
 11
225.823578
 21
421.847565
  0
ARC
  8
0
  6
CONTINUOUS
 10
234.431244
 20
321.847565
 40
5.500000
 50
-239.465683
 51
7.598608
  0
LINE
  8
0
  6
CENTER
 10
244.342133
 20
321.847565
 11
225.823578
 21
321.847565
  0
LINE
  8
0
  6
CENTER
 10
234.431244
 20
310.734283
 11
234.431244
 21
330.175690
  0
LINE
  8
0
  6
CENTER
 10
314.431244
 20
310.734283
 11
314.431244
 21
330.175690
  0
LINE
  8
0
  6
CENTER
 10
304.520355
 20
321.847565
 11
323.038910
 21
321.847565
  0
ARC
  8
0
  6
CONTINUOUS
 10
314.431244
 20
321.847565
 40
5.500000
 50
-187.598602
 51
59.465683
  0
LINE
  8
0
  6
CONTINUOUS
 10
298.431244
 20
337.847565
 11
298.431244
 21
405.847565
  0
LINE
  8
0
  6
CONTINUOUS
 10
250.431244
 20
337.847565
 11
250.431244
 21
405.847565
  0
LINE
  8
0
  6
CONTINUOUS
 10
209.511551
 20
331.141632
 11
204.262924
 21
311.553467
  0
LINE
  8
0
  6
CONTINUOUS
 10
209.007843
 20
316.995514
 11
209.363846
 21
330.590302
  0
ARC
  8
0
  6
CONTINUOUS
 10
206.008850
 20
317.074127
 40
3.000000
 50
282.198792
 51
358.499786
  0
ARC
  8
0
  6
CONTINUOUS
 10
207.276657
 20
311.209503
 40
3.000000
 50
102.198799
 51
165.000031
  0
ARC
  8
0
  6
CONTINUOUS
 10
206.008850
 20
426.074127
 40
3.000000
 50
1.500200
 51
77.801201
  0
LINE
  8
0
  6
CONTINUOUS
 10
209.007843
 20
426.152679
 11
209.363846
 21
412.557892
  0
ARC
  8
0
  6
CONTINUOUS
 10
207.276657
 20
431.938660
 40
3.000000
 50
-164.999893
 51
-102.198799
  0
LINE
  8
0
  6
CONTINUOUS
 10
199.360046
 20
435.847565
 11
191.931244
 21
435.847565
  0
LINE
  8
0
  6
CONTINUOUS
 10
204.116409
 20
432.141632
 11
209.438248
 21
412.280060
  0
ARC
  8
0
  6
CONTINUOUS
 10
214.341171
 20
329.847565
 40
5.000000
 50
90.000000
 51
165.000031
  0
ARC
  8
0
  6
CONTINUOUS
 10
214.194626
 20
413.847565
 40
5.000000
 50
194.999847
 51
270.000000
  0
LINE
  8
0
  6
CONTINUOUS
 10
291.431244
 20
471.847565
 11
260.431244
 21
471.847565
  0
LINE
  8
0
  6
CONTINUOUS
 10
260.431244
 20
426.847565
 11
260.431244
 21
471.847565
  0
LINE
  8
0
  6
CONTINUOUS
 10
288.431244
 20
426.847565
 11
288.431244
 21
431.847565
  0
LINE
  8
0
  6
CONTINUOUS
 10
259.431244
 20
426.847565
 11
289.431244
 21
426.847565
  0
LINE
  8
0
  6
CONTINUOUS
 10
289.431244
 20
424.847565
 11
289.431244
 21
426.847565
  0
LINE
  8
0
  6
CONTINUOUS
 10
259.431244
 20
424.847565
 11
259.431244
 21
426.847565
  0
LINE
  8
0
  6
CONTINUOUS
 10
291.431244
 20
434.847565
 11
323.416382
 21
434.847565
  0
LINE
  8
0
  6
CONTINUOUS
 10
287.847656
 20
431.847565
 11
291.431244
 21
431.847565
  0
LINE
  8
0
  6
CONTINUOUS
 10
287.847656
 20
431.847565
 11
287.847656
 21
471.847565
  0
LINE
  8
0
  6
CONTINUOUS
 10
291.431244
 20
471.847565
 11
291.431244
 21
431.847565
  0
LINE
  8
0
  6
CONTINUOUS
 10
291.431244
 20
271.847565
 11
260.431244
 21
271.847565
  0
LINE
  8
0
  6
CONTINUOUS
 10
260.431244
 20
316.847565
 11
260.431244
 21
271.847565
  0
LINE
  8
0
  6
CONTINUOUS
 10
288.431244
 20
316.847565
 11
288.431244
 21
311.847565
  0
LINE
  8
0
  6
CONTINUOUS
 10
259.431244
 20
316.847565
 11
289.431244
 21
316.847565
  0
LINE
  8
0
  6
CONTINUOUS
 10
289.431244
 20
318.847565
 11
289.431244
 21
316.847565
  0
LINE
  8
0
  6
CONTINUOUS
 10
259.431244
 20
318.847565
 11
259.431244
 21
316.847565
  0
LINE
  8
0
  6
CONTINUOUS
 10
287.847656
 20
311.847565
 11
291.431244
 21
311.847565
  0
LINE
  8
0
  6
CONTINUOUS
 10
287.847656
 20
311.847565
 11
287.847656
 21
271.847565
  0
LINE
  8
0
  6
CONTINUOUS
 10
291.431244
 20
271.847565
 11
291.431244
 21
311.847565
  0
LINE
  8
0
  6
CONTINUOUS
 10
291.431244
 20
308.847565
 11
323.416382
 21
308.847565
  0
LINE
  8
0
  6
CONTINUOUS
 10
191.931244
 20
307.847565
 11
199.433289
 21
307.847565
  0
ARC
  8
0
  6
CONTINUOUS
 10
199.433289
 20
312.847565
 40
5.000000
 50
270.000000
 51
345.000031
  0
ARC
  8
0
  6
CONTINUOUS
 10
199.286789
 20
430.847565
 40
5.000000
 50
14.999846
 51
90.000000
  0
LINE
  8
0
  6
CONTINUOUS
 10
211.931244
 20
371.847565
 11
212.525635
 21
405.899902
  0
LINE
  8
0
  6
CONTINUOUS
 10
211.931244
 20
371.847565
 11
212.525635
 21
337.795197
  0
ARC
  8
0
  6
CONTINUOUS
 10
215.525177
 20
405.847565
 40
3.000000
 50
90.000000
 51
179.000000
  0
ARC
  8
0
  6
CONTINUOUS
 10
215.525177
 20
337.847565
 40
3.000000
 50
181.000000
 51
270.000000
  0
LINE
  8
0
  6
CONTINUOUS
 10
210.376892
 20
154.122681
 11
191.931244
 21
154.122681
  0
LINE
  8
0
  6
CONTINUOUS
 10
191.931244
 20
26.122480
 11
206.931244
 21
26.122480
  0
ARC
  8
0
  6
CONTINUOUS
 10
206.931274
 20
21.122461
 40
5.000000
 50
0.000000
 51
90.000000
  0
LINE
  8
0
  6
CONTINUOUS
 10
458.641846
 20
21.746553
 11
478.152649
 21
25.498615
  0
ARC
  8
0
  6
CONTINUOUS
 10
518.397278
 20
90.122581
 40
64.000099
 50
-54.681290
 51
20.105476
  0
ARC
  8
0
  6
CONTINUOUS
 10
518.397278
 20
90.122581
 40
64.000099
 50
159.894516
 51
234.681290
  0
ARC
  8
0
  6
CONTINUOUS
 10
459.397247
 20
17.122578
 40
4.000000
 50
90.000000
 51
180.000000
  0
ARC
  8
0
  6
CONTINUOUS
 10
459.397247
 20
17.818516
 40
4.000000
 50
100.885529
 51
180.000000
  0
ARC
  8
0
  6
CONTINUOUS
 10
477.397247
 20
29.426641
 40
4.000000
 50
-79.114502
 51
0.000000
  0
ARC
  8
0
  6
CONTINUOUS
 10
477.397247
 20
25.122578
 40
4.000000
 50
-90.000000
 51
0.000000
  0
LINE
  8
0
  6
CONTINUOUS
 10
578.152649
 20
21.746553
 11
558.641846
 21
25.498615
  0
ARC
  8
0
  6
CONTINUOUS
 10
577.397278
 20
17.122578
 40
4.000000
 50
0.000000
 51
90.000000
  0
ARC
  8
0
  6
CONTINUOUS
 10
577.397278
 20
17.818516
 40
4.000000
 50
0.000000
 51
79.114471
  0
ARC
  8
0
  6
CONTINUOUS
 10
559.397278
 20
29.426641
 40
4.000000
 50
180.000000
 51
259.114502
  0
ARC
  8
0
  6
CONTINUOUS
 10
559.397278
 20
25.122578
 40
4.000000
 50
180.000000
 51
270.000000
  0
LINE
  8
0
  6
CONTINUOUS
 10
255.873138
 20
26.122578
 11
292.989380
 21
26.122578
  0
LINE
  8
0
  6
CONTINUOUS
 10
253.530518
 20
24.996653
 11
251.332016
 21
22.248505
  0
ARC
  8
0
  6
CONTINUOUS
 10
248.989410
 20
24.122578
 40
3.000000
 50
270.000000
 51
321.340454
  0
ARC
  8
0
  6
CONTINUOUS
 10
255.873138
 20
23.122578
 40
3.000000
 50
90.000000
 51
141.340454
  0
LINE
  8
0
  6
CONTINUOUS
 10
295.331970
 20
24.996653
 11
297.530487
 21
22.248505
  0
ARC
  8
0
  6
CONTINUOUS
 10
299.873108
 20
24.122578
 40
3.000000
 50
-141.340454
 51
-90.000000
  0
ARC
  8
0
  6
CONTINUOUS
 10
292.989380
 20
23.122578
 40
3.000000
 50
38.659546
 51
90.000000
  0
ARC
  8
0
  6
CONTINUOUS
 10
210.376892
 20
159.122681
 40
5.000000
 50
270.000000
 51
304.539978
  0
LINE
  8
0
  6
CONTINUOUS
 10
191.931244
 20
435.847565
 11
191.931244
 21
307.847565
  0
LINE
  8
0
  6
CONTINUOUS
 10
210.431244
 20
141.722580
 11
211.931244
 21
141.722580
  0
LINE
  8
0
  6
CONTINUOUS
 10
210.431244
 20
38.522598
 11
211.931244
 21
38.522598
  0
ARC
  8
0
  6
CONTINUOUS
 10
394.384460
 20
90.122581
 40
191.053177
 50
164.330902
 51
195.669098
  0
ARC
  8
0
  6
CONTINUOUS
 10
394.384460
 20
90.122581
 40
190.053177
 50
178.548599
 51
181.478500
  0
LINE
  8
0
  6
CONTINUOUS
 10
206.431244
 20
95.122581
 11
205.426453
 21
95.122581
  0
LINE
  8
0
  6
CONTINUOUS
 10
208.931244
 20
92.622581
 11
208.931244
 21
87.622581
  0
ARC
  8
0
  6
CONTINUOUS
 10
205.426453
 20
96.120979
 40
1.000000
 50
178.182098
 51
270.000000
  0
ARC
  8
0
  6
CONTINUOUS
 10
206.431244
 20
92.622581
 40
2.500000
 50
0.000000
 51
90.000000
  0
LINE
  8
0
  6
CONTINUOUS
 10
206.431244
 20
85.122581
 11
205.426453
 21
85.122581
  0
ARC
  8
0
  6
CONTINUOUS
 10
205.426453
 20
84.124176
 40
1.000000
 50
-270.000000
 51
-178.182098
  0
ARC
  8
0
  6
CONTINUOUS
 10
206.431244
 20
87.622581
 40
2.500000
 50
-90.000000
 51
0.000000
  0
LINE
  8
0
  6
CONTINUOUS
 10
137.431244
 20
56.616577
 11
181.431244
 21
56.616577
  0
LINE
  8
0
  6
CONTINUOUS
 10
137.431244
 20
41.603577
 11
191.931244
 21
41.603580
  0
LINE
  8
0
  6
CONTINUOUS
 10
183.999222
 20
49.555576
 11
191.931244
 21
49.555576
  0
LINE
  8
0
  6
CONTINUOUS
 10
183.431244
 20
50.770313
 11
183.431244
 21
152.122696
  0
ARC
  8
0
  6
CONTINUOUS
 10
180.931290
 20
28.101999
 40
2.500000
 50
0.260773
 51
88.000000
  0
ARC
  8
0
  6
CONTINUOUS
 10
180.931244
 20
131.658112
 40
2.500000
 50
-45.000000
 51
0.000000
  0
ARC
  8
0
  6
CONTINUOUS
 10
175.216736
 20
125.943604
 40
2.500000
 50
272.000000
 51
315.000000
  0
LINE
  8
0
  6
CONTINUOUS
 10
183.431244
 20
309.847565
 11
183.431244
 21
433.847565
  0
LINE
  8
0
  6
CONTINUOUS
 10
137.431244
 20
416.847565
 11
180.994873
 21
418.368835
  0
LINE
  8
0
  6
CONTINUOUS
 10
137.431244
 20
326.847565
 11
180.994873
 21
325.326263
  0
LINE
  8
0
  6
CONTINUOUS
 10
137.431244
 20
420.859558
 11
137.431244
 21
322.835541
  0
LINE
  8
0
  6
CONTINUOUS
 10
185.431244
 20
435.847565
 11
191.931244
 21
435.847565
  0
LINE
  8
0
  6
CONTINUOUS
 10
185.431244
 20
307.847565
 11
191.931244
 21
307.847565
  0
LINE
  8
0
  6
CONTINUOUS
 10
176.288254
 20
395.847565
 11
183.403229
 21
395.847565
  0
LINE
  8
0
  6
CONTINUOUS
 10
176.893402
 20
347.847565
 11
183.403229
 21
347.847565
  0
LINE
  8
0
  6
CONTINUOUS
 10
176.288254
 20
393.643036
 11
176.288254
 21
349.930481
  0
LINE
  8
0
  6
CONTINUOUS
 10
128.431244
 20
414.847565
 11
128.431244
 21
400.847565
  0
LINE
  8
0
  6
CONTINUOUS
 10
18.431250
 20
416.847565
 11
137.431244
 21
416.847565
  0
LINE
  8
0
  6
CONTINUOUS
 10
18.431250
 20
326.847565
 11
137.431244
 21
326.847565
  0
LINE
  8
0
  6
CONTINUOUS
 10
18.431250
 20
416.847565
 11
18.431250
 21
378.713562
  0
LINE
  8
0
  6
CONTINUOUS
 10
18.431250
 20
400.847565
 11
128.431244
 21
400.847565
  0
LINE
  8
0
  6
CONTINUOUS
 10
18.431250
 20
342.847565
 11
128.431244
 21
342.847565
  0
ARC
  8
0
  6
CONTINUOUS
 10
130.431244
 20
414.847565
 40
2.000000
 50
90.000000
 51
180.000000
  0
ARC
  8
0
  6
CONTINUOUS
 10
130.431244
 20
328.847565
 40
2.000000
 50
180.000000
 51
270.000000
  0
LINE
  8
0
  6
CONTINUOUS
 10
-2.068750
 20
336.847565
 11
-2.068750
 21
406.847565
  0
LINE
  8
0
  6
CONTINUOUS
 10
2.472692
 20
416.847565
 11
18.431250
 21
416.847565
  0
LINE
  8
0
  6
CONTINUOUS
 10
-1.568750
 20
413.847565
 11
-1.568750
 21
329.847565
  0
LINE
  8
0
  6
CONTINUOUS
 10
18.431250
 20
400.847565
 11
0.181250
 21
400.847565
  0
LINE
  8
0
  6
CONTINUOUS
 10
-0.991404
 20
414.847534
 11
-1.568750
 21
413.847565
  0
ARC
  8
0
  6
CONTINUOUS
 10
2.472708
 20
412.847565
 40
4.000000
 50
90.000000
 51
150.000397
  0
LINE
  8
0
  6
CONTINUOUS
 10
2.472692
 20
326.847565
 11
18.431250
 21
326.847565
  0
LINE
  8
0
  6
CONTINUOUS
 10
18.431250
 20
342.847565
 11
0.181250
 21
342.847565
  0
LINE
  8
0
  6
CONTINUOUS
 10
-0.991404
 20
328.847565
 11
-1.568750
 21
329.847565
  0
ARC
  8
0
  6
CONTINUOUS
 10
2.472708
 20
330.847534
 40
4.000000
 50
-150.000397
 51
-90.000000
  0
LINE
  8
0
  6
CONTINUOUS
 10
-2.068750
 20
406.847565
 11
-1.568750
 21
407.347565
  0
LINE
  8
0
  6
CONTINUOUS
 10
-2.068750
 20
336.847565
 11
-1.568750
 21
336.347565
  0
LINE
  8
0
  6
CONTINUOUS
 10
137.431244
 20
416.847565
 11
137.431244
 21
326.847565
  0
ARC
  8
0
  6
CONTINUOUS
 10
185.431244
 20
433.847565
 40
2.000000
 50
90.000000
 51
180.000000
  0
ARC
  8
0
  6
CONTINUOUS
 10
185.431244
 20
309.847565
 40
2.000000
 50
180.000000
 51
270.000000
  0
ARC
  8
0
  6
CONTINUOUS
 10
180.907623
 20
420.867310
 40
2.500000
 50
272.000000
 51
359.895721
  0
ARC
  8
0
  6
CONTINUOUS
 10
180.907623
 20
322.827789
 40
2.500000
 50
0.104292
 51
88.000000
  0
LINE
  8
0
  6
CONTINUOUS
 10
183.431244
 20
418.453918
 11
183.403229
 21
418.452942
  0
LINE
  8
0
  6
CONTINUOUS
 10
137.930939
 20
421.377014
 11
183.431244
 21
422.965912
  0
LINE
  8
0
  6
CONTINUOUS
 10
137.431244
 20
420.859558
 11
137.930939
 21
421.377014
  0
LINE
  8
0
  6
CONTINUOUS
 10
137.930939
 20
322.318115
 11
183.431244
 21
320.729187
  0
LINE
  8
0
  6
CONTINUOUS
 10
137.431244
 20
322.835541
 11
137.930939
 21
322.318115
  0
LINE
  8
0
  6
CONTINUOUS
 10
11.931250
 20
365.847565
 11
11.931250
 21
377.847565
  0
LINE
  8
0
  6
CONTINUOUS
 10
18.931250
 20
365.847565
 11
18.931250
 21
377.847565
  0
LINE
  8
0
  6
CONTINUOUS
 10
12.931250
 20
378.847565
 11
17.931250
 21
378.847565
  0
LINE
  8
0
  6
CONTINUOUS
 10
17.931250
 20
364.847565
 11
12.931250
 21
364.847565
  0
ARC
  8
0
  6
CONTINUOUS
 10
17.931250
 20
377.847565
 40
1.000000
 50
0.000000
 51
90.000000
  0
ARC
  8
0
  6
CONTINUOUS
 10
12.931250
 20
377.847565
 40
1.000000
 50
90.000000
 51
180.000000
  0
ARC
  8
0
  6
CONTINUOUS
 10
12.931250
 20
365.847565
 40
1.000000
 50
180.000000
 51
270.000000
  0
ARC
  8
0
  6
CONTINUOUS
 10
17.931250
 20
365.847565
 40
1.000000
 50
-90.000000
 51
0.000000
  0
LINE
  8
0
  6
CONTINUOUS
 10
16.431250
 20
368.347565
 11
16.431250
 21
375.347565
  0
LINE
  8
0
  6
CONTINUOUS
 10
14.431250
 20
368.347565
 11
14.431250
 21
375.347565
  0
ARC
  8
0
  6
CONTINUOUS
 10
15.431250
 20
375.347565
 40
1.000000
 50
90.000000
 51
180.000000
  0
ARC
  8
0
  6
CONTINUOUS
 10
15.431250
 20
375.347565
 40
1.000000
 50
0.000000
 51
90.000000
  0
ARC
  8
0
  6
CONTINUOUS
 10
15.431250
 20
368.347565
 40
1.000000
 50
180.000000
 51
270.000000
  0
ARC
  8
0
  6
CONTINUOUS
 10
15.431250
 20
368.347565
 40
1.000000
 50
-90.000000
 51
0.000000
  0
LINE
  8
0
  6
CONTINUOUS
 10
18.431250
 20
364.981537
 11
18.431250
 21
326.847565
  0
LINE
  8
0
  6
CONTINUOUS
 10
128.431244
 20
342.847565
 11
128.431244
 21
328.847534
  0
TEXT
  8
0
 10
-16.000000
 20
-11.000000
 40
4.000000
 41
1.000000
  1
HLM-28T-1200~1800-S25W
 50
0.000000
  0
ENDSEC
  0
EOF
