  0
SECTION
  2
HEADER
  9
$CLAYER
  8
1
  9
$LTSCALE
 40
3.0
  0
ENDSEC
  0
SECTION
  2
TABLES
  0
TABLE
  2
LTYPE
 70
     4
  0
LTYPE
  2
CONTINUOUS
  3
solid line
 70
    64
 72
    65
 73
     0
 40
0.0
  0
LTYPE
  2
DASHED
  3
__ __ __ __ __ __ __ __ __ __ __ __ __ __ __
 70
    64
 72
    65
 73
     2
 40
0.75
 49
0.5
 49
-0.25
  0
LTYPE
  2
CENTER
  3
____ _ ____ _ ____ _ ____ _ ____ _ ____ _ ____
 70
    64
 72
    65
 73
     4
 40
2.0
 49
1.25
 49
-0.25
 49
0.25
 49
-0.25
  0
LTYPE
  2
PHANTOM
  3
_____ _ _ _____ _ _ _____ _ _ _____ _ _ ____
 70
    64
 72
    65
 73
     6
 40
2.5
 49
1.25
 49
-0.25
 49
0.25
 49
-0.25
 49
0.25
 49
-0.25
  0
ENDTAB
  0
TABLE
  2
LAYER
 70
     1
  0
LAYER
  2
0
 70
    64
 62
     7
  6
CONTINUOUS
  0
ENDTAB
  0
TABLE
  2
STYLE
 70
     1
  0
STYLE
  2
STANDARD
 70
     0
 40
0.000000
 41
1.000000
 50
0.000000
 71
     0
 42
3.000000
  3
txt
  4
BIGFONT
  0
ENDTAB
  0
ENDSEC
  0
SECTION
  2
BLOCKS
  0
ENDSEC
  0
SECTION
  2
ENTITIES
  0
LINE
  8
0
  6
CONTINUOUS
 10
131.528748
 20
118.573830
 11
131.528748
 21
32.573807
  0
LINE
  8
0
  6
CONTINUOUS
 10
21.528749
 20
120.573830
 11
140.528748
 21
120.573830
  0
LINE
  8
0
  6
CONTINUOUS
 10
21.528749
 20
30.573828
 11
140.528748
 21
30.573828
  0
LINE
  8
0
  6
CONTINUOUS
 10
21.528749
 20
120.573830
 11
21.528749
 21
30.573828
  0
LINE
  8
0
  6
CONTINUOUS
 10
21.528749
 20
109.983131
 11
130.491074
 21
109.983131
  0
LINE
  8
0
  6
CONTINUOUS
 10
21.528749
 20
41.164528
 11
130.491074
 21
41.164528
  0
ARC
  8
0
  6
CONTINUOUS
 10
133.528748
 20
118.573845
 40
2.000000
 50
90.000000
 51
180.000000
  0
ARC
  8
0
  6
CONTINUOUS
 10
133.528748
 20
32.573830
 40
2.000000
 50
180.000000
 51
270.000000
  0
LINE
  8
0
  6
CONTINUOUS
 10
1.028750
 20
40.573830
 11
1.028750
 21
110.573830
  0
LINE
  8
0
  6
CONTINUOUS
 10
5.570192
 20
120.573830
 11
21.528749
 21
120.573830
  0
LINE
  8
0
  6
CONTINUOUS
 10
1.528750
 20
117.573830
 11
1.528750
 21
33.573830
  0
LINE
  8
0
  6
CONTINUOUS
 10
21.528749
 20
109.983131
 11
3.278750
 21
109.983131
  0
LINE
  8
0
  6
CONTINUOUS
 10
2.106096
 20
118.573807
 11
1.528750
 21
117.573830
  0
ARC
  8
0
  6
CONTINUOUS
 10
5.570208
 20
116.573830
 40
4.000000
 50
90.000000
 51
150.000397
  0
LINE
  8
0
  6
CONTINUOUS
 10
5.570192
 20
30.573828
 11
21.528749
 21
30.573828
  0
LINE
  8
0
  6
CONTINUOUS
 10
21.528749
 20
41.164528
 11
3.278750
 21
41.164528
  0
LINE
  8
0
  6
CONTINUOUS
 10
2.106096
 20
32.573830
 11
1.528750
 21
33.573830
  0
ARC
  8
0
  6
CONTINUOUS
 10
5.570208
 20
34.573807
 40
4.000000
 50
-150.000397
 51
-90.000000
  0
LINE
  8
0
  6
CONTINUOUS
 10
1.028750
 20
110.573830
 11
1.528750
 21
111.073830
  0
LINE
  8
0
  6
CONTINUOUS
 10
1.028750
 20
40.573830
 11
1.528750
 21
40.073830
  0
LINE
  8
0
  6
CONTINUOUS
 10
340.028748
 20
149.945450
 11
340.028748
 21
4.573828
  0
LINE
  8
0
  6
CONTINUOUS
 10
215.028748
 20
4.573828
 11
340.028748
 21
4.573828
  0
LINE
  8
0
  6
CENTER
 10
224.073547
 20
124.573830
 11
335.239990
 21
124.573830
  0
LINE
  8
0
  6
CENTER
 10
277.528748
 20
196.073792
 11
277.528748
 21
-3.926172
  0
LINE
  8
0
  6
CONTINUOUS
 10
255.083145
 20
179.073792
 11
299.974365
 21
179.073792
  0
LINE
  8
0
  6
CONTINUOUS
 10
302.809143
 20
178.192490
 11
337.863556
 21
154.064072
  0
LINE
  8
0
  6
CONTINUOUS
 10
218.028748
 20
19.573828
 11
337.028748
 21
19.573828
  0
LINE
  8
0
  6
CONTINUOUS
 10
330.028748
 20
18.036327
 11
330.028748
 21
4.573828
  0
LINE
  8
0
  6
CONTINUOUS
 10
226.028748
 20
18.036327
 11
226.028748
 21
4.573828
  0
LINE
  8
0
  6
CENTER
 10
317.528748
 20
26.823828
 11
317.528748
 21
-2.176172
  0
LINE
  8
0
  6
CENTER
 10
237.528748
 20
26.823828
 11
237.528748
 21
-0.926172
  0
LINE
  8
0
  6
DASHED
 10
323.028748
 20
19.573828
 11
323.028748
 21
4.573828
  0
LINE
  8
0
  6
DASHED
 10
312.028748
 20
19.573828
 11
312.028748
 21
4.573828
  0
LINE
  8
0
  6
DASHED
 10
243.028748
 20
19.573828
 11
243.028748
 21
4.573828
  0
LINE
  8
0
  6
DASHED
 10
232.028748
 20
19.573828
 11
232.028748
 21
4.573828
  0
ARC
  8
0
  6
CONTINUOUS
 10
257.528748
 20
74.573830
 40
26.500000
 50
170.529099
 51
270.000000
  0
ARC
  8
0
  6
CONTINUOUS
 10
297.528748
 20
74.573830
 40
26.500000
 50
-90.000000
 51
9.470950
  0
LINE
  8
0
  6
CONTINUOUS
 10
231.389954
 20
78.934303
 11
240.046753
 21
130.826675
  0
LINE
  8
0
  6
CONTINUOUS
 10
315.010742
 20
130.826675
 11
323.667542
 21
78.934334
  0
LINE
  8
0
  6
CONTINUOUS
 10
257.528748
 20
48.073830
 11
297.528748
 21
48.073830
  0
ARC
  8
0
  6
CONTINUOUS
 10
335.028748
 20
149.945389
 40
5.000000
 50
0.000000
 51
55.460110
  0
ARC
  8
0
  6
CONTINUOUS
 10
299.974365
 20
174.073792
 40
5.000000
 50
55.460079
 51
90.000000
  0
ARC
  8
0
  6
CONTINUOUS
 10
255.117157
 20
174.073792
 40
5.000000
 50
90.000000
 51
91.038872
  0
LINE
  8
0
  6
CONTINUOUS
 10
257.528748
 20
24.204601
 11
257.528748
 21
19.573828
  0
LINE
  8
0
  6
CONTINUOUS
 10
297.528748
 20
24.204601
 11
297.528748
 21
19.573828
  0
LINE
  8
0
  6
CONTINUOUS
 10
215.028748
 20
4.573828
 11
215.028748
 21
149.945404
  0
ARC
  8
0
  6
CONTINUOUS
 10
257.528748
 20
74.573830
 40
24.000000
 50
169.576294
 51
270.000000
  0
ARC
  8
0
  6
CONTINUOUS
 10
297.528748
 20
74.573830
 40
24.000000
 50
-90.000000
 51
9.471373
  0
LINE
  8
0
  6
CONTINUOUS
 10
257.528748
 20
50.573830
 11
297.528748
 21
50.573830
  0
CIRCLE
  8
0
  6
CONTINUOUS
 10
277.528748
 20
124.573830
 40
33.500000
  0
ARC
  8
0
  6
CONTINUOUS
 10
277.528748
 20
124.573830
 40
38.000000
 50
9.470961
 51
170.529099
  0
ARC
  8
0
  6
CONTINUOUS
 10
277.528748
 20
124.573830
 40
38.000000
 50
9.470963
 51
170.529007
  0
ARC
  8
0
  6
CONTINUOUS
 10
277.528748
 20
124.573830
 40
35.500000
 50
-189.470795
 51
9.471022
  0
LINE
  8
0
  6
CONTINUOUS
 10
233.855957
 20
78.522926
 11
242.512543
 21
130.415161
  0
LINE
  8
0
  6
CONTINUOUS
 10
312.544739
 20
130.415283
 11
321.201538
 21
78.523140
  0
LINE
  8
0
  6
CENTER
 10
115.381874
 20
88.573830
 11
241.217819
 21
88.573830
  0
LINE
  8
0
  6
CONTINUOUS
 10
195.028748
 20
88.573830
 11
195.028748
 21
24.573730
  0
LINE
  8
0
  6
CONTINUOUS
 10
195.028748
 20
88.573830
 11
195.028748
 21
152.573929
  0
LINE
  8
0
  6
CONTINUOUS
 10
217.193756
 20
154.064041
 11
252.248352
 21
178.192444
  0
ARC
  8
0
  6
CONTINUOUS
 10
255.083145
 20
174.073792
 40
5.000000
 50
90.000000
 51
124.540298
  0
ARC
  8
0
  6
CONTINUOUS
 10
220.028748
 20
149.945435
 40
5.000000
 50
124.540398
 51
180.000000
  0
ARC
  8
0
  6
CONTINUOUS
 10
218.028748
 20
16.573849
 40
3.000000
 50
90.000000
 51
180.000000
  0
ARC
  8
0
  6
CONTINUOUS
 10
337.028748
 20
16.573828
 40
3.000000
 50
0.000000
 51
90.000000
  0
LINE
  8
0
  6
CONTINUOUS
 10
267.232361
 20
60.573830
 11
263.071960
 21
60.573830
  0
LINE
  8
0
  6
CONTINUOUS
 10
269.528748
 20
67.542564
 11
269.528748
 21
60.573830
  0
LINE
  8
0
  6
CONTINUOUS
 10
273.528748
 20
70.073830
 11
273.528748
 21
72.573830
  0
LINE
  8
0
  6
CONTINUOUS
 10
281.528748
 20
70.073830
 11
281.528748
 21
72.573830
  0
LINE
  8
0
  6
CONTINUOUS
 10
276.747559
 20
71.105080
 11
276.747559
 21
61.886330
  0
LINE
  8
0
  6
CONTINUOUS
 10
278.247559
 20
71.105080
 11
278.247559
 21
61.886330
  0
LINE
  8
0
  6
CONTINUOUS
 10
286.122559
 20
71.105080
 11
286.122559
 21
61.823830
  0
LINE
  8
0
  6
CONTINUOUS
 10
287.497559
 20
66.183205
 11
287.497559
 21
61.823830
  0
LINE
  8
0
  6
CONTINUOUS
 10
267.630737
 20
70.980080
 11
263.775757
 21
70.980080
  0
LINE
  8
0
  6
CONTINUOUS
 10
263.775757
 20
70.980080
 11
262.872559
 21
69.860077
  0
LINE
  8
0
  6
CONTINUOUS
 10
262.981140
 20
72.573830
 11
261.528748
 21
70.714066
  0
LINE
  8
0
  6
CONTINUOUS
 10
262.872559
 20
62.946747
 11
263.790161
 21
61.980068
  0
LINE
  8
0
  6
CONTINUOUS
 10
261.528748
 20
62.130989
 11
263.071960
 21
60.573830
  0
LINE
  8
0
  6
CONTINUOUS
 10
261.528748
 20
70.714066
 11
261.528748
 21
62.130989
  0
LINE
  8
0
  6
CONTINUOUS
 10
262.872559
 20
69.860077
 11
262.872559
 21
62.946747
  0
LINE
  8
0
  6
CONTINUOUS
 10
268.372559
 20
70.262970
 11
267.615540
 21
70.980080
  0
LINE
  8
0
  6
CONTINUOUS
 10
268.360565
 20
72.573830
 11
269.528748
 21
71.277336
  0
LINE
  8
0
  6
CONTINUOUS
 10
268.372559
 20
70.073830
 11
269.528748
 21
70.073830
  0
LINE
  8
0
  6
CONTINUOUS
 10
262.981140
 20
72.573830
 11
268.360565
 21
72.573830
  0
LINE
  8
0
  6
CONTINUOUS
 10
266.278748
 20
67.542564
 11
269.528748
 21
67.542564
  0
LINE
  8
0
  6
CONTINUOUS
 10
268.372559
 20
66.230064
 11
266.278748
 21
66.230064
  0
LINE
  8
0
  6
CONTINUOUS
 10
265.872559
 20
61.980068
 11
263.790161
 21
61.980068
  0
LINE
  8
0
  6
CONTINUOUS
 10
268.372559
 20
64.980064
 11
268.372559
 21
65.980064
  0
ARC
  8
0
  6
CONTINUOUS
 10
265.872559
 20
64.480064
 40
2.500000
 50
-89.999786
 51
0.000109
  0
LINE
  8
0
  6
CONTINUOUS
 10
268.372559
 20
61.530388
 11
268.372559
 21
60.573830
  0
LINE
  8
0
  6
CONTINUOUS
 10
269.528748
 20
71.277336
 11
269.528748
 21
70.073830
  0
LINE
  8
0
  6
CONTINUOUS
 10
268.372559
 20
66.230064
 11
268.372559
 21
64.480064
  0
LINE
  8
0
  6
CONTINUOUS
 10
266.278748
 20
67.542564
 11
266.278748
 21
66.230064
  0
LINE
  8
0
  6
CONTINUOUS
 10
268.372559
 20
60.573830
 11
269.528748
 21
60.573830
  0
LINE
  8
0
  6
CONTINUOUS
 10
268.372559
 20
61.530388
 11
267.232361
 21
60.573830
  0
LINE
  8
0
  6
CONTINUOUS
 10
278.247559
 20
61.886330
 11
278.747559
 21
61.886330
  0
LINE
  8
0
  6
CONTINUOUS
 10
276.153748
 20
61.886330
 11
276.153748
 21
60.573830
  0
LINE
  8
0
  6
CONTINUOUS
 10
278.747559
 20
61.886330
 11
278.747559
 21
60.573830
  0
LINE
  8
0
  6
CONTINUOUS
 10
280.694336
 20
70.073830
 11
281.528748
 21
70.073830
  0
LINE
  8
0
  6
CONTINUOUS
 10
273.528748
 20
70.073830
 11
274.416748
 21
70.073830
  0
LINE
  8
0
  6
CONTINUOUS
 10
273.528748
 20
72.573830
 11
281.528748
 21
72.573830
  0
LINE
  8
0
  6
CONTINUOUS
 10
276.153748
 20
60.573830
 11
278.747559
 21
60.573830
  0
LINE
  8
0
  6
CONTINUOUS
 10
276.153748
 20
61.886330
 11
276.747559
 21
61.886330
  0
ARC
  8
0
  6
CONTINUOUS
 10
290.325562
 20
69.370705
 40
3.203126
 50
-73.981873
 51
90.003510
  0
ARC
  8
0
  6
CONTINUOUS
 10
290.325562
 20
69.370705
 40
1.954124
 50
-82.585274
 51
62.411850
  0
LINE
  8
0
  6
CONTINUOUS
 10
285.528748
 20
72.573830
 11
290.325562
 21
72.573830
  0
LINE
  8
0
  6
CONTINUOUS
 10
290.577759
 20
67.432907
 11
287.497559
 21
67.432907
  0
LINE
  8
0
  6
CONTINUOUS
 10
285.528748
 20
72.573830
 11
285.528748
 21
71.105080
  0
LINE
  8
0
  6
CONTINUOUS
 10
287.497559
 20
71.105080
 11
287.497559
 21
67.432907
  0
LINE
  8
0
  6
CONTINUOUS
 10
291.209564
 20
66.291946
 11
293.191956
 21
61.823830
  0
LINE
  8
0
  6
CONTINUOUS
 10
290.057953
 20
66.183205
 11
291.934143
 21
61.823830
  0
LINE
  8
0
  6
CONTINUOUS
 10
285.528748
 20
61.823830
 11
286.122559
 21
61.823830
  0
LINE
  8
0
  6
CONTINUOUS
 10
287.497559
 20
61.823830
 11
288.044342
 21
61.823830
  0
LINE
  8
0
  6
CONTINUOUS
 10
288.044342
 20
60.573830
 11
285.528748
 21
60.573830
  0
LINE
  8
0
  6
CONTINUOUS
 10
291.684937
 20
61.823830
 11
291.934143
 21
61.823830
  0
LINE
  8
0
  6
CONTINUOUS
 10
293.191956
 20
61.823830
 11
293.528748
 21
61.823830
  0
LINE
  8
0
  6
CONTINUOUS
 10
291.684937
 20
60.573830
 11
293.528748
 21
60.573830
  0
LINE
  8
0
  6
CONTINUOUS
 10
293.528748
 20
61.823830
 11
293.528748
 21
60.573830
  0
LINE
  8
0
  6
CONTINUOUS
 10
291.684937
 20
61.823830
 11
291.684937
 21
60.573830
  0
LINE
  8
0
  6
CONTINUOUS
 10
288.044342
 20
61.823830
 11
288.044342
 21
60.573830
  0
LINE
  8
0
  6
CONTINUOUS
 10
285.528748
 20
61.823830
 11
285.528748
 21
60.573830
  0
LINE
  8
0
  6
CONTINUOUS
 10
274.846558
 20
71.105080
 11
274.416748
 21
70.073830
  0
LINE
  8
0
  6
CONTINUOUS
 10
280.331940
 20
71.105080
 11
280.694336
 21
70.073830
  0
LINE
  8
0
  6
CONTINUOUS
 10
278.247559
 20
71.105080
 11
280.331940
 21
71.105080
  0
LINE
  8
0
  6
CONTINUOUS
 10
276.747559
 20
71.105080
 11
274.846558
 21
71.105080
  0
LINE
  8
0
  6
CONTINUOUS
 10
287.497559
 20
66.183205
 11
290.057953
 21
66.183205
  0
LINE
  8
0
  6
CONTINUOUS
 10
285.528748
 20
71.105080
 11
286.122559
 21
71.105080
  0
LINE
  8
0
  6
CONTINUOUS
 10
287.497559
 20
71.105080
 11
291.230560
 21
71.102646
  0
LINE
  8
0
  6
CONTINUOUS
 10
268.372559
 20
70.262970
 11
268.372559
 21
70.073830
  0
LINE
  8
0
  6
CONTINUOUS
 10
574.139771
 20
35.573830
 11
574.139771
 21
39.552547
  0
LINE
  8
0
  6
CONTINUOUS
 10
484.139740
 20
35.573830
 11
484.139740
 21
39.552486
  0
LINE
  8
0
  6
CONTINUOUS
 10
489.139740
 20
30.573828
 11
492.139740
 21
30.573828
  0
LINE
  8
0
  6
CONTINUOUS
 10
569.139771
 20
30.573828
 11
566.139771
 21
30.573828
  0
ARC
  8
0
  6
CONTINUOUS
 10
489.139740
 20
35.573830
 40
5.000000
 50
180.000000
 51
270.000000
  0
ARC
  8
0
  6
CONTINUOUS
 10
569.139771
 20
35.573830
 40
5.000000
 50
-90.000000
 51
0.000000
  0
ARC
  8
0
  6
CONTINUOUS
 10
570.152161
 20
47.561867
 40
8.000000
 50
306.780975
 51
358.958740
  0
ARC
  8
0
  6
CONTINUOUS
 10
488.127563
 20
47.561607
 40
8.000000
 50
181.041107
 51
233.216995
  0
ARC
  8
0
  6
CONTINUOUS
 10
576.139771
 20
39.552567
 40
2.000000
 50
126.781197
 51
180.000000
  0
ARC
  8
0
  6
CONTINUOUS
 10
482.139740
 20
39.552486
 40
2.000000
 50
0.000000
 51
53.217121
  0
LINE
  8
0
  6
CENTER
 10
529.139771
 20
-12.755012
 11
529.139771
 21
200.493149
  0
LINE
  8
0
  6
CENTER
 10
411.868744
 20
124.573830
 11
646.176758
 21
124.573830
  0
LINE
  8
0
  6
CONTINUOUS
 10
466.139740
 20
4.573828
 11
501.639740
 21
4.573828
  0
LINE
  8
0
  6
CONTINUOUS
 10
470.139740
 20
19.573828
 11
488.139740
 21
19.573828
  0
LINE
  8
0
  6
CONTINUOUS
 10
588.139771
 20
19.573828
 11
570.139771
 21
19.573828
  0
LINE
  8
0
  6
CONTINUOUS
 10
493.639740
 20
152.573822
 11
564.389771
 21
152.573822
  0
LINE
  8
0
  6
CONTINUOUS
 10
563.192139
 20
178.479706
 11
529.139771
 21
179.073822
  0
LINE
  8
0
  6
CONTINUOUS
 10
495.087341
 20
178.479309
 11
529.139771
 21
179.073822
  0
LINE
  8
0
  6
CONTINUOUS
 10
566.139771
 20
175.480164
 11
566.139771
 21
4.573808
  0
LINE
  8
0
  6
CONTINUOUS
 10
492.139740
 20
175.479767
 11
492.139740
 21
4.573828
  0
LINE
  8
0
  6
CONTINUOUS
 10
476.139740
 20
94.861565
 11
476.139740
 21
154.286072
  0
LINE
  8
0
  6
CONTINUOUS
 10
582.139771
 20
154.286087
 11
582.139771
 21
94.861565
  0
LINE
  8
0
  6
CONTINUOUS
 10
483.139740
 20
54.374249
 11
483.139740
 21
127.073830
  0
LINE
  8
0
  6
CONTINUOUS
 10
575.139771
 20
54.374249
 11
575.139771
 21
127.073830
  0
LINE
  8
0
  6
CONTINUOUS
 10
592.139771
 20
16.269766
 11
592.139771
 21
4.573828
  0
LINE
  8
0
  6
CONTINUOUS
 10
466.139740
 20
16.269766
 11
466.139740
 21
4.573828
  0
LINE
  8
0
  6
CENTER
 10
479.139740
 20
27.573828
 11
479.139740
 21
-6.779572
  0
LINE
  8
0
  6
CENTER
 10
579.139771
 20
28.073828
 11
579.139771
 21
-6.779572
  0
LINE
  8
0
  6
DASHED
 10
473.639740
 20
19.573828
 11
473.639740
 21
4.573828
  0
LINE
  8
0
  6
DASHED
 10
484.639740
 20
19.573828
 11
484.639740
 21
4.573828
  0
LINE
  8
0
  6
DASHED
 10
573.639771
 20
19.573828
 11
573.639771
 21
4.573828
  0
LINE
  8
0
  6
DASHED
 10
584.639771
 20
19.573828
 11
584.639771
 21
4.573828
  0
ARC
  8
0
  6
CONTINUOUS
 10
495.139740
 20
175.479782
 40
3.000000
 50
91.000526
 51
180.000000
  0
ARC
  8
0
  6
CONTINUOUS
 10
563.139771
 20
175.480148
 40
3.000000
 50
0.000000
 51
89.000580
  0
LINE
  8
0
  6
CONTINUOUS
 10
556.639771
 20
4.573828
 11
592.139771
 21
4.573828
  0
LINE
  8
0
  6
CONTINUOUS
 10
502.639740
 20
5.573828
 11
555.639771
 21
5.573828
  0
LINE
  8
0
  6
CONTINUOUS
 10
479.785950
 20
159.099350
 11
488.493347
 21
161.548309
  0
LINE
  8
0
  6
CONTINUOUS
 10
479.785950
 20
90.048309
 11
480.951935
 21
89.720375
  0
LINE
  8
0
  6
CONTINUOUS
 10
486.801544
 20
49.556667
 11
488.477936
 21
49.090988
  0
LINE
  8
0
  6
CONTINUOUS
 10
571.477966
 20
49.556667
 11
569.801575
 21
49.090988
  0
LINE
  8
0
  6
CONTINUOUS
 10
578.493347
 20
90.048309
 11
577.327576
 21
89.720383
  0
LINE
  8
0
  6
CONTINUOUS
 10
578.493347
 20
159.099350
 11
569.786133
 21
161.548309
  0
ARC
  8
0
  6
CONTINUOUS
 10
481.139740
 20
154.286102
 40
5.000000
 50
105.709000
 51
180.000000
  0
ARC
  8
0
  6
CONTINUOUS
 10
481.139740
 20
94.861603
 40
5.000000
 50
180.000000
 51
254.291702
  0
ARC
  8
0
  6
CONTINUOUS
 10
488.139740
 20
54.374287
 40
5.000000
 50
180.000000
 51
254.476196
  0
ARC
  8
0
  6
CONTINUOUS
 10
570.139771
 20
54.374249
 40
5.000000
 50
-74.475708
 51
0.000000
  0
ARC
  8
0
  6
CONTINUOUS
 10
577.139771
 20
94.861557
 40
5.000000
 50
-74.291199
 51
0.000000
  0
ARC
  8
0
  6
CONTINUOUS
 10
577.139771
 20
154.286072
 40
5.000000
 50
0.000000
 51
74.291527
  0
ARC
  8
0
  6
CONTINUOUS
 10
578.139771
 20
86.832451
 40
3.000000
 50
105.709000
 51
180.000000
  0
ARC
  8
0
  6
CONTINUOUS
 10
480.139740
 20
86.832413
 40
3.000000
 50
0.000000
 51
74.291397
  0
ARC
  8
0
  6
CONTINUOUS
 10
487.139740
 20
166.361572
 40
5.000000
 50
-74.291199
 51
0.000000
  0
ARC
  8
0
  6
CONTINUOUS
 10
571.139771
 20
166.361588
 40
5.000000
 50
180.000000
 51
254.291702
  0
ARC
  8
0
  6
CONTINUOUS
 10
571.139771
 20
44.273430
 40
5.000000
 50
105.524399
 51
180.000000
  0
ARC
  8
0
  6
CONTINUOUS
 10
487.139740
 20
44.273388
 40
5.000000
 50
0.000000
 51
74.475952
  0
LINE
  8
0
  6
CONTINUOUS
 10
556.639771
 20
4.573828
 11
555.639771
 21
5.573828
  0
LINE
  8
0
  6
CONTINUOUS
 10
501.639740
 20
4.573828
 11
502.639740
 21
5.573828
  0
LINE
  8
0
  6
CENTER
 10
452.240997
 20
88.573822
 11
608.661011
 21
88.573822
  0
LINE
  8
0
  6
CONTINUOUS
 10
287.528748
 20
120.573868
 11
287.528748
 21
128.573868
  0
LINE
  8
0
  6
CONTINUOUS
 10
294.528748
 20
120.573891
 11
294.528748
 21
128.573883
  0
LINE
  8
0
  6
CONTINUOUS
 10
294.528748
 20
120.573891
 11
287.528748
 21
120.573868
  0
LINE
  8
0
  6
CONTINUOUS
 10
294.528748
 20
128.573883
 11
287.528748
 21
128.573868
  0
ARC
  8
0
  6
CONTINUOUS
 10
277.528748
 20
124.573830
 40
14.000000
 50
16.601500
 51
343.398499
  0
LINE
  8
0
  6
CONTINUOUS
 10
429.139740
 20
110.573830
 11
429.139740
 21
138.573822
  0
LINE
  8
0
  6
CONTINUOUS
 10
474.139740
 20
138.573822
 11
429.139740
 21
138.573822
  0
LINE
  8
0
  6
CONTINUOUS
 10
474.139740
 20
110.573830
 11
429.139740
 21
110.573830
  0
LINE
  8
0
  6
CONTINUOUS
 10
474.139740
 20
139.573822
 11
474.139740
 21
109.573830
  0
LINE
  8
0
  6
CONTINUOUS
 10
476.139740
 20
109.573830
 11
474.139740
 21
109.573830
  0
ARC
  8
0
  6
CONTINUOUS
 10
465.139740
 20
124.573830
 40
4.000000
 50
-90.000000
 51
90.000000
  0
LINE
  8
0
  6
CONTINUOUS
 10
465.139740
 20
128.573822
 11
429.139740
 21
128.573822
  0
LINE
  8
0
  6
CONTINUOUS
 10
465.139740
 20
120.573830
 11
429.139740
 21
120.573830
  0
LINE
  8
0
  6
CONTINUOUS
 10
476.139740
 20
139.573822
 11
474.139740
 21
139.573822
  0
LINE
  8
0
  6
CONTINUOUS
 10
629.139771
 20
110.573830
 11
629.139771
 21
138.573822
  0
LINE
  8
0
  6
CONTINUOUS
 10
584.139771
 20
138.573822
 11
629.139771
 21
138.573822
  0
LINE
  8
0
  6
CONTINUOUS
 10
584.139771
 20
110.573830
 11
629.139771
 21
110.573830
  0
LINE
  8
0
  6
CONTINUOUS
 10
584.139771
 20
139.573822
 11
584.139771
 21
109.573830
  0
LINE
  8
0
  6
CONTINUOUS
 10
582.139771
 20
109.573830
 11
584.139771
 21
109.573830
  0
ARC
  8
0
  6
CONTINUOUS
 10
593.139771
 20
124.573830
 40
4.000000
 50
90.000000
 51
270.000000
  0
LINE
  8
0
  6
CONTINUOUS
 10
593.139771
 20
128.573822
 11
629.139771
 21
128.573822
  0
LINE
  8
0
  6
CONTINUOUS
 10
593.139771
 20
120.573830
 11
629.139771
 21
120.573830
  0
LINE
  8
0
  6
CONTINUOUS
 10
582.139771
 20
139.573822
 11
584.139771
 21
139.573822
  0
LINE
  8
0
  6
CONTINUOUS
 10
188.528748
 20
152.573929
 11
195.028748
 21
152.573929
  0
LINE
  8
0
  6
CONTINUOUS
 10
188.528748
 20
24.573730
 11
195.028748
 21
24.573730
  0
LINE
  8
0
  6
CONTINUOUS
 10
140.528748
 20
120.573830
 11
186.528748
 21
122.180183
  0
LINE
  8
0
  6
CONTINUOUS
 10
195.028748
 20
28.670647
 11
140.528748
 21
30.573828
  0
ARC
  8
0
  6
CONTINUOUS
 10
188.528763
 20
150.573944
 40
2.000000
 50
90.000000
 51
180.000000
  0
ARC
  8
0
  6
CONTINUOUS
 10
188.528748
 20
26.573730
 40
2.000000
 50
180.260773
 51
270.000000
  0
LINE
  8
0
  6
CENTER
 10
-12.990039
 20
75.573830
 11
241.217819
 21
75.573830
  0
LINE
  8
0
  6
CONTINUOUS
 10
140.528748
 20
120.573830
 11
140.528748
 21
30.573828
  0
LINE
  8
0
  6
CONTINUOUS
 10
185.796524
 20
128.341599
 11
180.082001
 21
122.627083
  0
LINE
  8
0
  6
CONTINUOUS
 10
217.292130
 20
407.298798
 11
336.434814
 21
407.298798
  0
ARC
  8
0
  6
CONTINUOUS
 10
336.434814
 20
404.298798
 40
3.000000
 50
1.000000
 51
90.000000
  0
LINE
  8
0
  6
CONTINUOUS
 10
322.523010
 20
412.652527
 11
323.413452
 21
409.486572
  0
ARC
  8
0
  6
CONTINUOUS
 10
326.301392
 20
410.298798
 40
3.000000
 50
195.708649
 51
270.000000
  0
ARC
  8
0
  6
CONTINUOUS
 10
209.106354
 20
424.525360
 40
3.000000
 50
1.500200
 51
77.801201
  0
LINE
  8
0
  6
CONTINUOUS
 10
212.105347
 20
424.603912
 11
212.461349
 21
411.009155
  0
ARC
  8
0
  6
CONTINUOUS
 10
210.374146
 20
430.389893
 40
3.000000
 50
-164.999893
 51
-102.198799
  0
LINE
  8
0
  6
CENTER
 10
-13.262227
 20
370.298798
 11
355.432617
 21
370.298798
  0
LINE
  8
0
  6
CONTINUOUS
 10
228.543625
 20
307.298798
 11
263.528748
 21
307.298798
  0
LINE
  8
0
  6
CONTINUOUS
 10
340.028748
 20
370.298798
 11
339.382904
 21
407.298798
  0
LINE
  8
0
  6
CONTINUOUS
 10
331.218658
 20
429.991455
 11
339.382904
 21
407.298798
  0
ARC
  8
0
  6
CONTINUOUS
 10
326.513885
 20
428.298798
 40
5.000000
 50
19.787489
 51
90.000000
  0
LINE
  8
0
  6
CONTINUOUS
 10
340.028748
 20
370.298798
 11
339.382904
 21
333.298798
  0
LINE
  8
0
  6
CONTINUOUS
 10
331.218658
 20
310.606140
 11
339.382904
 21
333.298798
  0
ARC
  8
0
  6
CONTINUOUS
 10
326.513885
 20
312.298798
 40
5.000000
 50
-90.000000
 51
-19.787489
  0
LINE
  8
0
  6
CONTINUOUS
 10
217.292130
 20
407.298798
 11
336.434814
 21
407.298798
  0
LINE
  8
0
  6
CENTER
 10
277.528748
 20
251.061249
 11
277.528748
 21
481.404999
  0
ARC
  8
0
  6
CONTINUOUS
 10
336.434814
 20
404.298798
 40
3.000000
 50
1.000000
 51
90.000000
  0
ARC
  8
0
  6
CONTINUOUS
 10
336.434814
 20
336.298798
 40
3.000000
 50
-90.000000
 51
-1.000000
  0
LINE
  8
0
  6
CONTINUOUS
 10
217.365356
 20
333.298798
 11
336.434814
 21
333.298798
  0
LINE
  8
0
  6
CONTINUOUS
 10
307.240997
 20
423.298798
 11
247.816498
 21
423.298798
  0
LINE
  8
0
  6
CONTINUOUS
 10
312.054260
 20
419.652527
 11
312.997498
 21
416.298798
  0
ARC
  8
0
  6
CONTINUOUS
 10
307.240997
 20
418.298798
 40
5.000000
 50
15.708638
 51
90.000000
  0
LINE
  8
0
  6
CONTINUOUS
 10
312.997498
 20
416.298798
 11
317.709747
 21
416.298798
  0
ARC
  8
0
  6
CONTINUOUS
 10
317.709747
 20
411.298798
 40
5.000000
 50
15.708638
 51
90.000000
  0
LINE
  8
0
  6
CONTINUOUS
 10
243.003235
 20
419.652527
 11
242.059998
 21
416.298798
  0
ARC
  8
0
  6
CONTINUOUS
 10
247.816498
 20
418.298798
 40
5.000000
 50
90.000000
 51
164.291367
  0
LINE
  8
0
  6
CONTINUOUS
 10
242.059998
 20
416.298798
 11
237.347733
 21
416.298798
  0
LINE
  8
0
  6
CONTINUOUS
 10
232.534485
 20
412.652527
 11
231.644058
 21
409.486572
  0
ARC
  8
0
  6
CONTINUOUS
 10
237.347733
 20
411.298798
 40
5.000000
 50
90.000000
 51
164.291367
  0
ARC
  8
0
  6
CONTINUOUS
 10
228.756104
 20
410.298798
 40
3.000000
 50
-90.000000
 51
-15.708638
  0
LINE
  8
0
  6
CONTINUOUS
 10
307.240997
 20
317.298798
 11
247.816498
 21
317.298798
  0
LINE
  8
0
  6
CONTINUOUS
 10
312.054260
 20
320.945068
 11
312.997498
 21
324.298798
  0
ARC
  8
0
  6
CONTINUOUS
 10
307.240997
 20
322.298798
 40
5.000000
 50
-90.000000
 51
-15.708638
  0
LINE
  8
0
  6
CONTINUOUS
 10
312.997498
 20
324.298798
 11
317.709747
 21
324.298798
  0
LINE
  8
0
  6
CONTINUOUS
 10
322.523010
 20
327.945068
 11
323.413452
 21
331.111023
  0
ARC
  8
0
  6
CONTINUOUS
 10
317.709747
 20
329.298798
 40
5.000000
 50
-90.000000
 51
-15.708638
  0
ARC
  8
0
  6
CONTINUOUS
 10
326.301392
 20
330.298798
 40
3.000000
 50
-270.000000
 51
-195.708633
  0
LINE
  8
0
  6
CONTINUOUS
 10
243.003235
 20
320.945068
 11
242.059998
 21
324.298798
  0
ARC
  8
0
  6
CONTINUOUS
 10
247.816498
 20
322.298798
 40
5.000000
 50
-164.291367
 51
-90.000000
  0
LINE
  8
0
  6
CONTINUOUS
 10
242.059998
 20
324.298798
 11
237.347733
 21
324.298798
  0
LINE
  8
0
  6
CONTINUOUS
 10
232.534485
 20
327.945068
 11
231.644058
 21
331.111023
  0
ARC
  8
0
  6
CONTINUOUS
 10
237.347733
 20
329.298798
 40
5.000000
 50
-164.291367
 51
-90.000000
  0
ARC
  8
0
  6
CONTINUOUS
 10
228.756104
 20
330.298798
 40
3.000000
 50
15.708638
 51
90.000000
  0
LINE
  8
0
  6
CONTINUOUS
 10
223.838852
 20
429.991455
 11
215.761002
 21
407.539001
  0
ARC
  8
0
  6
CONTINUOUS
 10
228.543625
 20
428.298798
 40
5.000000
 50
90.000000
 51
160.212509
  0
LINE
  8
0
  6
CONTINUOUS
 10
223.838852
 20
310.606140
 11
215.776855
 21
333.014557
  0
ARC
  8
0
  6
CONTINUOUS
 10
228.543625
 20
312.298798
 40
5.000000
 50
199.787491
 51
270.000000
  0
LINE
  8
0
  6
CONTINUOUS
 10
228.543625
 20
433.298798
 11
263.528748
 21
433.298798
  0
LINE
  8
0
  6
CENTER
 10
317.528748
 20
431.412079
 11
317.528748
 21
411.970673
  0
LINE
  8
0
  6
CENTER
 10
307.617859
 20
420.298798
 11
326.136414
 21
420.298798
  0
ARC
  8
0
  6
CONTINUOUS
 10
317.528748
 20
420.298798
 40
5.500000
 50
-59.465683
 51
187.598495
  0
ARC
  8
0
  6
CONTINUOUS
 10
237.528748
 20
420.298798
 40
5.500000
 50
-7.598608
 51
239.465683
  0
LINE
  8
0
  6
CENTER
 10
237.528748
 20
431.412079
 11
237.528748
 21
411.970673
  0
LINE
  8
0
  6
CENTER
 10
247.439636
 20
420.298798
 11
228.921082
 21
420.298798
  0
ARC
  8
0
  6
CONTINUOUS
 10
237.528748
 20
320.298798
 40
5.500000
 50
-239.465683
 51
7.598608
  0
LINE
  8
0
  6
CENTER
 10
247.439636
 20
320.298798
 11
228.921082
 21
320.298798
  0
LINE
  8
0
  6
CENTER
 10
237.528748
 20
309.185516
 11
237.528748
 21
328.626923
  0
LINE
  8
0
  6
CENTER
 10
317.528748
 20
309.185516
 11
317.528748
 21
328.626923
  0
LINE
  8
0
  6
CENTER
 10
307.617859
 20
320.298798
 11
326.136414
 21
320.298798
  0
ARC
  8
0
  6
CONTINUOUS
 10
317.528748
 20
320.298798
 40
5.500000
 50
-187.598602
 51
59.465683
  0
LINE
  8
0
  6
CONTINUOUS
 10
301.528748
 20
336.298798
 11
301.528748
 21
404.298798
  0
LINE
  8
0
  6
CONTINUOUS
 10
253.528748
 20
336.298798
 11
253.528748
 21
404.298798
  0
LINE
  8
0
  6
CONTINUOUS
 10
212.609039
 20
329.592896
 11
207.360413
 21
310.004700
  0
LINE
  8
0
  6
CONTINUOUS
 10
212.105347
 20
315.446777
 11
212.461349
 21
329.041565
  0
ARC
  8
0
  6
CONTINUOUS
 10
209.106354
 20
315.525360
 40
3.000000
 50
282.198792
 51
358.499786
  0
ARC
  8
0
  6
CONTINUOUS
 10
210.374146
 20
309.660767
 40
3.000000
 50
102.198799
 51
165.000031
  0
ARC
  8
0
  6
CONTINUOUS
 10
209.106354
 20
424.525360
 40
3.000000
 50
1.500200
 51
77.801201
  0
LINE
  8
0
  6
CONTINUOUS
 10
212.105347
 20
424.603912
 11
212.461349
 21
411.009155
  0
ARC
  8
0
  6
CONTINUOUS
 10
210.374146
 20
430.389893
 40
3.000000
 50
-164.999893
 51
-102.198799
  0
LINE
  8
0
  6
CONTINUOUS
 10
202.457550
 20
434.298798
 11
195.028748
 21
434.298798
  0
LINE
  8
0
  6
CONTINUOUS
 10
207.213913
 20
430.592865
 11
212.535751
 21
410.731293
  0
ARC
  8
0
  6
CONTINUOUS
 10
217.438675
 20
328.298798
 40
5.000000
 50
90.000000
 51
165.000031
  0
ARC
  8
0
  6
CONTINUOUS
 10
217.292130
 20
412.298798
 40
5.000000
 50
194.999847
 51
270.000000
  0
LINE
  8
0
  6
CONTINUOUS
 10
294.528748
 20
470.298798
 11
263.528748
 21
470.298798
  0
LINE
  8
0
  6
CONTINUOUS
 10
263.528748
 20
425.298798
 11
263.528748
 21
470.298798
  0
LINE
  8
0
  6
CONTINUOUS
 10
291.528748
 20
425.298798
 11
291.528748
 21
430.298798
  0
LINE
  8
0
  6
CONTINUOUS
 10
262.528748
 20
425.298798
 11
292.528748
 21
425.298798
  0
LINE
  8
0
  6
CONTINUOUS
 10
292.528748
 20
423.298798
 11
292.528748
 21
425.298798
  0
LINE
  8
0
  6
CONTINUOUS
 10
262.528748
 20
423.298798
 11
262.528748
 21
425.298798
  0
LINE
  8
0
  6
CONTINUOUS
 10
294.528748
 20
433.298798
 11
326.513885
 21
433.298798
  0
LINE
  8
0
  6
CONTINUOUS
 10
290.945160
 20
430.298798
 11
294.528748
 21
430.298798
  0
LINE
  8
0
  6
CONTINUOUS
 10
290.945160
 20
430.298798
 11
290.945160
 21
470.298798
  0
LINE
  8
0
  6
CONTINUOUS
 10
294.528748
 20
470.298798
 11
294.528748
 21
430.298798
  0
LINE
  8
0
  6
CONTINUOUS
 10
294.528748
 20
270.298798
 11
263.528748
 21
270.298798
  0
LINE
  8
0
  6
CONTINUOUS
 10
263.528748
 20
315.298798
 11
263.528748
 21
270.298798
  0
LINE
  8
0
  6
CONTINUOUS
 10
291.528748
 20
315.298798
 11
291.528748
 21
310.298798
  0
LINE
  8
0
  6
CONTINUOUS
 10
262.528748
 20
315.298798
 11
292.528748
 21
315.298798
  0
LINE
  8
0
  6
CONTINUOUS
 10
292.528748
 20
317.298798
 11
292.528748
 21
315.298798
  0
LINE
  8
0
  6
CONTINUOUS
 10
262.528748
 20
317.298798
 11
262.528748
 21
315.298798
  0
LINE
  8
0
  6
CONTINUOUS
 10
290.945160
 20
310.298798
 11
294.528748
 21
310.298798
  0
LINE
  8
0
  6
CONTINUOUS
 10
290.945160
 20
310.298798
 11
290.945160
 21
270.298798
  0
LINE
  8
0
  6
CONTINUOUS
 10
294.528748
 20
270.298798
 11
294.528748
 21
310.298798
  0
LINE
  8
0
  6
CONTINUOUS
 10
294.528748
 20
307.298798
 11
326.513885
 21
307.298798
  0
LINE
  8
0
  6
CONTINUOUS
 10
195.028748
 20
306.298798
 11
202.530792
 21
306.298798
  0
ARC
  8
0
  6
CONTINUOUS
 10
202.530792
 20
311.298798
 40
5.000000
 50
270.000000
 51
345.000031
  0
ARC
  8
0
  6
CONTINUOUS
 10
202.384277
 20
429.298798
 40
5.000000
 50
14.999846
 51
90.000000
  0
LINE
  8
0
  6
CONTINUOUS
 10
215.028748
 20
370.298798
 11
215.623138
 21
404.351166
  0
LINE
  8
0
  6
CONTINUOUS
 10
215.028748
 20
370.298798
 11
215.623138
 21
336.246429
  0
ARC
  8
0
  6
CONTINUOUS
 10
218.622681
 20
404.298798
 40
3.000000
 50
90.000000
 51
179.000000
  0
ARC
  8
0
  6
CONTINUOUS
 10
218.622681
 20
336.298798
 40
3.000000
 50
181.000000
 51
270.000000
  0
LINE
  8
0
  6
CONTINUOUS
 10
213.474396
 20
152.573929
 11
195.028748
 21
152.573929
  0
LINE
  8
0
  6
CONTINUOUS
 10
195.028748
 20
24.573730
 11
210.028748
 21
24.573730
  0
ARC
  8
0
  6
CONTINUOUS
 10
210.028763
 20
19.573711
 40
5.000000
 50
0.000000
 51
90.000000
  0
LINE
  8
0
  6
CONTINUOUS
 10
469.384369
 20
20.197803
 11
488.895142
 21
23.949865
  0
ARC
  8
0
  6
CONTINUOUS
 10
529.139771
 20
88.573830
 40
64.000099
 50
-54.681290
 51
20.105476
  0
ARC
  8
0
  6
CONTINUOUS
 10
529.139771
 20
88.573830
 40
64.000099
 50
159.894516
 51
234.681290
  0
ARC
  8
0
  6
CONTINUOUS
 10
470.139740
 20
15.573828
 40
4.000000
 50
90.000000
 51
180.000000
  0
ARC
  8
0
  6
CONTINUOUS
 10
470.139740
 20
16.269766
 40
4.000000
 50
100.885529
 51
180.000000
  0
ARC
  8
0
  6
CONTINUOUS
 10
488.139740
 20
27.877892
 40
4.000000
 50
-79.114502
 51
0.000000
  0
ARC
  8
0
  6
CONTINUOUS
 10
488.139740
 20
23.573828
 40
4.000000
 50
-90.000000
 51
0.000000
  0
LINE
  8
0
  6
CONTINUOUS
 10
588.895142
 20
20.197803
 11
569.384338
 21
23.949865
  0
ARC
  8
0
  6
CONTINUOUS
 10
588.139771
 20
15.573828
 40
4.000000
 50
0.000000
 51
90.000000
  0
ARC
  8
0
  6
CONTINUOUS
 10
588.139771
 20
16.269766
 40
4.000000
 50
0.000000
 51
79.114471
  0
ARC
  8
0
  6
CONTINUOUS
 10
570.139771
 20
27.877892
 40
4.000000
 50
180.000000
 51
259.114502
  0
ARC
  8
0
  6
CONTINUOUS
 10
570.139771
 20
23.573828
 40
4.000000
 50
180.000000
 51
270.000000
  0
LINE
  8
0
  6
CONTINUOUS
 10
258.970642
 20
24.573828
 11
296.086853
 21
24.573828
  0
LINE
  8
0
  6
CONTINUOUS
 10
256.628021
 20
23.447903
 11
254.429520
 21
20.699755
  0
ARC
  8
0
  6
CONTINUOUS
 10
252.086899
 20
22.573828
 40
3.000000
 50
270.000000
 51
321.340454
  0
ARC
  8
0
  6
CONTINUOUS
 10
258.970642
 20
21.573828
 40
3.000000
 50
90.000000
 51
141.340454
  0
LINE
  8
0
  6
CONTINUOUS
 10
298.429474
 20
23.447903
 11
300.627991
 21
20.699755
  0
ARC
  8
0
  6
CONTINUOUS
 10
302.970581
 20
22.573828
 40
3.000000
 50
-141.340454
 51
-90.000000
  0
ARC
  8
0
  6
CONTINUOUS
 10
296.086853
 20
21.573828
 40
3.000000
 50
38.659546
 51
90.000000
  0
ARC
  8
0
  6
CONTINUOUS
 10
213.474396
 20
157.573929
 40
5.000000
 50
270.000000
 51
304.539978
  0
LINE
  8
0
  6
CONTINUOUS
 10
195.028748
 20
434.298798
 11
195.028748
 21
306.298798
  0
LINE
  8
0
  6
CONTINUOUS
 10
213.528748
 20
140.173828
 11
215.028748
 21
140.173828
  0
LINE
  8
0
  6
CONTINUOUS
 10
213.528748
 20
36.973846
 11
215.028748
 21
36.973846
  0
ARC
  8
0
  6
CONTINUOUS
 10
397.481964
 20
88.573830
 40
191.053177
 50
164.330902
 51
195.669098
  0
ARC
  8
0
  6
CONTINUOUS
 10
397.481964
 20
88.573830
 40
190.053177
 50
178.548599
 51
181.478500
  0
LINE
  8
0
  6
CONTINUOUS
 10
209.528748
 20
93.573830
 11
208.523956
 21
93.573830
  0
LINE
  8
0
  6
CONTINUOUS
 10
212.028748
 20
91.073830
 11
212.028748
 21
86.073830
  0
ARC
  8
0
  6
CONTINUOUS
 10
208.523956
 20
94.572227
 40
1.000000
 50
178.182098
 51
270.000000
  0
ARC
  8
0
  6
CONTINUOUS
 10
209.528748
 20
91.073830
 40
2.500000
 50
0.000000
 51
90.000000
  0
LINE
  8
0
  6
CONTINUOUS
 10
209.528748
 20
83.573830
 11
208.523956
 21
83.573830
  0
ARC
  8
0
  6
CONTINUOUS
 10
208.523956
 20
82.575424
 40
1.000000
 50
-270.000000
 51
-178.182098
  0
ARC
  8
0
  6
CONTINUOUS
 10
209.528748
 20
86.073830
 40
2.500000
 50
-90.000000
 51
0.000000
  0
LINE
  8
0
  6
CONTINUOUS
 10
140.528748
 20
55.067829
 11
184.528748
 21
55.067829
  0
LINE
  8
0
  6
CONTINUOUS
 10
140.528748
 20
40.054829
 11
195.028748
 21
40.054829
  0
LINE
  8
0
  6
CONTINUOUS
 10
187.096725
 20
48.006828
 11
195.028748
 21
48.006828
  0
LINE
  8
0
  6
CONTINUOUS
 10
186.528748
 20
49.221561
 11
186.528748
 21
150.573944
  0
ARC
  8
0
  6
CONTINUOUS
 10
184.028793
 20
26.553249
 40
2.500000
 50
0.260773
 51
88.000000
  0
ARC
  8
0
  6
CONTINUOUS
 10
184.028748
 20
130.109360
 40
2.500000
 50
-45.000000
 51
0.000000
  0
ARC
  8
0
  6
CONTINUOUS
 10
178.314240
 20
124.394852
 40
2.500000
 50
272.000000
 51
315.000000
  0
LINE
  8
0
  6
CONTINUOUS
 10
186.528748
 20
308.298798
 11
186.528748
 21
432.298798
  0
LINE
  8
0
  6
CONTINUOUS
 10
140.528748
 20
415.298798
 11
184.092361
 21
416.820068
  0
LINE
  8
0
  6
CONTINUOUS
 10
140.528748
 20
325.298798
 11
184.092361
 21
323.777527
  0
LINE
  8
0
  6
CONTINUOUS
 10
140.528748
 20
419.310791
 11
140.528748
 21
321.286804
  0
LINE
  8
0
  6
CONTINUOUS
 10
188.528748
 20
434.298798
 11
195.028748
 21
434.298798
  0
LINE
  8
0
  6
CONTINUOUS
 10
188.528748
 20
306.298798
 11
195.028748
 21
306.298798
  0
LINE
  8
0
  6
CONTINUOUS
 10
179.385757
 20
394.298798
 11
186.500732
 21
394.298798
  0
LINE
  8
0
  6
CONTINUOUS
 10
179.990891
 20
346.298798
 11
186.500732
 21
346.298798
  0
LINE
  8
0
  6
CONTINUOUS
 10
179.385757
 20
392.094299
 11
179.385757
 21
348.381714
  0
LINE
  8
0
  6
CONTINUOUS
 10
131.528748
 20
413.298798
 11
131.528748
 21
399.298798
  0
LINE
  8
0
  6
CONTINUOUS
 10
21.528749
 20
415.298798
 11
140.528748
 21
415.298798
  0
LINE
  8
0
  6
CONTINUOUS
 10
21.528749
 20
325.298798
 11
140.528748
 21
325.298798
  0
LINE
  8
0
  6
CONTINUOUS
 10
21.528749
 20
415.298798
 11
21.528749
 21
395.298767
  0
LINE
  8
0
  6
CONTINUOUS
 10
21.528749
 20
399.298798
 11
131.528748
 21
399.298798
  0
LINE
  8
0
  6
CONTINUOUS
 10
21.528749
 20
341.298798
 11
131.528748
 21
341.298798
  0
ARC
  8
0
  6
CONTINUOUS
 10
133.528748
 20
413.298828
 40
2.000000
 50
90.000000
 51
180.000000
  0
ARC
  8
0
  6
CONTINUOUS
 10
133.528748
 20
327.298798
 40
2.000000
 50
180.000000
 51
270.000000
  0
LINE
  8
0
  6
CONTINUOUS
 10
1.028750
 20
335.298798
 11
1.028750
 21
405.298798
  0
LINE
  8
0
  6
CONTINUOUS
 10
5.570192
 20
415.298798
 11
21.528749
 21
415.298798
  0
LINE
  8
0
  6
CONTINUOUS
 10
1.528750
 20
412.298798
 11
1.528750
 21
328.298798
  0
LINE
  8
0
  6
CONTINUOUS
 10
21.528749
 20
399.298798
 11
3.278750
 21
399.298798
  0
LINE
  8
0
  6
CONTINUOUS
 10
2.106096
 20
413.298767
 11
1.528750
 21
412.298798
  0
ARC
  8
0
  6
CONTINUOUS
 10
5.570208
 20
411.298798
 40
4.000000
 50
90.000000
 51
150.000397
  0
LINE
  8
0
  6
CONTINUOUS
 10
5.570192
 20
325.298798
 11
21.528749
 21
325.298798
  0
LINE
  8
0
  6
CONTINUOUS
 10
21.528749
 20
341.298798
 11
3.278750
 21
341.298798
  0
LINE
  8
0
  6
CONTINUOUS
 10
2.106096
 20
327.298798
 11
1.528750
 21
328.298798
  0
ARC
  8
0
  6
CONTINUOUS
 10
5.570208
 20
329.298767
 40
4.000000
 50
-150.000397
 51
-90.000000
  0
LINE
  8
0
  6
CONTINUOUS
 10
1.028750
 20
405.298798
 11
1.528750
 21
405.798798
  0
LINE
  8
0
  6
CONTINUOUS
 10
1.028750
 20
335.298798
 11
1.528750
 21
334.798798
  0
LINE
  8
0
  6
CONTINUOUS
 10
140.528748
 20
415.298798
 11
140.528748
 21
325.298798
  0
ARC
  8
0
  6
CONTINUOUS
 10
188.528748
 20
432.298798
 40
2.000000
 50
90.000000
 51
180.000000
  0
ARC
  8
0
  6
CONTINUOUS
 10
188.528748
 20
308.298798
 40
2.000000
 50
180.000000
 51
270.000000
  0
ARC
  8
0
  6
CONTINUOUS
 10
184.005112
 20
419.318542
 40
2.500000
 50
272.000000
 51
359.895721
  0
ARC
  8
0
  6
CONTINUOUS
 10
184.005112
 20
321.279053
 40
2.500000
 50
0.104292
 51
88.000000
  0
LINE
  8
0
  6
CONTINUOUS
 10
186.528748
 20
416.905151
 11
186.500732
 21
416.904175
  0
LINE
  8
0
  6
CONTINUOUS
 10
141.028442
 20
419.828247
 11
186.528748
 21
421.417145
  0
LINE
  8
0
  6
CONTINUOUS
 10
140.528748
 20
419.310791
 11
141.028442
 21
419.828247
  0
LINE
  8
0
  6
CONTINUOUS
 10
141.028442
 20
320.769348
 11
186.528748
 21
319.180450
  0
LINE
  8
0
  6
CONTINUOUS
 10
140.528748
 20
321.286804
 11
141.028442
 21
320.769348
  0
LINE
  8
0
  6
CONTINUOUS
 10
21.528749
 20
345.298767
 11
21.528749
 21
325.298798
  0
LINE
  8
0
  6
CONTINUOUS
 10
12.528750
 20
347.298767
 11
12.528750
 21
393.298767
  0
LINE
  8
0
  6
CONTINUOUS
 10
14.528750
 20
395.298767
 11
12.528750
 21
393.298767
  0
LINE
  8
0
  6
CONTINUOUS
 10
14.528750
 20
395.298767
 11
60.528740
 21
395.298767
  0
LINE
  8
0
  6
CONTINUOUS
 10
55.028751
 20
390.798767
 11
55.028751
 21
395.298767
  0
ARC
  8
0
  6
CONTINUOUS
 10
58.028751
 20
390.798767
 40
3.000000
 50
180.000000
 51
270.000000
  0
LINE
  8
0
  6
CONTINUOUS
 10
58.028751
 20
387.798767
 11
62.528740
 21
387.798767
  0
CIRCLE
  8
0
  6
CONTINUOUS
 10
59.028751
 20
391.798767
 40
2.250000
  0
LINE
  8
0
  6
CONTINUOUS
 10
62.528744
 20
347.298767
 11
62.528740
 21
393.298767
  0
LINE
  8
0
  6
CONTINUOUS
 10
60.528740
 20
395.298767
 11
62.528740
 21
393.298767
  0
LINE
  8
0
  6
CONTINUOUS
 10
60.528744
 20
345.298767
 11
62.528744
 21
347.298767
  0
LINE
  8
0
  6
CONTINUOUS
 10
60.528744
 20
345.298767
 11
14.528750
 21
345.298767
  0
LINE
  8
0
  6
CONTINUOUS
 10
12.528750
 20
347.298767
 11
14.528750
 21
345.298767
  0
LINE
  8
0
  6
CONTINUOUS
 10
17.028749
 20
352.798767
 11
12.528760
 21
352.798767
  0
CIRCLE
  8
0
  6
CONTINUOUS
 10
16.028749
 20
348.798767
 40
2.250000
  0
ARC
  8
0
  6
CONTINUOUS
 10
17.028749
 20
349.798767
 40
3.000000
 50
0.000000
 51
90.000000
  0
LINE
  8
0
  6
CONTINUOUS
 10
20.028749
 20
349.798767
 11
20.028749
 21
345.298767
  0
LINE
  8
0
  6
CENTER
 10
37.528751
 20
337.833008
 11
37.528751
 21
401.965027
  0
LINE
  8
0
  6
CONTINUOUS
 10
13.528756
 20
352.798798
 11
13.528756
 21
387.798798
  0
LINE
  8
0
  6
CONTINUOUS
 10
55.028751
 20
394.298798
 11
20.028770
 21
394.298798
  0
LINE
  8
0
  6
CONTINUOUS
 10
61.528744
 20
387.798798
 11
61.528744
 21
352.798798
  0
LINE
  8
0
  6
CONTINUOUS
 10
20.028749
 20
346.298798
 11
55.028728
 21
346.298798
  0
LINE
  8
0
  6
CONTINUOUS
 10
17.028770
 20
387.798798
 11
12.528770
 21
387.798798
  0
ARC
  8
0
  6
CONTINUOUS
 10
17.028770
 20
390.798798
 40
3.000000
 50
-90.000000
 51
0.000000
  0
LINE
  8
0
  6
CONTINUOUS
 10
20.028770
 20
390.798798
 11
20.028770
 21
395.298798
  0
CIRCLE
  8
0
  6
CONTINUOUS
 10
16.028770
 20
391.798798
 40
2.250000
  0
LINE
  8
0
  6
CONTINUOUS
 10
58.028728
 20
352.798798
 11
62.528728
 21
352.798798
  0
ARC
  8
0
  6
CONTINUOUS
 10
58.028728
 20
349.798798
 40
3.000000
 50
90.000000
 51
180.000000
  0
LINE
  8
0
  6
CONTINUOUS
 10
55.028728
 20
349.798798
 11
55.028728
 21
345.298798
  0
CIRCLE
  8
0
  6
CONTINUOUS
 10
59.028728
 20
348.798798
 40
2.250000
  0
LINE
  8
0
  6
CONTINUOUS
 10
14.028750
 20
122.073830
 11
60.528751
 21
122.073830
  0
LINE
  8
0
  6
CONTINUOUS
 10
62.528728
 20
166.073822
 11
62.528751
 21
124.073830
  0
LINE
  8
0
  6
CONTINUOUS
 10
12.528750
 20
166.073822
 11
12.528750
 21
124.073830
  0
LINE
  8
0
  6
CONTINUOUS
 10
12.528750
 20
134.073822
 11
62.528751
 21
134.073822
  0
LINE
  8
0
  6
CONTINUOUS
 10
60.528751
 20
122.073830
 11
62.528751
 21
124.073830
  0
LINE
  8
0
  6
CONTINUOUS
 10
12.528750
 20
124.073830
 11
14.528750
 21
122.073830
  0
LINE
  8
0
  6
CONTINUOUS
 10
12.528750
 20
124.073830
 11
62.528751
 21
124.073830
  0
LINE
  8
0
  6
CONTINUOUS
 10
12.528750
 20
135.073822
 11
62.528740
 21
135.073822
  0
LINE
  8
0
  6
CONTINUOUS
 10
13.528750
 20
167.073822
 11
61.528728
 21
167.073822
  0
LINE
  8
0
  6
CONTINUOUS
 10
61.528728
 20
167.073822
 11
62.528728
 21
166.073822
  0
LINE
  8
0
  6
CONTINUOUS
 10
13.528750
 20
167.073822
 11
12.528750
 21
166.073822
  0
LINE
  8
0
  6
CONTINUOUS
 10
12.528750
 20
166.073822
 11
62.528728
 21
166.073822
  0
LINE
  8
0
  6
CENTER
 10
37.528751
 20
115.684319
 11
37.528751
 21
172.384323
  0
LINE
  8
0
  6
CENTER
 10
10.153750
 20
150.073822
 11
14.778750
 21
150.073822
  0
LINE
  8
0
  6
CONTINUOUS
 10
14.028750
 20
122.073830
 11
14.028750
 21
120.573830
  0
LINE
  8
0
  6
CONTINUOUS
 10
60.028751
 20
122.073830
 11
60.028751
 21
120.573830
  0
LINE
  8
0
  6
CONTINUOUS
 10
11.653750
 20
160.573822
 11
13.653750
 21
160.573822
  0
LINE
  8
0
  6
CONTINUOUS
 10
11.653750
 20
139.573822
 11
13.653750
 21
139.573822
  0
LINE
  8
0
  6
CONTINUOUS
 10
131.528748
 20
341.298798
 11
131.528748
 21
327.298767
  0
TEXT
  8
0
 10
-13.000000
 20
-12.000000
 40
4.000000
 41
1.000000
  1
HLM-28T-600~900-S40K
 50
0.000000
  0
ENDSEC
  0
EOF
