  0
SECTION
  2
HEADER
  9
$CLAYER
  8
1
  9
$LTSCALE
 40
3.0
  0
ENDSEC
  0
SECTION
  2
TABLES
  0
TABLE
  2
LTYPE
 70
     4
  0
LTYPE
  2
CONTINUOUS
  3
solid line
 70
    64
 72
    65
 73
     0
 40
0.0
  0
LTYPE
  2
DASHED
  3
__ __ __ __ __ __ __ __ __ __ __ __ __ __ __
 70
    64
 72
    65
 73
     2
 40
0.75
 49
0.5
 49
-0.25
  0
LTYPE
  2
CENTER
  3
____ _ ____ _ ____ _ ____ _ ____ _ ____ _ ____
 70
    64
 72
    65
 73
     4
 40
2.0
 49
1.25
 49
-0.25
 49
0.25
 49
-0.25
  0
LTYPE
  2
PHANTOM
  3
_____ _ _ _____ _ _ _____ _ _ _____ _ _ ____
 70
    64
 72
    65
 73
     6
 40
2.5
 49
1.25
 49
-0.25
 49
0.25
 49
-0.25
 49
0.25
 49
-0.25
  0
ENDTAB
  0
TABLE
  2
LAYER
 70
     1
  0
LAYER
  2
0
 70
    64
 62
     7
  6
CONTINUOUS
  0
ENDTAB
  0
TABLE
  2
STYLE
 70
     1
  0
STYLE
  2
STANDARD
 70
     0
 40
0.000000
 41
1.000000
 50
0.000000
 71
     0
 42
3.000000
  3
txt
  4
BIGFONT
  0
ENDTAB
  0
ENDSEC
  0
SECTION
  2
BLOCKS
  0
ENDSEC
  0
SECTION
  2
ENTITIES
  0
LINE
  8
0
  6
CONTINUOUS
 10
165.601257
 20
113.927582
 11
165.601257
 21
27.927559
  0
LINE
  8
0
  6
CONTINUOUS
 10
55.601250
 20
115.927582
 11
174.601257
 21
115.927582
  0
LINE
  8
0
  6
CONTINUOUS
 10
55.601250
 20
25.927578
 11
174.601257
 21
25.927578
  0
LINE
  8
0
  6
CONTINUOUS
 10
55.601250
 20
105.336876
 11
164.563568
 21
105.336876
  0
LINE
  8
0
  6
CONTINUOUS
 10
55.601250
 20
36.518276
 11
164.563568
 21
36.518276
  0
ARC
  8
0
  6
CONTINUOUS
 10
167.601257
 20
113.927597
 40
2.000000
 50
90.000000
 51
180.000000
  0
ARC
  8
0
  6
CONTINUOUS
 10
167.601257
 20
27.927578
 40
2.000000
 50
180.000000
 51
270.000000
  0
LINE
  8
0
  6
CONTINUOUS
 10
374.101257
 20
145.299194
 11
374.101257
 21
-0.072422
  0
LINE
  8
0
  6
CONTINUOUS
 10
249.101257
 20
-0.072422
 11
374.101257
 21
-0.072422
  0
LINE
  8
0
  6
CENTER
 10
258.146057
 20
119.927582
 11
369.312500
 21
119.927582
  0
LINE
  8
0
  6
CENTER
 10
311.601257
 20
191.427536
 11
311.601257
 21
-8.572422
  0
LINE
  8
0
  6
CONTINUOUS
 10
289.155640
 20
174.427536
 11
334.046844
 21
174.427536
  0
LINE
  8
0
  6
CONTINUOUS
 10
336.881653
 20
173.546234
 11
371.936035
 21
149.417816
  0
LINE
  8
0
  6
CONTINUOUS
 10
252.101257
 20
14.927578
 11
371.101257
 21
14.927578
  0
LINE
  8
0
  6
CONTINUOUS
 10
364.101257
 20
13.390078
 11
364.101257
 21
-0.072422
  0
LINE
  8
0
  6
CONTINUOUS
 10
260.101257
 20
13.390078
 11
260.101257
 21
-0.072422
  0
LINE
  8
0
  6
CENTER
 10
351.601257
 20
22.177578
 11
351.601257
 21
-6.822422
  0
LINE
  8
0
  6
CENTER
 10
271.601257
 20
22.177578
 11
271.601257
 21
-5.572422
  0
LINE
  8
0
  6
DASHED
 10
357.101257
 20
14.927578
 11
357.101257
 21
-0.072422
  0
LINE
  8
0
  6
DASHED
 10
346.101257
 20
14.927578
 11
346.101257
 21
-0.072422
  0
LINE
  8
0
  6
DASHED
 10
277.101257
 20
14.927578
 11
277.101257
 21
-0.072422
  0
LINE
  8
0
  6
DASHED
 10
266.101257
 20
14.927578
 11
266.101257
 21
-0.072422
  0
ARC
  8
0
  6
CONTINUOUS
 10
291.601257
 20
69.927582
 40
26.500000
 50
170.529099
 51
270.000000
  0
ARC
  8
0
  6
CONTINUOUS
 10
331.601257
 20
69.927582
 40
26.500000
 50
-90.000000
 51
9.470950
  0
LINE
  8
0
  6
CONTINUOUS
 10
265.462463
 20
74.288055
 11
274.119263
 21
126.180420
  0
LINE
  8
0
  6
CONTINUOUS
 10
349.083252
 20
126.180420
 11
357.740051
 21
74.288078
  0
LINE
  8
0
  6
CONTINUOUS
 10
291.601257
 20
43.427578
 11
331.601257
 21
43.427578
  0
ARC
  8
0
  6
CONTINUOUS
 10
369.101257
 20
145.299133
 40
5.000000
 50
0.000000
 51
55.460110
  0
ARC
  8
0
  6
CONTINUOUS
 10
334.046844
 20
169.427536
 40
5.000000
 50
55.460079
 51
90.000000
  0
ARC
  8
0
  6
CONTINUOUS
 10
289.189636
 20
169.427536
 40
5.000000
 50
90.000000
 51
91.038872
  0
LINE
  8
0
  6
CONTINUOUS
 10
291.601257
 20
19.558352
 11
291.601257
 21
14.927578
  0
LINE
  8
0
  6
CONTINUOUS
 10
331.601257
 20
19.558352
 11
331.601257
 21
14.927578
  0
LINE
  8
0
  6
CONTINUOUS
 10
249.101257
 20
-0.072422
 11
249.101257
 21
145.299164
  0
ARC
  8
0
  6
CONTINUOUS
 10
291.601257
 20
69.927582
 40
24.000000
 50
169.576294
 51
270.000000
  0
ARC
  8
0
  6
CONTINUOUS
 10
331.601257
 20
69.927582
 40
24.000000
 50
-90.000000
 51
9.471373
  0
LINE
  8
0
  6
CONTINUOUS
 10
291.601257
 20
45.927578
 11
331.601257
 21
45.927578
  0
CIRCLE
  8
0
  6
CONTINUOUS
 10
311.601257
 20
119.927582
 40
33.500000
  0
ARC
  8
0
  6
CONTINUOUS
 10
311.601257
 20
119.927582
 40
38.000000
 50
9.470961
 51
170.529099
  0
ARC
  8
0
  6
CONTINUOUS
 10
311.601257
 20
119.927582
 40
38.000000
 50
9.470963
 51
170.529007
  0
ARC
  8
0
  6
CONTINUOUS
 10
311.601257
 20
119.927582
 40
35.500000
 50
-189.470795
 51
9.471022
  0
LINE
  8
0
  6
CONTINUOUS
 10
267.928436
 20
73.876671
 11
276.585052
 21
125.768921
  0
LINE
  8
0
  6
CONTINUOUS
 10
346.617249
 20
125.769035
 11
355.274048
 21
73.876884
  0
LINE
  8
0
  6
CENTER
 10
147.905624
 20
83.927582
 11
272.851257
 21
83.927582
  0
LINE
  8
0
  6
CONTINUOUS
 10
229.101257
 20
83.927582
 11
229.101257
 21
19.927481
  0
LINE
  8
0
  6
CONTINUOUS
 10
229.101257
 20
83.927582
 11
229.101257
 21
147.927673
  0
LINE
  8
0
  6
CONTINUOUS
 10
251.266251
 20
149.417801
 11
286.320862
 21
173.546204
  0
ARC
  8
0
  6
CONTINUOUS
 10
289.155640
 20
169.427536
 40
5.000000
 50
90.000000
 51
124.540298
  0
ARC
  8
0
  6
CONTINUOUS
 10
254.101257
 20
145.299179
 40
5.000000
 50
124.540398
 51
180.000000
  0
ARC
  8
0
  6
CONTINUOUS
 10
252.101257
 20
11.927598
 40
3.000000
 50
90.000000
 51
180.000000
  0
ARC
  8
0
  6
CONTINUOUS
 10
371.101257
 20
11.927578
 40
3.000000
 50
0.000000
 51
90.000000
  0
LINE
  8
0
  6
CONTINUOUS
 10
301.304840
 20
55.927578
 11
297.144440
 21
55.927578
  0
LINE
  8
0
  6
CONTINUOUS
 10
303.601257
 20
62.896317
 11
303.601257
 21
55.927578
  0
LINE
  8
0
  6
CONTINUOUS
 10
307.601257
 20
65.427582
 11
307.601257
 21
67.927582
  0
LINE
  8
0
  6
CONTINUOUS
 10
315.601257
 20
65.427582
 11
315.601257
 21
67.927582
  0
LINE
  8
0
  6
CONTINUOUS
 10
310.820038
 20
66.458832
 11
310.820038
 21
57.240078
  0
LINE
  8
0
  6
CONTINUOUS
 10
312.320038
 20
66.458832
 11
312.320038
 21
57.240078
  0
LINE
  8
0
  6
CONTINUOUS
 10
320.195038
 20
66.458832
 11
320.195038
 21
57.177578
  0
LINE
  8
0
  6
CONTINUOUS
 10
321.570038
 20
61.536957
 11
321.570038
 21
57.177578
  0
LINE
  8
0
  6
CONTINUOUS
 10
301.703247
 20
66.333832
 11
297.848236
 21
66.333832
  0
LINE
  8
0
  6
CONTINUOUS
 10
297.848236
 20
66.333832
 11
296.945038
 21
65.213829
  0
LINE
  8
0
  6
CONTINUOUS
 10
297.053650
 20
67.927582
 11
295.601257
 21
66.067818
  0
LINE
  8
0
  6
CONTINUOUS
 10
296.945038
 20
58.300499
 11
297.862640
 21
57.333817
  0
LINE
  8
0
  6
CONTINUOUS
 10
295.601257
 20
57.484737
 11
297.144440
 21
55.927578
  0
LINE
  8
0
  6
CONTINUOUS
 10
295.601257
 20
66.067818
 11
295.601257
 21
57.484737
  0
LINE
  8
0
  6
CONTINUOUS
 10
296.945038
 20
65.213829
 11
296.945038
 21
58.300499
  0
LINE
  8
0
  6
CONTINUOUS
 10
302.445038
 20
65.616722
 11
301.688049
 21
66.333832
  0
LINE
  8
0
  6
CONTINUOUS
 10
302.433044
 20
67.927582
 11
303.601257
 21
66.631088
  0
LINE
  8
0
  6
CONTINUOUS
 10
302.445038
 20
65.427582
 11
303.601257
 21
65.427582
  0
LINE
  8
0
  6
CONTINUOUS
 10
297.053650
 20
67.927582
 11
302.433044
 21
67.927582
  0
LINE
  8
0
  6
CONTINUOUS
 10
300.351257
 20
62.896317
 11
303.601257
 21
62.896317
  0
LINE
  8
0
  6
CONTINUOUS
 10
302.445038
 20
61.583817
 11
300.351257
 21
61.583817
  0
LINE
  8
0
  6
CONTINUOUS
 10
299.945038
 20
57.333817
 11
297.862640
 21
57.333817
  0
LINE
  8
0
  6
CONTINUOUS
 10
302.445038
 20
60.333817
 11
302.445038
 21
61.333817
  0
ARC
  8
0
  6
CONTINUOUS
 10
299.945038
 20
59.833817
 40
2.500000
 50
-89.999786
 51
0.000109
  0
LINE
  8
0
  6
CONTINUOUS
 10
302.445038
 20
56.884136
 11
302.445038
 21
55.927578
  0
LINE
  8
0
  6
CONTINUOUS
 10
303.601257
 20
66.631088
 11
303.601257
 21
65.427582
  0
LINE
  8
0
  6
CONTINUOUS
 10
302.445038
 20
61.583817
 11
302.445038
 21
59.833817
  0
LINE
  8
0
  6
CONTINUOUS
 10
300.351257
 20
62.896317
 11
300.351257
 21
61.583817
  0
LINE
  8
0
  6
CONTINUOUS
 10
302.445038
 20
55.927578
 11
303.601257
 21
55.927578
  0
LINE
  8
0
  6
CONTINUOUS
 10
302.445038
 20
56.884136
 11
301.304840
 21
55.927578
  0
LINE
  8
0
  6
CONTINUOUS
 10
312.320038
 20
57.240078
 11
312.820038
 21
57.240078
  0
LINE
  8
0
  6
CONTINUOUS
 10
310.226257
 20
57.240078
 11
310.226257
 21
55.927578
  0
LINE
  8
0
  6
CONTINUOUS
 10
312.820038
 20
57.240078
 11
312.820038
 21
55.927578
  0
LINE
  8
0
  6
CONTINUOUS
 10
314.766846
 20
65.427582
 11
315.601257
 21
65.427582
  0
LINE
  8
0
  6
CONTINUOUS
 10
307.601257
 20
65.427582
 11
308.489258
 21
65.427582
  0
LINE
  8
0
  6
CONTINUOUS
 10
307.601257
 20
67.927582
 11
315.601257
 21
67.927582
  0
LINE
  8
0
  6
CONTINUOUS
 10
310.226257
 20
55.927578
 11
312.820038
 21
55.927578
  0
LINE
  8
0
  6
CONTINUOUS
 10
310.226257
 20
57.240078
 11
310.820038
 21
57.240078
  0
ARC
  8
0
  6
CONTINUOUS
 10
324.398041
 20
64.724449
 40
3.203126
 50
-73.981873
 51
90.003510
  0
ARC
  8
0
  6
CONTINUOUS
 10
324.398041
 20
64.724449
 40
1.954124
 50
-82.585274
 51
62.411850
  0
LINE
  8
0
  6
CONTINUOUS
 10
319.601257
 20
67.927582
 11
324.398041
 21
67.927582
  0
LINE
  8
0
  6
CONTINUOUS
 10
324.650238
 20
62.786659
 11
321.570038
 21
62.786659
  0
LINE
  8
0
  6
CONTINUOUS
 10
319.601257
 20
67.927582
 11
319.601257
 21
66.458832
  0
LINE
  8
0
  6
CONTINUOUS
 10
321.570038
 20
66.458832
 11
321.570038
 21
62.786659
  0
LINE
  8
0
  6
CONTINUOUS
 10
325.282043
 20
61.645699
 11
327.264435
 21
57.177578
  0
LINE
  8
0
  6
CONTINUOUS
 10
324.130463
 20
61.536957
 11
326.006653
 21
57.177578
  0
LINE
  8
0
  6
CONTINUOUS
 10
319.601257
 20
57.177578
 11
320.195038
 21
57.177578
  0
LINE
  8
0
  6
CONTINUOUS
 10
321.570038
 20
57.177578
 11
322.116852
 21
57.177578
  0
LINE
  8
0
  6
CONTINUOUS
 10
322.116852
 20
55.927578
 11
319.601257
 21
55.927578
  0
LINE
  8
0
  6
CONTINUOUS
 10
325.757446
 20
57.177578
 11
326.006653
 21
57.177578
  0
LINE
  8
0
  6
CONTINUOUS
 10
327.264435
 20
57.177578
 11
327.601257
 21
57.177578
  0
LINE
  8
0
  6
CONTINUOUS
 10
325.757446
 20
55.927578
 11
327.601257
 21
55.927578
  0
LINE
  8
0
  6
CONTINUOUS
 10
327.601257
 20
57.177578
 11
327.601257
 21
55.927578
  0
LINE
  8
0
  6
CONTINUOUS
 10
325.757446
 20
57.177578
 11
325.757446
 21
55.927578
  0
LINE
  8
0
  6
CONTINUOUS
 10
322.116852
 20
57.177578
 11
322.116852
 21
55.927578
  0
LINE
  8
0
  6
CONTINUOUS
 10
319.601257
 20
57.177578
 11
319.601257
 21
55.927578
  0
LINE
  8
0
  6
CONTINUOUS
 10
308.919037
 20
66.458832
 11
308.489258
 21
65.427582
  0
LINE
  8
0
  6
CONTINUOUS
 10
314.404449
 20
66.458832
 11
314.766846
 21
65.427582
  0
LINE
  8
0
  6
CONTINUOUS
 10
312.320038
 20
66.458832
 11
314.404449
 21
66.458832
  0
LINE
  8
0
  6
CONTINUOUS
 10
310.820038
 20
66.458832
 11
308.919037
 21
66.458832
  0
LINE
  8
0
  6
CONTINUOUS
 10
321.570038
 20
61.536957
 11
324.130463
 21
61.536957
  0
LINE
  8
0
  6
CONTINUOUS
 10
319.601257
 20
66.458832
 11
320.195038
 21
66.458832
  0
LINE
  8
0
  6
CONTINUOUS
 10
321.570038
 20
66.458832
 11
325.303040
 21
66.456398
  0
LINE
  8
0
  6
CONTINUOUS
 10
302.445038
 20
65.616722
 11
302.445038
 21
65.427582
  0
LINE
  8
0
  6
CONTINUOUS
 10
617.603516
 20
30.927578
 11
617.603516
 21
34.906300
  0
LINE
  8
0
  6
CONTINUOUS
 10
527.603516
 20
30.927578
 11
527.603516
 21
34.906239
  0
LINE
  8
0
  6
CONTINUOUS
 10
532.603516
 20
25.927578
 11
535.603516
 21
25.927578
  0
LINE
  8
0
  6
CONTINUOUS
 10
612.603516
 20
25.927578
 11
609.603516
 21
25.927578
  0
ARC
  8
0
  6
CONTINUOUS
 10
532.603516
 20
30.927578
 40
5.000000
 50
180.000000
 51
270.000000
  0
ARC
  8
0
  6
CONTINUOUS
 10
612.603516
 20
30.927578
 40
5.000000
 50
-90.000000
 51
0.000000
  0
ARC
  8
0
  6
CONTINUOUS
 10
613.615906
 20
42.915619
 40
8.000000
 50
306.780975
 51
358.958740
  0
ARC
  8
0
  6
CONTINUOUS
 10
531.591309
 20
42.915359
 40
8.000000
 50
181.041107
 51
233.216995
  0
ARC
  8
0
  6
CONTINUOUS
 10
619.603516
 20
34.906319
 40
2.000000
 50
126.781197
 51
180.000000
  0
ARC
  8
0
  6
CONTINUOUS
 10
525.603516
 20
34.906239
 40
2.000000
 50
0.000000
 51
53.217121
  0
LINE
  8
0
  6
CENTER
 10
572.603516
 20
-17.401262
 11
572.603516
 21
195.846893
  0
LINE
  8
0
  6
CENTER
 10
455.332489
 20
119.927582
 11
689.640503
 21
119.927582
  0
LINE
  8
0
  6
CONTINUOUS
 10
509.603485
 20
-0.072422
 11
545.103516
 21
-0.072422
  0
LINE
  8
0
  6
CONTINUOUS
 10
513.603516
 20
14.927578
 11
531.603516
 21
14.927578
  0
LINE
  8
0
  6
CONTINUOUS
 10
631.603516
 20
14.927578
 11
613.603516
 21
14.927578
  0
LINE
  8
0
  6
CONTINUOUS
 10
537.103516
 20
147.927582
 11
607.853516
 21
147.927582
  0
LINE
  8
0
  6
CONTINUOUS
 10
606.655884
 20
173.833466
 11
572.603516
 21
174.427582
  0
LINE
  8
0
  6
CONTINUOUS
 10
538.551086
 20
173.833054
 11
572.603516
 21
174.427582
  0
LINE
  8
0
  6
CONTINUOUS
 10
609.603516
 20
170.833923
 11
609.603516
 21
-0.072442
  0
LINE
  8
0
  6
CONTINUOUS
 10
535.603516
 20
170.833511
 11
535.603516
 21
-0.072422
  0
LINE
  8
0
  6
CONTINUOUS
 10
519.603516
 20
90.215309
 11
519.603516
 21
149.639816
  0
LINE
  8
0
  6
CONTINUOUS
 10
625.603516
 20
149.639832
 11
625.603516
 21
90.215317
  0
LINE
  8
0
  6
CONTINUOUS
 10
526.603516
 20
49.727997
 11
526.603516
 21
122.427582
  0
LINE
  8
0
  6
CONTINUOUS
 10
618.603516
 20
49.727997
 11
618.603516
 21
122.427582
  0
LINE
  8
0
  6
CONTINUOUS
 10
635.603516
 20
11.623516
 11
635.603516
 21
-0.072422
  0
LINE
  8
0
  6
CONTINUOUS
 10
509.603485
 20
11.623516
 11
509.603485
 21
-0.072422
  0
LINE
  8
0
  6
CENTER
 10
522.603516
 20
22.927578
 11
522.603516
 21
-11.425822
  0
LINE
  8
0
  6
CENTER
 10
622.603516
 20
23.427578
 11
622.603516
 21
-11.425822
  0
LINE
  8
0
  6
DASHED
 10
517.103516
 20
14.927578
 11
517.103516
 21
-0.072422
  0
LINE
  8
0
  6
DASHED
 10
528.103516
 20
14.927578
 11
528.103516
 21
-0.072422
  0
LINE
  8
0
  6
DASHED
 10
617.103516
 20
14.927578
 11
617.103516
 21
-0.072422
  0
LINE
  8
0
  6
DASHED
 10
628.103516
 20
14.927578
 11
628.103516
 21
-0.072422
  0
ARC
  8
0
  6
CONTINUOUS
 10
538.603516
 20
170.833542
 40
3.000000
 50
91.000526
 51
180.000000
  0
ARC
  8
0
  6
CONTINUOUS
 10
606.603516
 20
170.833893
 40
3.000000
 50
0.000000
 51
89.000580
  0
LINE
  8
0
  6
CONTINUOUS
 10
600.103516
 20
-0.072422
 11
635.603516
 21
-0.072422
  0
LINE
  8
0
  6
CONTINUOUS
 10
546.103516
 20
0.927578
 11
599.103516
 21
0.927578
  0
LINE
  8
0
  6
CONTINUOUS
 10
523.249695
 20
154.453094
 11
531.957092
 21
156.902054
  0
LINE
  8
0
  6
CONTINUOUS
 10
523.249695
 20
85.402061
 11
524.415710
 21
85.074127
  0
LINE
  8
0
  6
CONTINUOUS
 10
530.265320
 20
44.910419
 11
531.941711
 21
44.444736
  0
LINE
  8
0
  6
CONTINUOUS
 10
614.941711
 20
44.910419
 11
613.265320
 21
44.444736
  0
LINE
  8
0
  6
CONTINUOUS
 10
621.957092
 20
85.402061
 11
620.791321
 21
85.074135
  0
LINE
  8
0
  6
CONTINUOUS
 10
621.957092
 20
154.453094
 11
613.249878
 21
156.902054
  0
ARC
  8
0
  6
CONTINUOUS
 10
524.603516
 20
149.639862
 40
5.000000
 50
105.709000
 51
180.000000
  0
ARC
  8
0
  6
CONTINUOUS
 10
524.603516
 20
90.215347
 40
5.000000
 50
180.000000
 51
254.291702
  0
ARC
  8
0
  6
CONTINUOUS
 10
531.603516
 20
49.728039
 40
5.000000
 50
180.000000
 51
254.476196
  0
ARC
  8
0
  6
CONTINUOUS
 10
613.603516
 20
49.727997
 40
5.000000
 50
-74.475708
 51
0.000000
  0
ARC
  8
0
  6
CONTINUOUS
 10
620.603516
 20
90.215309
 40
5.000000
 50
-74.291199
 51
0.000000
  0
ARC
  8
0
  6
CONTINUOUS
 10
620.603516
 20
149.639816
 40
5.000000
 50
0.000000
 51
74.291527
  0
ARC
  8
0
  6
CONTINUOUS
 10
621.603516
 20
82.186195
 40
3.000000
 50
105.709000
 51
180.000000
  0
ARC
  8
0
  6
CONTINUOUS
 10
523.603516
 20
82.186165
 40
3.000000
 50
0.000000
 51
74.291397
  0
ARC
  8
0
  6
CONTINUOUS
 10
530.603516
 20
161.715317
 40
5.000000
 50
-74.291199
 51
0.000000
  0
ARC
  8
0
  6
CONTINUOUS
 10
614.603516
 20
161.715332
 40
5.000000
 50
180.000000
 51
254.291702
  0
ARC
  8
0
  6
CONTINUOUS
 10
614.603516
 20
39.627178
 40
5.000000
 50
105.524399
 51
180.000000
  0
ARC
  8
0
  6
CONTINUOUS
 10
530.603516
 20
39.627136
 40
5.000000
 50
0.000000
 51
74.475952
  0
LINE
  8
0
  6
CONTINUOUS
 10
600.103516
 20
-0.072422
 11
599.103516
 21
0.927578
  0
LINE
  8
0
  6
CONTINUOUS
 10
545.103516
 20
-0.072422
 11
546.103516
 21
0.927578
  0
LINE
  8
0
  6
CENTER
 10
495.704742
 20
83.927574
 11
652.124756
 21
83.927574
  0
LINE
  8
0
  6
CONTINUOUS
 10
321.601257
 20
115.927620
 11
321.601257
 21
123.927620
  0
LINE
  8
0
  6
CONTINUOUS
 10
328.601257
 20
115.927635
 11
328.601257
 21
123.927635
  0
LINE
  8
0
  6
CONTINUOUS
 10
328.601257
 20
115.927635
 11
321.601257
 21
115.927620
  0
LINE
  8
0
  6
CONTINUOUS
 10
328.601257
 20
123.927635
 11
321.601257
 21
123.927620
  0
ARC
  8
0
  6
CONTINUOUS
 10
311.601257
 20
119.927582
 40
14.000000
 50
16.601500
 51
343.398499
  0
LINE
  8
0
  6
CONTINUOUS
 10
472.603485
 20
105.927582
 11
472.603485
 21
133.927582
  0
LINE
  8
0
  6
CONTINUOUS
 10
517.603516
 20
133.927582
 11
472.603485
 21
133.927582
  0
LINE
  8
0
  6
CONTINUOUS
 10
517.603516
 20
105.927582
 11
472.603485
 21
105.927582
  0
LINE
  8
0
  6
CONTINUOUS
 10
517.603516
 20
134.927582
 11
517.603516
 21
104.927582
  0
LINE
  8
0
  6
CONTINUOUS
 10
519.603516
 20
104.927582
 11
517.603516
 21
104.927582
  0
ARC
  8
0
  6
CONTINUOUS
 10
508.603485
 20
119.927582
 40
4.000000
 50
-90.000000
 51
90.000000
  0
LINE
  8
0
  6
CONTINUOUS
 10
508.603485
 20
123.927582
 11
472.603485
 21
123.927582
  0
LINE
  8
0
  6
CONTINUOUS
 10
508.603485
 20
115.927582
 11
472.603485
 21
115.927582
  0
LINE
  8
0
  6
CONTINUOUS
 10
519.603516
 20
134.927582
 11
517.603516
 21
134.927582
  0
LINE
  8
0
  6
CONTINUOUS
 10
672.603516
 20
105.927582
 11
672.603516
 21
133.927582
  0
LINE
  8
0
  6
CONTINUOUS
 10
627.603516
 20
133.927582
 11
672.603516
 21
133.927582
  0
LINE
  8
0
  6
CONTINUOUS
 10
627.603516
 20
105.927582
 11
672.603516
 21
105.927582
  0
LINE
  8
0
  6
CONTINUOUS
 10
627.603516
 20
134.927582
 11
627.603516
 21
104.927582
  0
LINE
  8
0
  6
CONTINUOUS
 10
625.603516
 20
104.927582
 11
627.603516
 21
104.927582
  0
ARC
  8
0
  6
CONTINUOUS
 10
636.603516
 20
119.927582
 40
4.000000
 50
90.000000
 51
270.000000
  0
LINE
  8
0
  6
CONTINUOUS
 10
636.603516
 20
123.927582
 11
672.603516
 21
123.927582
  0
LINE
  8
0
  6
CONTINUOUS
 10
636.603516
 20
115.927582
 11
672.603516
 21
115.927582
  0
LINE
  8
0
  6
CONTINUOUS
 10
625.603516
 20
134.927582
 11
627.603516
 21
134.927582
  0
LINE
  8
0
  6
CONTINUOUS
 10
222.601257
 20
147.927673
 11
229.101257
 21
147.927673
  0
LINE
  8
0
  6
CONTINUOUS
 10
222.601257
 20
19.927481
 11
229.101257
 21
19.927481
  0
LINE
  8
0
  6
CONTINUOUS
 10
174.601257
 20
115.927582
 11
220.601257
 21
117.533936
  0
LINE
  8
0
  6
CONTINUOUS
 10
229.101257
 20
24.024397
 11
174.601257
 21
25.927578
  0
ARC
  8
0
  6
CONTINUOUS
 10
222.601273
 20
145.927704
 40
2.000000
 50
90.000000
 51
180.000000
  0
ARC
  8
0
  6
CONTINUOUS
 10
222.601257
 20
21.927481
 40
2.000000
 50
180.260773
 51
270.000000
  0
LINE
  8
0
  6
CENTER
 10
-15.052500
 20
70.927582
 11
272.851257
 21
70.927582
  0
LINE
  8
0
  6
CONTINUOUS
 10
174.601257
 20
115.927582
 11
174.601257
 21
25.927578
  0
LINE
  8
0
  6
CONTINUOUS
 10
219.869019
 20
123.695343
 11
214.154510
 21
117.980835
  0
LINE
  8
0
  6
CONTINUOUS
 10
251.364624
 20
402.652557
 11
370.507324
 21
402.652557
  0
ARC
  8
0
  6
CONTINUOUS
 10
370.507324
 20
399.652557
 40
3.000000
 50
1.000000
 51
90.000000
  0
LINE
  8
0
  6
CONTINUOUS
 10
356.595520
 20
408.006287
 11
357.485931
 21
404.840302
  0
ARC
  8
0
  6
CONTINUOUS
 10
360.373901
 20
405.652557
 40
3.000000
 50
195.708649
 51
270.000000
  0
ARC
  8
0
  6
CONTINUOUS
 10
243.178848
 20
419.879120
 40
3.000000
 50
1.500200
 51
77.801201
  0
LINE
  8
0
  6
CONTINUOUS
 10
246.177856
 20
419.957672
 11
246.533844
 21
406.362885
  0
ARC
  8
0
  6
CONTINUOUS
 10
244.446655
 20
425.743652
 40
3.000000
 50
-164.999893
 51
-102.198799
  0
LINE
  8
0
  6
CENTER
 10
-21.719999
 20
365.652557
 11
389.505127
 21
365.652557
  0
LINE
  8
0
  6
CONTINUOUS
 10
262.616119
 20
302.652557
 11
297.601257
 21
302.652557
  0
LINE
  8
0
  6
CONTINUOUS
 10
374.101257
 20
365.652557
 11
373.455414
 21
402.652557
  0
LINE
  8
0
  6
CONTINUOUS
 10
365.291138
 20
425.345215
 11
373.455414
 21
402.652557
  0
ARC
  8
0
  6
CONTINUOUS
 10
360.586365
 20
423.652557
 40
5.000000
 50
19.787489
 51
90.000000
  0
LINE
  8
0
  6
CONTINUOUS
 10
374.101257
 20
365.652557
 11
373.455414
 21
328.652557
  0
LINE
  8
0
  6
CONTINUOUS
 10
365.291138
 20
305.959900
 11
373.455414
 21
328.652557
  0
ARC
  8
0
  6
CONTINUOUS
 10
360.586365
 20
307.652557
 40
5.000000
 50
-90.000000
 51
-19.787489
  0
LINE
  8
0
  6
CONTINUOUS
 10
251.364624
 20
402.652557
 11
370.507324
 21
402.652557
  0
LINE
  8
0
  6
CENTER
 10
311.601257
 20
246.414993
 11
311.601257
 21
476.758759
  0
ARC
  8
0
  6
CONTINUOUS
 10
370.507324
 20
399.652557
 40
3.000000
 50
1.000000
 51
90.000000
  0
ARC
  8
0
  6
CONTINUOUS
 10
370.507324
 20
331.652557
 40
3.000000
 50
-90.000000
 51
-1.000000
  0
LINE
  8
0
  6
CONTINUOUS
 10
251.437851
 20
328.652557
 11
370.507324
 21
328.652557
  0
LINE
  8
0
  6
CONTINUOUS
 10
341.313507
 20
418.652557
 11
281.888977
 21
418.652557
  0
LINE
  8
0
  6
CONTINUOUS
 10
346.126770
 20
415.006287
 11
347.070007
 21
411.652557
  0
ARC
  8
0
  6
CONTINUOUS
 10
341.313507
 20
413.652557
 40
5.000000
 50
15.708638
 51
90.000000
  0
LINE
  8
0
  6
CONTINUOUS
 10
347.070007
 20
411.652557
 11
351.782257
 21
411.652557
  0
ARC
  8
0
  6
CONTINUOUS
 10
351.782257
 20
406.652557
 40
5.000000
 50
15.708638
 51
90.000000
  0
LINE
  8
0
  6
CONTINUOUS
 10
277.075745
 20
415.006287
 11
276.132507
 21
411.652557
  0
ARC
  8
0
  6
CONTINUOUS
 10
281.888977
 20
413.652557
 40
5.000000
 50
90.000000
 51
164.291367
  0
LINE
  8
0
  6
CONTINUOUS
 10
276.132507
 20
411.652557
 11
271.420227
 21
411.652557
  0
LINE
  8
0
  6
CONTINUOUS
 10
266.606995
 20
408.006287
 11
265.716553
 21
404.840302
  0
ARC
  8
0
  6
CONTINUOUS
 10
271.420227
 20
406.652557
 40
5.000000
 50
90.000000
 51
164.291367
  0
ARC
  8
0
  6
CONTINUOUS
 10
262.828613
 20
405.652557
 40
3.000000
 50
-90.000000
 51
-15.708638
  0
LINE
  8
0
  6
CONTINUOUS
 10
341.313507
 20
312.652557
 11
281.888977
 21
312.652557
  0
LINE
  8
0
  6
CONTINUOUS
 10
346.126770
 20
316.298828
 11
347.070007
 21
319.652557
  0
ARC
  8
0
  6
CONTINUOUS
 10
341.313507
 20
317.652557
 40
5.000000
 50
-90.000000
 51
-15.708638
  0
LINE
  8
0
  6
CONTINUOUS
 10
347.070007
 20
319.652557
 11
351.782257
 21
319.652557
  0
LINE
  8
0
  6
CONTINUOUS
 10
356.595520
 20
323.298828
 11
357.485931
 21
326.464783
  0
ARC
  8
0
  6
CONTINUOUS
 10
351.782257
 20
324.652557
 40
5.000000
 50
-90.000000
 51
-15.708638
  0
ARC
  8
0
  6
CONTINUOUS
 10
360.373901
 20
325.652557
 40
3.000000
 50
-270.000000
 51
-195.708633
  0
LINE
  8
0
  6
CONTINUOUS
 10
277.075745
 20
316.298828
 11
276.132507
 21
319.652557
  0
ARC
  8
0
  6
CONTINUOUS
 10
281.888977
 20
317.652557
 40
5.000000
 50
-164.291367
 51
-90.000000
  0
LINE
  8
0
  6
CONTINUOUS
 10
276.132507
 20
319.652557
 11
271.420227
 21
319.652557
  0
LINE
  8
0
  6
CONTINUOUS
 10
266.606995
 20
323.298828
 11
265.716553
 21
326.464783
  0
ARC
  8
0
  6
CONTINUOUS
 10
271.420227
 20
324.652557
 40
5.000000
 50
-164.291367
 51
-90.000000
  0
ARC
  8
0
  6
CONTINUOUS
 10
262.828613
 20
325.652557
 40
3.000000
 50
15.708638
 51
90.000000
  0
LINE
  8
0
  6
CONTINUOUS
 10
257.911346
 20
425.345215
 11
249.833511
 21
402.892761
  0
ARC
  8
0
  6
CONTINUOUS
 10
262.616119
 20
423.652557
 40
5.000000
 50
90.000000
 51
160.212509
  0
LINE
  8
0
  6
CONTINUOUS
 10
257.911346
 20
305.959900
 11
249.849350
 21
328.368317
  0
ARC
  8
0
  6
CONTINUOUS
 10
262.616119
 20
307.652557
 40
5.000000
 50
199.787491
 51
270.000000
  0
LINE
  8
0
  6
CONTINUOUS
 10
262.616119
 20
428.652557
 11
297.601257
 21
428.652557
  0
LINE
  8
0
  6
CENTER
 10
351.601257
 20
426.765839
 11
351.601257
 21
407.324432
  0
LINE
  8
0
  6
CENTER
 10
341.690369
 20
415.652557
 11
360.208923
 21
415.652557
  0
ARC
  8
0
  6
CONTINUOUS
 10
351.601257
 20
415.652557
 40
5.500000
 50
-59.465683
 51
187.598495
  0
ARC
  8
0
  6
CONTINUOUS
 10
271.601257
 20
415.652557
 40
5.500000
 50
-7.598608
 51
239.465683
  0
LINE
  8
0
  6
CENTER
 10
271.601257
 20
426.765839
 11
271.601257
 21
407.324432
  0
LINE
  8
0
  6
CENTER
 10
281.512146
 20
415.652557
 11
262.993591
 21
415.652557
  0
ARC
  8
0
  6
CONTINUOUS
 10
271.601257
 20
315.652557
 40
5.500000
 50
-239.465683
 51
7.598608
  0
LINE
  8
0
  6
CENTER
 10
281.512146
 20
315.652557
 11
262.993591
 21
315.652557
  0
LINE
  8
0
  6
CENTER
 10
271.601257
 20
304.539276
 11
271.601257
 21
323.980682
  0
LINE
  8
0
  6
CENTER
 10
351.601257
 20
304.539276
 11
351.601257
 21
323.980682
  0
LINE
  8
0
  6
CENTER
 10
341.690369
 20
315.652557
 11
360.208923
 21
315.652557
  0
ARC
  8
0
  6
CONTINUOUS
 10
351.601257
 20
315.652557
 40
5.500000
 50
-187.598602
 51
59.465683
  0
LINE
  8
0
  6
CONTINUOUS
 10
335.601257
 20
331.652557
 11
335.601257
 21
399.652557
  0
LINE
  8
0
  6
CONTINUOUS
 10
287.601257
 20
331.652557
 11
287.601257
 21
399.652557
  0
LINE
  8
0
  6
CONTINUOUS
 10
246.681549
 20
324.946655
 11
241.432922
 21
305.358459
  0
LINE
  8
0
  6
CONTINUOUS
 10
246.177856
 20
310.800507
 11
246.533844
 21
324.395325
  0
ARC
  8
0
  6
CONTINUOUS
 10
243.178848
 20
310.879120
 40
3.000000
 50
282.198792
 51
358.499786
  0
ARC
  8
0
  6
CONTINUOUS
 10
244.446655
 20
305.014526
 40
3.000000
 50
102.198799
 51
165.000031
  0
ARC
  8
0
  6
CONTINUOUS
 10
243.178848
 20
419.879120
 40
3.000000
 50
1.500200
 51
77.801201
  0
LINE
  8
0
  6
CONTINUOUS
 10
246.177856
 20
419.957672
 11
246.533844
 21
406.362885
  0
ARC
  8
0
  6
CONTINUOUS
 10
244.446655
 20
425.743652
 40
3.000000
 50
-164.999893
 51
-102.198799
  0
LINE
  8
0
  6
CONTINUOUS
 10
236.530045
 20
429.652557
 11
229.101257
 21
429.652557
  0
LINE
  8
0
  6
CONTINUOUS
 10
241.286407
 20
425.946625
 11
246.608246
 21
406.085052
  0
ARC
  8
0
  6
CONTINUOUS
 10
251.511169
 20
323.652557
 40
5.000000
 50
90.000000
 51
165.000031
  0
ARC
  8
0
  6
CONTINUOUS
 10
251.364624
 20
407.652557
 40
5.000000
 50
194.999847
 51
270.000000
  0
LINE
  8
0
  6
CONTINUOUS
 10
328.601257
 20
465.652557
 11
297.601257
 21
465.652557
  0
LINE
  8
0
  6
CONTINUOUS
 10
297.601257
 20
420.652557
 11
297.601257
 21
465.652557
  0
LINE
  8
0
  6
CONTINUOUS
 10
325.601257
 20
420.652557
 11
325.601257
 21
425.652557
  0
LINE
  8
0
  6
CONTINUOUS
 10
296.601257
 20
420.652557
 11
326.601257
 21
420.652557
  0
LINE
  8
0
  6
CONTINUOUS
 10
326.601257
 20
418.652557
 11
326.601257
 21
420.652557
  0
LINE
  8
0
  6
CONTINUOUS
 10
296.601257
 20
418.652557
 11
296.601257
 21
420.652557
  0
LINE
  8
0
  6
CONTINUOUS
 10
328.601257
 20
428.652557
 11
360.586365
 21
428.652557
  0
LINE
  8
0
  6
CONTINUOUS
 10
325.017670
 20
425.652557
 11
328.601257
 21
425.652557
  0
LINE
  8
0
  6
CONTINUOUS
 10
325.017670
 20
425.652557
 11
325.017670
 21
465.652557
  0
LINE
  8
0
  6
CONTINUOUS
 10
328.601257
 20
465.652557
 11
328.601257
 21
425.652557
  0
LINE
  8
0
  6
CONTINUOUS
 10
328.601257
 20
265.652557
 11
297.601257
 21
265.652557
  0
LINE
  8
0
  6
CONTINUOUS
 10
297.601257
 20
310.652557
 11
297.601257
 21
265.652557
  0
LINE
  8
0
  6
CONTINUOUS
 10
325.601257
 20
310.652557
 11
325.601257
 21
305.652557
  0
LINE
  8
0
  6
CONTINUOUS
 10
296.601257
 20
310.652557
 11
326.601257
 21
310.652557
  0
LINE
  8
0
  6
CONTINUOUS
 10
326.601257
 20
312.652557
 11
326.601257
 21
310.652557
  0
LINE
  8
0
  6
CONTINUOUS
 10
296.601257
 20
312.652557
 11
296.601257
 21
310.652557
  0
LINE
  8
0
  6
CONTINUOUS
 10
325.017670
 20
305.652557
 11
328.601257
 21
305.652557
  0
LINE
  8
0
  6
CONTINUOUS
 10
325.017670
 20
305.652557
 11
325.017670
 21
265.652557
  0
LINE
  8
0
  6
CONTINUOUS
 10
328.601257
 20
265.652557
 11
328.601257
 21
305.652557
  0
LINE
  8
0
  6
CONTINUOUS
 10
328.601257
 20
302.652557
 11
360.586365
 21
302.652557
  0
LINE
  8
0
  6
CONTINUOUS
 10
229.101257
 20
301.652557
 11
236.603287
 21
301.652557
  0
ARC
  8
0
  6
CONTINUOUS
 10
236.603287
 20
306.652557
 40
5.000000
 50
270.000000
 51
345.000031
  0
ARC
  8
0
  6
CONTINUOUS
 10
236.456787
 20
424.652557
 40
5.000000
 50
14.999846
 51
90.000000
  0
LINE
  8
0
  6
CONTINUOUS
 10
249.101257
 20
365.652557
 11
249.695633
 21
399.704895
  0
LINE
  8
0
  6
CONTINUOUS
 10
249.101257
 20
365.652557
 11
249.695633
 21
331.600189
  0
ARC
  8
0
  6
CONTINUOUS
 10
252.695175
 20
399.652557
 40
3.000000
 50
90.000000
 51
179.000000
  0
ARC
  8
0
  6
CONTINUOUS
 10
252.695175
 20
331.652557
 40
3.000000
 50
181.000000
 51
270.000000
  0
LINE
  8
0
  6
CONTINUOUS
 10
247.546890
 20
147.927673
 11
229.101257
 21
147.927673
  0
LINE
  8
0
  6
CONTINUOUS
 10
229.101257
 20
19.927481
 11
244.101257
 21
19.927481
  0
ARC
  8
0
  6
CONTINUOUS
 10
244.101273
 20
14.927462
 40
5.000000
 50
0.000000
 51
90.000000
  0
LINE
  8
0
  6
CONTINUOUS
 10
512.848083
 20
15.551553
 11
532.358887
 21
19.303616
  0
ARC
  8
0
  6
CONTINUOUS
 10
572.603516
 20
83.927582
 40
64.000099
 50
-54.681290
 51
20.105476
  0
ARC
  8
0
  6
CONTINUOUS
 10
572.603516
 20
83.927582
 40
64.000099
 50
159.894516
 51
234.681290
  0
ARC
  8
0
  6
CONTINUOUS
 10
513.603516
 20
10.927578
 40
4.000000
 50
90.000000
 51
180.000000
  0
ARC
  8
0
  6
CONTINUOUS
 10
513.603516
 20
11.623516
 40
4.000000
 50
100.885529
 51
180.000000
  0
ARC
  8
0
  6
CONTINUOUS
 10
531.603516
 20
23.231642
 40
4.000000
 50
-79.114502
 51
0.000000
  0
ARC
  8
0
  6
CONTINUOUS
 10
531.603516
 20
18.927578
 40
4.000000
 50
-90.000000
 51
0.000000
  0
LINE
  8
0
  6
CONTINUOUS
 10
632.358887
 20
15.551553
 11
612.848083
 21
19.303616
  0
ARC
  8
0
  6
CONTINUOUS
 10
631.603516
 20
10.927578
 40
4.000000
 50
0.000000
 51
90.000000
  0
ARC
  8
0
  6
CONTINUOUS
 10
631.603516
 20
11.623516
 40
4.000000
 50
0.000000
 51
79.114471
  0
ARC
  8
0
  6
CONTINUOUS
 10
613.603516
 20
23.231642
 40
4.000000
 50
180.000000
 51
259.114502
  0
ARC
  8
0
  6
CONTINUOUS
 10
613.603516
 20
18.927578
 40
4.000000
 50
180.000000
 51
270.000000
  0
LINE
  8
0
  6
CONTINUOUS
 10
293.043121
 20
19.927578
 11
330.159363
 21
19.927578
  0
LINE
  8
0
  6
CONTINUOUS
 10
290.700531
 20
18.801653
 11
288.502014
 21
16.053505
  0
ARC
  8
0
  6
CONTINUOUS
 10
286.159393
 20
17.927578
 40
3.000000
 50
270.000000
 51
321.340454
  0
ARC
  8
0
  6
CONTINUOUS
 10
293.043121
 20
16.927578
 40
3.000000
 50
90.000000
 51
141.340454
  0
LINE
  8
0
  6
CONTINUOUS
 10
332.501984
 20
18.801653
 11
334.700470
 21
16.053505
  0
ARC
  8
0
  6
CONTINUOUS
 10
337.043091
 20
17.927578
 40
3.000000
 50
-141.340454
 51
-90.000000
  0
ARC
  8
0
  6
CONTINUOUS
 10
330.159363
 20
16.927578
 40
3.000000
 50
38.659546
 51
90.000000
  0
ARC
  8
0
  6
CONTINUOUS
 10
247.546890
 20
152.927673
 40
5.000000
 50
270.000000
 51
304.539978
  0
LINE
  8
0
  6
CONTINUOUS
 10
229.101257
 20
429.652557
 11
229.101257
 21
301.652557
  0
LINE
  8
0
  6
CONTINUOUS
 10
247.601257
 20
135.527573
 11
249.101257
 21
135.527573
  0
LINE
  8
0
  6
CONTINUOUS
 10
247.601257
 20
32.327599
 11
249.101257
 21
32.327599
  0
ARC
  8
0
  6
CONTINUOUS
 10
431.554443
 20
83.927582
 40
191.053177
 50
164.330902
 51
195.669098
  0
ARC
  8
0
  6
CONTINUOUS
 10
431.554443
 20
83.927582
 40
190.053177
 50
178.548599
 51
181.478500
  0
LINE
  8
0
  6
CONTINUOUS
 10
243.601257
 20
88.927582
 11
242.596451
 21
88.927582
  0
LINE
  8
0
  6
CONTINUOUS
 10
246.101257
 20
86.427582
 11
246.101257
 21
81.427582
  0
ARC
  8
0
  6
CONTINUOUS
 10
242.596451
 20
89.925980
 40
1.000000
 50
178.182098
 51
270.000000
  0
ARC
  8
0
  6
CONTINUOUS
 10
243.601257
 20
86.427582
 40
2.500000
 50
0.000000
 51
90.000000
  0
LINE
  8
0
  6
CONTINUOUS
 10
243.601257
 20
78.927582
 11
242.596451
 21
78.927582
  0
ARC
  8
0
  6
CONTINUOUS
 10
242.596451
 20
77.929176
 40
1.000000
 50
-270.000000
 51
-178.182098
  0
ARC
  8
0
  6
CONTINUOUS
 10
243.601257
 20
81.427582
 40
2.500000
 50
-90.000000
 51
0.000000
  0
LINE
  8
0
  6
CONTINUOUS
 10
174.601257
 20
50.421577
 11
218.601257
 21
50.421577
  0
LINE
  8
0
  6
CONTINUOUS
 10
174.601257
 20
35.408577
 11
229.101257
 21
35.408581
  0
LINE
  8
0
  6
CONTINUOUS
 10
221.169220
 20
43.360577
 11
229.101257
 21
43.360577
  0
LINE
  8
0
  6
CONTINUOUS
 10
220.601257
 20
44.575314
 11
220.601257
 21
145.927704
  0
ARC
  8
0
  6
CONTINUOUS
 10
218.101303
 20
21.907000
 40
2.500000
 50
0.260773
 51
88.000000
  0
ARC
  8
0
  6
CONTINUOUS
 10
218.101257
 20
125.463112
 40
2.500000
 50
-45.000000
 51
0.000000
  0
ARC
  8
0
  6
CONTINUOUS
 10
212.386734
 20
119.748596
 40
2.500000
 50
272.000000
 51
315.000000
  0
LINE
  8
0
  6
CONTINUOUS
 10
220.601257
 20
303.652557
 11
220.601257
 21
427.652557
  0
LINE
  8
0
  6
CONTINUOUS
 10
174.601257
 20
410.652557
 11
218.164871
 21
412.173828
  0
LINE
  8
0
  6
CONTINUOUS
 10
174.601257
 20
320.652557
 11
218.164871
 21
319.131287
  0
LINE
  8
0
  6
CONTINUOUS
 10
174.601257
 20
414.664551
 11
174.601257
 21
316.640564
  0
LINE
  8
0
  6
CONTINUOUS
 10
222.601257
 20
429.652557
 11
229.101257
 21
429.652557
  0
LINE
  8
0
  6
CONTINUOUS
 10
222.601257
 20
301.652557
 11
229.101257
 21
301.652557
  0
LINE
  8
0
  6
CONTINUOUS
 10
213.458252
 20
389.652557
 11
220.573227
 21
389.652557
  0
LINE
  8
0
  6
CONTINUOUS
 10
214.063400
 20
341.652557
 11
220.573227
 21
341.652557
  0
LINE
  8
0
  6
CONTINUOUS
 10
213.458252
 20
387.448059
 11
213.458252
 21
343.735474
  0
LINE
  8
0
  6
CONTINUOUS
 10
165.601257
 20
408.652557
 11
165.601257
 21
394.652557
  0
LINE
  8
0
  6
CONTINUOUS
 10
55.601250
 20
410.652557
 11
174.601257
 21
410.652557
  0
LINE
  8
0
  6
CONTINUOUS
 10
55.601250
 20
320.652557
 11
174.601257
 21
320.652557
  0
LINE
  8
0
  6
CONTINUOUS
 10
55.601250
 20
394.652557
 11
165.601257
 21
394.652557
  0
LINE
  8
0
  6
CONTINUOUS
 10
55.601250
 20
336.652557
 11
165.601257
 21
336.652557
  0
ARC
  8
0
  6
CONTINUOUS
 10
167.601257
 20
408.652557
 40
2.000000
 50
90.000000
 51
180.000000
  0
ARC
  8
0
  6
CONTINUOUS
 10
167.601257
 20
322.652557
 40
2.000000
 50
180.000000
 51
270.000000
  0
LINE
  8
0
  6
CONTINUOUS
 10
174.601257
 20
410.652557
 11
174.601257
 21
320.652557
  0
ARC
  8
0
  6
CONTINUOUS
 10
222.601257
 20
427.652557
 40
2.000000
 50
90.000000
 51
180.000000
  0
ARC
  8
0
  6
CONTINUOUS
 10
222.601257
 20
303.652557
 40
2.000000
 50
180.000000
 51
270.000000
  0
ARC
  8
0
  6
CONTINUOUS
 10
218.077621
 20
414.672302
 40
2.500000
 50
272.000000
 51
359.895721
  0
ARC
  8
0
  6
CONTINUOUS
 10
218.077621
 20
316.632812
 40
2.500000
 50
0.104292
 51
88.000000
  0
LINE
  8
0
  6
CONTINUOUS
 10
220.601257
 20
412.258911
 11
220.573227
 21
412.257935
  0
LINE
  8
0
  6
CONTINUOUS
 10
175.100952
 20
415.182007
 11
220.601257
 21
416.770905
  0
LINE
  8
0
  6
CONTINUOUS
 10
174.601257
 20
414.664551
 11
175.100952
 21
415.182007
  0
LINE
  8
0
  6
CONTINUOUS
 10
175.100952
 20
316.123108
 11
220.601257
 21
314.534210
  0
LINE
  8
0
  6
CONTINUOUS
 10
174.601257
 20
316.640564
 11
175.100952
 21
316.123108
  0
LINE
  8
0
  6
CONTINUOUS
 10
46.101250
 20
410.652557
 11
55.601250
 21
410.652557
  0
LINE
  8
0
  6
CONTINUOUS
 10
55.601250
 20
394.652557
 11
46.101250
 21
394.652557
  0
LINE
  8
0
  6
CONTINUOUS
 10
46.101250
 20
320.652557
 11
55.601250
 21
320.652557
  0
LINE
  8
0
  6
CONTINUOUS
 10
55.601250
 20
320.652557
 11
55.601250
 21
340.652527
  0
LINE
  8
0
  6
CONTINUOUS
 10
55.601250
 20
336.652557
 11
46.101250
 21
336.652557
  0
LINE
  8
0
  6
CONTINUOUS
 10
55.601250
 20
390.652527
 11
55.601250
 21
410.652557
  0
LINE
  8
0
  6
CONTINUOUS
 10
46.101250
 20
412.652557
 11
46.101250
 21
373.152527
  0
LINE
  8
0
  6
CONTINUOUS
 10
46.101250
 20
394.652557
 11
2.126220
 21
394.652557
  0
LINE
  8
0
  6
CONTINUOUS
 10
46.101250
 20
336.652557
 11
2.126220
 21
336.652557
  0
LINE
  8
0
  6
CONTINUOUS
 10
3.601230
 20
412.652557
 11
46.101250
 21
412.652557
  0
LINE
  8
0
  6
CONTINUOUS
 10
3.601230
 20
318.652557
 11
46.101250
 21
318.652557
  0
ARC
  8
0
  6
CONTINUOUS
 10
3.601260
 20
407.652557
 40
5.000000
 50
90.000000
 51
180.000000
  0
ARC
  8
0
  6
CONTINUOUS
 10
3.601230
 20
323.652557
 40
5.000000
 50
180.000000
 51
270.000000
  0
LINE
  8
0
  6
CONTINUOUS
 10
-1.398740
 20
407.652557
 11
-1.398770
 21
323.652527
  0
LINE
  8
0
  6
CONTINUOUS
 10
46.101250
 20
115.927582
 11
55.601250
 21
115.927582
  0
LINE
  8
0
  6
CONTINUOUS
 10
55.601250
 20
105.336876
 11
46.101250
 21
105.336876
  0
LINE
  8
0
  6
CONTINUOUS
 10
46.101250
 20
25.927578
 11
55.601250
 21
25.927578
  0
LINE
  8
0
  6
CONTINUOUS
 10
55.601250
 20
36.518288
 11
46.101250
 21
36.518288
  0
LINE
  8
0
  6
CONTINUOUS
 10
46.101250
 20
117.927582
 11
46.101250
 21
23.927578
  0
LINE
  8
0
  6
CONTINUOUS
 10
46.101250
 20
99.927582
 11
2.126220
 21
99.927582
  0
LINE
  8
0
  6
CONTINUOUS
 10
46.101250
 20
41.927578
 11
2.126220
 21
41.927578
  0
LINE
  8
0
  6
CONTINUOUS
 10
3.601230
 20
117.927582
 11
46.101250
 21
117.927582
  0
LINE
  8
0
  6
CONTINUOUS
 10
3.601230
 20
23.927578
 11
46.101250
 21
23.927578
  0
ARC
  8
0
  6
CONTINUOUS
 10
3.601260
 20
112.927582
 40
5.000000
 50
90.000000
 51
180.000000
  0
ARC
  8
0
  6
CONTINUOUS
 10
3.601230
 20
28.927578
 40
5.000000
 50
180.000000
 51
270.000000
  0
LINE
  8
0
  6
CONTINUOUS
 10
-1.398740
 20
112.927582
 11
-1.398770
 21
28.927568
  0
LINE
  8
0
  6
CONTINUOUS
 10
55.601250
 20
25.927578
 11
55.601250
 21
115.927582
  0
LINE
  8
0
  6
CONTINUOUS
 10
45.601250
 20
373.152527
 11
46.601250
 21
373.152527
  0
ARC
  8
0
  6
CONTINUOUS
 10
45.601269
 20
372.152527
 40
1.000000
 50
90.000000
 51
180.000000
  0
LINE
  8
0
  6
CONTINUOUS
 10
41.101265
 20
369.652527
 11
41.101265
 21
361.652527
  0
LINE
  8
0
  6
CONTINUOUS
 10
41.101265
 20
369.652527
 11
44.601265
 21
371.152527
  0
LINE
  8
0
  6
CONTINUOUS
 10
41.101250
 20
361.652527
 11
44.601250
 21
360.152527
  0
LINE
  8
0
  6
CONTINUOUS
 10
44.601265
 20
372.152527
 11
44.601265
 21
359.152527
  0
LINE
  8
0
  6
CONTINUOUS
 10
45.601250
 20
358.152527
 11
46.601250
 21
358.152527
  0
ARC
  8
0
  6
CONTINUOUS
 10
45.601269
 20
359.152527
 40
1.000000
 50
-180.000000
 51
-90.000000
  0
LINE
  8
0
  6
CONTINUOUS
 10
46.601250
 20
342.652527
 11
46.601250
 21
388.652527
  0
LINE
  8
0
  6
CONTINUOUS
 10
48.601250
 20
390.652527
 11
46.601250
 21
388.652527
  0
LINE
  8
0
  6
CONTINUOUS
 10
48.601250
 20
390.652527
 11
94.601242
 21
390.652527
  0
LINE
  8
0
  6
CONTINUOUS
 10
89.101250
 20
386.152527
 11
89.101250
 21
390.652527
  0
ARC
  8
0
  6
CONTINUOUS
 10
92.101250
 20
386.152527
 40
3.000000
 50
180.000000
 51
270.000000
  0
LINE
  8
0
  6
CONTINUOUS
 10
92.101250
 20
383.152527
 11
96.601242
 21
383.152527
  0
CIRCLE
  8
0
  6
CONTINUOUS
 10
93.101250
 20
387.152527
 40
2.250000
  0
LINE
  8
0
  6
CONTINUOUS
 10
96.601242
 20
342.652527
 11
96.601242
 21
388.652527
  0
LINE
  8
0
  6
CONTINUOUS
 10
94.601242
 20
390.652527
 11
96.601242
 21
388.652527
  0
LINE
  8
0
  6
CONTINUOUS
 10
94.601242
 20
340.652527
 11
96.601242
 21
342.652527
  0
LINE
  8
0
  6
CONTINUOUS
 10
94.601242
 20
340.652527
 11
48.601250
 21
340.652527
  0
LINE
  8
0
  6
CONTINUOUS
 10
46.601250
 20
342.652527
 11
48.601250
 21
340.652527
  0
LINE
  8
0
  6
CONTINUOUS
 10
51.101250
 20
348.152527
 11
46.601261
 21
348.152527
  0
CIRCLE
  8
0
  6
CONTINUOUS
 10
50.101250
 20
344.152527
 40
2.250000
  0
ARC
  8
0
  6
CONTINUOUS
 10
51.101250
 20
345.152527
 40
3.000000
 50
0.000000
 51
90.000000
  0
LINE
  8
0
  6
CONTINUOUS
 10
54.101250
 20
345.152527
 11
54.101250
 21
340.652527
  0
LINE
  8
0
  6
CENTER
 10
71.601250
 20
333.186737
 11
71.601250
 21
397.318787
  0
LINE
  8
0
  6
CONTINUOUS
 10
49.015469
 20
389.652557
 11
47.601257
 21
388.238342
  0
LINE
  8
0
  6
CONTINUOUS
 10
47.601257
 20
348.152557
 11
47.601257
 21
388.238342
  0
LINE
  8
0
  6
CONTINUOUS
 10
89.101250
 20
389.652557
 11
49.015469
 21
389.652557
  0
LINE
  8
0
  6
CONTINUOUS
 10
95.601242
 20
383.152557
 11
95.601242
 21
343.066772
  0
LINE
  8
0
  6
CONTINUOUS
 10
54.101250
 20
341.652557
 11
94.187035
 21
341.652557
  0
LINE
  8
0
  6
CONTINUOUS
 10
94.187035
 20
341.652557
 11
95.601242
 21
343.066772
  0
LINE
  8
0
  6
CONTINUOUS
 10
46.101250
 20
358.152527
 11
46.101250
 21
318.652557
  0
LINE
  8
0
  6
CONTINUOUS
 10
48.101250
 20
117.427582
 11
94.601250
 21
117.427582
  0
LINE
  8
0
  6
CONTINUOUS
 10
96.601242
 20
147.427582
 11
96.601250
 21
119.427582
  0
LINE
  8
0
  6
CONTINUOUS
 10
46.601250
 20
147.427582
 11
46.601250
 21
119.427582
  0
LINE
  8
0
  6
CONTINUOUS
 10
44.601250
 20
129.427582
 11
96.601250
 21
129.427582
  0
LINE
  8
0
  6
CONTINUOUS
 10
94.601250
 20
117.427582
 11
96.601250
 21
119.427582
  0
LINE
  8
0
  6
CONTINUOUS
 10
46.601250
 20
119.427582
 11
48.601250
 21
117.427582
  0
LINE
  8
0
  6
CONTINUOUS
 10
46.601250
 20
119.427582
 11
96.601250
 21
119.427582
  0
LINE
  8
0
  6
CONTINUOUS
 10
47.601250
 20
148.427582
 11
95.601242
 21
148.427582
  0
LINE
  8
0
  6
CONTINUOUS
 10
95.601242
 20
148.427582
 11
96.601242
 21
147.427582
  0
LINE
  8
0
  6
CONTINUOUS
 10
47.601250
 20
148.427582
 11
46.601250
 21
147.427582
  0
LINE
  8
0
  6
CONTINUOUS
 10
46.601250
 20
147.427582
 11
96.601242
 21
147.427582
  0
LINE
  8
0
  6
CENTER
 10
38.657501
 20
138.927582
 11
50.732498
 21
138.927582
  0
LINE
  8
0
  6
CONTINUOUS
 10
44.601257
 20
145.427582
 11
44.601250
 21
129.427582
  0
LINE
  8
0
  6
CONTINUOUS
 10
45.601250
 20
146.427582
 11
46.601250
 21
146.427582
  0
ARC
  8
0
  6
CONTINUOUS
 10
45.601261
 20
145.427582
 40
1.000000
 50
90.000000
 51
180.000000
  0
LINE
  8
0
  6
CONTINUOUS
 10
41.101257
 20
142.927582
 11
41.101257
 21
134.927582
  0
LINE
  8
0
  6
CONTINUOUS
 10
41.101257
 20
142.927582
 11
44.601257
 21
144.427582
  0
LINE
  8
0
  6
CONTINUOUS
 10
41.101250
 20
134.927582
 11
44.601250
 21
133.427582
  0
LINE
  8
0
  6
CENTER
 10
71.601250
 20
112.733826
 11
71.601250
 21
153.815079
  0
LINE
  8
0
  6
CONTINUOUS
 10
48.101250
 20
117.427582
 11
48.101250
 21
115.927582
  0
LINE
  8
0
  6
CONTINUOUS
 10
94.101250
 20
117.427582
 11
94.101250
 21
115.927582
  0
LINE
  8
0
  6
CONTINUOUS
 10
165.601257
 20
336.652557
 11
165.601257
 21
322.652527
  0
TEXT
  8
0
 10
-21.000000
 20
-17.000000
 40
4.000000
 41
1.000000
  1
HLM-28T-300~450-S90T
 50
0.000000
  0
ENDSEC
  0
EOF
