  0
SECTION
  2
HEADER
  9
$CLAYER
  8
1
  9
$LTSCALE
 40
3.0
  0
ENDSEC
  0
SECTION
  2
TABLES
  0
TABLE
  2
LTYPE
 70
     4
  0
LTYPE
  2
CONTINUOUS
  3
solid line
 70
    64
 72
    65
 73
     0
 40
0.0
  0
LTYPE
  2
DASHED
  3
__ __ __ __ __ __ __ __ __ __ __ __ __ __ __
 70
    64
 72
    65
 73
     2
 40
0.75
 49
0.5
 49
-0.25
  0
LTYPE
  2
CENTER
  3
____ _ ____ _ ____ _ ____ _ ____ _ ____ _ ____
 70
    64
 72
    65
 73
     4
 40
2.0
 49
1.25
 49
-0.25
 49
0.25
 49
-0.25
  0
LTYPE
  2
PHANTOM
  3
_____ _ _ _____ _ _ _____ _ _ _____ _ _ ____
 70
    64
 72
    65
 73
     6
 40
2.5
 49
1.25
 49
-0.25
 49
0.25
 49
-0.25
 49
0.25
 49
-0.25
  0
ENDTAB
  0
TABLE
  2
LAYER
 70
     1
  0
LAYER
  2
0
 70
    64
 62
     7
  6
CONTINUOUS
  0
ENDTAB
  0
TABLE
  2
STYLE
 70
     1
  0
STYLE
  2
STANDARD
 70
     0
 40
0.000000
 41
1.000000
 50
0.000000
 71
     0
 42
3.000000
  3
txt
  4
BIGFONT
  0
ENDTAB
  0
ENDSEC
  0
SECTION
  2
BLOCKS
  0
ENDSEC
  0
SECTION
  2
ENTITIES
  0
LINE
  8
0
  6
CONTINUOUS
 10
167.149994
 20
123.220078
 11
167.149994
 21
37.220058
  0
LINE
  8
0
  6
CONTINUOUS
 10
57.150002
 20
125.220078
 11
176.149994
 21
125.220078
  0
LINE
  8
0
  6
CONTINUOUS
 10
57.150002
 20
35.220078
 11
176.149994
 21
35.220078
  0
LINE
  8
0
  6
CONTINUOUS
 10
57.150002
 20
114.629379
 11
166.112320
 21
114.629379
  0
LINE
  8
0
  6
CONTINUOUS
 10
57.150002
 20
45.810780
 11
166.112320
 21
45.810780
  0
ARC
  8
0
  6
CONTINUOUS
 10
169.149994
 20
123.220100
 40
2.000000
 50
90.000000
 51
180.000000
  0
ARC
  8
0
  6
CONTINUOUS
 10
169.149994
 20
37.220078
 40
2.000000
 50
180.000000
 51
270.000000
  0
LINE
  8
0
  6
CONTINUOUS
 10
375.649994
 20
154.591705
 11
375.649994
 21
9.220078
  0
LINE
  8
0
  6
CONTINUOUS
 10
250.649994
 20
9.220078
 11
375.649994
 21
9.220078
  0
LINE
  8
0
  6
CENTER
 10
259.694794
 20
129.220078
 11
370.861237
 21
129.220078
  0
LINE
  8
0
  6
CENTER
 10
313.149994
 20
200.720032
 11
313.149994
 21
0.720078
  0
LINE
  8
0
  6
CONTINUOUS
 10
290.704407
 20
183.720032
 11
335.595612
 21
183.720032
  0
LINE
  8
0
  6
CONTINUOUS
 10
338.430389
 20
182.838745
 11
373.484802
 21
158.710312
  0
LINE
  8
0
  6
CONTINUOUS
 10
253.649994
 20
24.220078
 11
372.649994
 21
24.220078
  0
LINE
  8
0
  6
CONTINUOUS
 10
365.649994
 20
22.682577
 11
365.649994
 21
9.220078
  0
LINE
  8
0
  6
CONTINUOUS
 10
261.649994
 20
22.682577
 11
261.649994
 21
9.220078
  0
LINE
  8
0
  6
CENTER
 10
353.149994
 20
31.470078
 11
353.149994
 21
2.470078
  0
LINE
  8
0
  6
CENTER
 10
273.149994
 20
31.470078
 11
273.149994
 21
3.720078
  0
LINE
  8
0
  6
DASHED
 10
358.649994
 20
24.220078
 11
358.649994
 21
9.220078
  0
LINE
  8
0
  6
DASHED
 10
347.649994
 20
24.220078
 11
347.649994
 21
9.220078
  0
LINE
  8
0
  6
DASHED
 10
278.649994
 20
24.220078
 11
278.649994
 21
9.220078
  0
LINE
  8
0
  6
DASHED
 10
267.649994
 20
24.220078
 11
267.649994
 21
9.220078
  0
ARC
  8
0
  6
CONTINUOUS
 10
293.149994
 20
79.220078
 40
26.500000
 50
170.529099
 51
270.000000
  0
ARC
  8
0
  6
CONTINUOUS
 10
333.149994
 20
79.220078
 40
26.500000
 50
-90.000000
 51
9.470950
  0
LINE
  8
0
  6
CONTINUOUS
 10
267.011200
 20
83.580551
 11
275.667999
 21
135.472916
  0
LINE
  8
0
  6
CONTINUOUS
 10
350.631989
 20
135.472916
 11
359.288788
 21
83.580582
  0
LINE
  8
0
  6
CONTINUOUS
 10
293.149994
 20
52.720078
 11
333.149994
 21
52.720078
  0
ARC
  8
0
  6
CONTINUOUS
 10
370.649994
 20
154.591644
 40
5.000000
 50
0.000000
 51
55.460110
  0
ARC
  8
0
  6
CONTINUOUS
 10
335.595612
 20
178.720032
 40
5.000000
 50
55.460079
 51
90.000000
  0
ARC
  8
0
  6
CONTINUOUS
 10
290.738403
 20
178.720032
 40
5.000000
 50
90.000000
 51
91.038872
  0
LINE
  8
0
  6
CONTINUOUS
 10
293.149994
 20
28.850851
 11
293.149994
 21
24.220078
  0
LINE
  8
0
  6
CONTINUOUS
 10
333.149994
 20
28.850851
 11
333.149994
 21
24.220078
  0
LINE
  8
0
  6
CONTINUOUS
 10
250.649994
 20
9.220078
 11
250.649994
 21
154.591660
  0
ARC
  8
0
  6
CONTINUOUS
 10
293.149994
 20
79.220078
 40
24.000000
 50
169.576294
 51
270.000000
  0
ARC
  8
0
  6
CONTINUOUS
 10
333.149994
 20
79.220078
 40
24.000000
 50
-90.000000
 51
9.471373
  0
LINE
  8
0
  6
CONTINUOUS
 10
293.149994
 20
55.220078
 11
333.149994
 21
55.220078
  0
CIRCLE
  8
0
  6
CONTINUOUS
 10
313.149994
 20
129.220078
 40
33.500000
  0
ARC
  8
0
  6
CONTINUOUS
 10
313.149994
 20
129.220078
 40
38.000000
 50
9.470961
 51
170.529099
  0
ARC
  8
0
  6
CONTINUOUS
 10
313.149994
 20
129.220078
 40
38.000000
 50
9.470963
 51
170.529007
  0
ARC
  8
0
  6
CONTINUOUS
 10
313.149994
 20
129.220078
 40
35.500000
 50
-189.470795
 51
9.471022
  0
LINE
  8
0
  6
CONTINUOUS
 10
269.477203
 20
83.169174
 11
278.133789
 21
135.061417
  0
LINE
  8
0
  6
CONTINUOUS
 10
348.165985
 20
135.061539
 11
356.822815
 21
83.169388
  0
LINE
  8
0
  6
CENTER
 10
200.992493
 20
93.220078
 11
274.399994
 21
93.220078
  0
LINE
  8
0
  6
CONTINUOUS
 10
230.649994
 20
93.220078
 11
230.649994
 21
29.219980
  0
LINE
  8
0
  6
CONTINUOUS
 10
230.649994
 20
93.220078
 11
230.649994
 21
157.220184
  0
LINE
  8
0
  6
CONTINUOUS
 10
252.815002
 20
158.710297
 11
287.869598
 21
182.838699
  0
ARC
  8
0
  6
CONTINUOUS
 10
290.704407
 20
178.720032
 40
5.000000
 50
90.000000
 51
124.540298
  0
ARC
  8
0
  6
CONTINUOUS
 10
255.649994
 20
154.591675
 40
5.000000
 50
124.540398
 51
180.000000
  0
ARC
  8
0
  6
CONTINUOUS
 10
253.649994
 20
21.220098
 40
3.000000
 50
90.000000
 51
180.000000
  0
ARC
  8
0
  6
CONTINUOUS
 10
372.649994
 20
21.220078
 40
3.000000
 50
0.000000
 51
90.000000
  0
LINE
  8
0
  6
CONTINUOUS
 10
302.853607
 20
65.220078
 11
298.693207
 21
65.220078
  0
LINE
  8
0
  6
CONTINUOUS
 10
305.149994
 20
72.188820
 11
305.149994
 21
65.220078
  0
LINE
  8
0
  6
CONTINUOUS
 10
309.149994
 20
74.720078
 11
309.149994
 21
77.220078
  0
LINE
  8
0
  6
CONTINUOUS
 10
317.149994
 20
74.720078
 11
317.149994
 21
77.220078
  0
LINE
  8
0
  6
CONTINUOUS
 10
312.368805
 20
75.751328
 11
312.368805
 21
66.532578
  0
LINE
  8
0
  6
CONTINUOUS
 10
313.868805
 20
75.751328
 11
313.868805
 21
66.532578
  0
LINE
  8
0
  6
CONTINUOUS
 10
321.743805
 20
75.751328
 11
321.743805
 21
66.470078
  0
LINE
  8
0
  6
CONTINUOUS
 10
323.118805
 20
70.829460
 11
323.118805
 21
66.470078
  0
LINE
  8
0
  6
CONTINUOUS
 10
303.252014
 20
75.626328
 11
299.397003
 21
75.626328
  0
LINE
  8
0
  6
CONTINUOUS
 10
299.397003
 20
75.626328
 11
298.493805
 21
74.506332
  0
LINE
  8
0
  6
CONTINUOUS
 10
298.602386
 20
77.220078
 11
297.149994
 21
75.360321
  0
LINE
  8
0
  6
CONTINUOUS
 10
298.493805
 20
67.592995
 11
299.411407
 21
66.626320
  0
LINE
  8
0
  6
CONTINUOUS
 10
297.149994
 20
66.777237
 11
298.693207
 21
65.220078
  0
LINE
  8
0
  6
CONTINUOUS
 10
297.149994
 20
75.360321
 11
297.149994
 21
66.777237
  0
LINE
  8
0
  6
CONTINUOUS
 10
298.493805
 20
74.506332
 11
298.493805
 21
67.592995
  0
LINE
  8
0
  6
CONTINUOUS
 10
303.993805
 20
74.909225
 11
303.236786
 21
75.626328
  0
LINE
  8
0
  6
CONTINUOUS
 10
303.981812
 20
77.220078
 11
305.149994
 21
75.923592
  0
LINE
  8
0
  6
CONTINUOUS
 10
303.993805
 20
74.720078
 11
305.149994
 21
74.720078
  0
LINE
  8
0
  6
CONTINUOUS
 10
298.602386
 20
77.220078
 11
303.981812
 21
77.220078
  0
LINE
  8
0
  6
CONTINUOUS
 10
301.899994
 20
72.188820
 11
305.149994
 21
72.188820
  0
LINE
  8
0
  6
CONTINUOUS
 10
303.993805
 20
70.876320
 11
301.899994
 21
70.876320
  0
LINE
  8
0
  6
CONTINUOUS
 10
301.493805
 20
66.626320
 11
299.411407
 21
66.626320
  0
LINE
  8
0
  6
CONTINUOUS
 10
303.993805
 20
69.626320
 11
303.993805
 21
70.626320
  0
ARC
  8
0
  6
CONTINUOUS
 10
301.493805
 20
69.126320
 40
2.500000
 50
-89.999786
 51
0.000109
  0
LINE
  8
0
  6
CONTINUOUS
 10
303.993805
 20
66.176636
 11
303.993805
 21
65.220078
  0
LINE
  8
0
  6
CONTINUOUS
 10
305.149994
 20
75.923592
 11
305.149994
 21
74.720078
  0
LINE
  8
0
  6
CONTINUOUS
 10
303.993805
 20
70.876320
 11
303.993805
 21
69.126320
  0
LINE
  8
0
  6
CONTINUOUS
 10
301.899994
 20
72.188820
 11
301.899994
 21
70.876320
  0
LINE
  8
0
  6
CONTINUOUS
 10
303.993805
 20
65.220078
 11
305.149994
 21
65.220078
  0
LINE
  8
0
  6
CONTINUOUS
 10
303.993805
 20
66.176636
 11
302.853607
 21
65.220078
  0
LINE
  8
0
  6
CONTINUOUS
 10
313.868805
 20
66.532578
 11
314.368805
 21
66.532578
  0
LINE
  8
0
  6
CONTINUOUS
 10
311.774994
 20
66.532578
 11
311.774994
 21
65.220078
  0
LINE
  8
0
  6
CONTINUOUS
 10
314.368805
 20
66.532578
 11
314.368805
 21
65.220078
  0
LINE
  8
0
  6
CONTINUOUS
 10
316.315613
 20
74.720078
 11
317.149994
 21
74.720078
  0
LINE
  8
0
  6
CONTINUOUS
 10
309.149994
 20
74.720078
 11
310.037994
 21
74.720078
  0
LINE
  8
0
  6
CONTINUOUS
 10
309.149994
 20
77.220078
 11
317.149994
 21
77.220078
  0
LINE
  8
0
  6
CONTINUOUS
 10
311.774994
 20
65.220078
 11
314.368805
 21
65.220078
  0
LINE
  8
0
  6
CONTINUOUS
 10
311.774994
 20
66.532578
 11
312.368805
 21
66.532578
  0
ARC
  8
0
  6
CONTINUOUS
 10
325.946808
 20
74.016953
 40
3.203126
 50
-73.981873
 51
90.003510
  0
ARC
  8
0
  6
CONTINUOUS
 10
325.946808
 20
74.016953
 40
1.954124
 50
-82.585274
 51
62.411850
  0
LINE
  8
0
  6
CONTINUOUS
 10
321.149994
 20
77.220078
 11
325.946808
 21
77.220078
  0
LINE
  8
0
  6
CONTINUOUS
 10
326.199005
 20
72.079155
 11
323.118805
 21
72.079155
  0
LINE
  8
0
  6
CONTINUOUS
 10
321.149994
 20
77.220078
 11
321.149994
 21
75.751328
  0
LINE
  8
0
  6
CONTINUOUS
 10
323.118805
 20
75.751328
 11
323.118805
 21
72.079155
  0
LINE
  8
0
  6
CONTINUOUS
 10
326.830811
 20
70.938194
 11
328.813202
 21
66.470078
  0
LINE
  8
0
  6
CONTINUOUS
 10
325.679199
 20
70.829460
 11
327.555389
 21
66.470078
  0
LINE
  8
0
  6
CONTINUOUS
 10
321.149994
 20
66.470078
 11
321.743805
 21
66.470078
  0
LINE
  8
0
  6
CONTINUOUS
 10
323.118805
 20
66.470078
 11
323.665588
 21
66.470078
  0
LINE
  8
0
  6
CONTINUOUS
 10
323.665588
 20
65.220078
 11
321.149994
 21
65.220078
  0
LINE
  8
0
  6
CONTINUOUS
 10
327.306213
 20
66.470078
 11
327.555389
 21
66.470078
  0
LINE
  8
0
  6
CONTINUOUS
 10
328.813202
 20
66.470078
 11
329.149994
 21
66.470078
  0
LINE
  8
0
  6
CONTINUOUS
 10
327.306213
 20
65.220078
 11
329.149994
 21
65.220078
  0
LINE
  8
0
  6
CONTINUOUS
 10
329.149994
 20
66.470078
 11
329.149994
 21
65.220078
  0
LINE
  8
0
  6
CONTINUOUS
 10
327.306213
 20
66.470078
 11
327.306213
 21
65.220078
  0
LINE
  8
0
  6
CONTINUOUS
 10
323.665588
 20
66.470078
 11
323.665588
 21
65.220078
  0
LINE
  8
0
  6
CONTINUOUS
 10
321.149994
 20
66.470078
 11
321.149994
 21
65.220078
  0
LINE
  8
0
  6
CONTINUOUS
 10
310.467804
 20
75.751328
 11
310.037994
 21
74.720078
  0
LINE
  8
0
  6
CONTINUOUS
 10
315.953186
 20
75.751328
 11
316.315613
 21
74.720078
  0
LINE
  8
0
  6
CONTINUOUS
 10
313.868805
 20
75.751328
 11
315.953186
 21
75.751328
  0
LINE
  8
0
  6
CONTINUOUS
 10
312.368805
 20
75.751328
 11
310.467804
 21
75.751328
  0
LINE
  8
0
  6
CONTINUOUS
 10
323.118805
 20
70.829460
 11
325.679199
 21
70.829460
  0
LINE
  8
0
  6
CONTINUOUS
 10
321.149994
 20
75.751328
 11
321.743805
 21
75.751328
  0
LINE
  8
0
  6
CONTINUOUS
 10
323.118805
 20
75.751328
 11
326.851807
 21
75.748901
  0
LINE
  8
0
  6
CONTINUOUS
 10
303.993805
 20
74.909225
 11
303.993805
 21
74.720078
  0
LINE
  8
0
  6
CONTINUOUS
 10
616.054749
 20
40.220078
 11
616.054749
 21
44.198799
  0
LINE
  8
0
  6
CONTINUOUS
 10
526.054749
 20
40.220078
 11
526.054749
 21
44.198738
  0
LINE
  8
0
  6
CONTINUOUS
 10
531.054749
 20
35.220078
 11
534.054749
 21
35.220078
  0
LINE
  8
0
  6
CONTINUOUS
 10
611.054749
 20
35.220078
 11
608.054749
 21
35.220078
  0
ARC
  8
0
  6
CONTINUOUS
 10
531.054749
 20
40.220078
 40
5.000000
 50
180.000000
 51
270.000000
  0
ARC
  8
0
  6
CONTINUOUS
 10
611.054749
 20
40.220078
 40
5.000000
 50
-90.000000
 51
0.000000
  0
ARC
  8
0
  6
CONTINUOUS
 10
612.067139
 20
52.208118
 40
8.000000
 50
306.780975
 51
358.958740
  0
ARC
  8
0
  6
CONTINUOUS
 10
530.042542
 20
52.207859
 40
8.000000
 50
181.041107
 51
233.216995
  0
ARC
  8
0
  6
CONTINUOUS
 10
618.054749
 20
44.198818
 40
2.000000
 50
126.781197
 51
180.000000
  0
ARC
  8
0
  6
CONTINUOUS
 10
524.054749
 20
44.198738
 40
2.000000
 50
0.000000
 51
53.217121
  0
LINE
  8
0
  6
CENTER
 10
571.054749
 20
-8.108762
 11
571.054749
 21
205.139404
  0
LINE
  8
0
  6
CENTER
 10
453.783752
 20
129.220078
 11
688.091736
 21
129.220078
  0
LINE
  8
0
  6
CONTINUOUS
 10
508.054749
 20
9.220078
 11
543.554749
 21
9.220078
  0
LINE
  8
0
  6
CONTINUOUS
 10
512.054749
 20
24.220078
 11
530.054749
 21
24.220078
  0
LINE
  8
0
  6
CONTINUOUS
 10
630.054749
 20
24.220078
 11
612.054749
 21
24.220078
  0
LINE
  8
0
  6
CONTINUOUS
 10
535.554749
 20
157.220078
 11
606.304749
 21
157.220078
  0
LINE
  8
0
  6
CONTINUOUS
 10
605.107178
 20
183.125961
 11
571.054749
 21
183.720078
  0
LINE
  8
0
  6
CONTINUOUS
 10
537.002380
 20
183.125565
 11
571.054749
 21
183.720078
  0
LINE
  8
0
  6
CONTINUOUS
 10
608.054749
 20
180.126419
 11
608.054749
 21
9.220058
  0
LINE
  8
0
  6
CONTINUOUS
 10
534.054749
 20
180.126022
 11
534.054749
 21
9.220078
  0
LINE
  8
0
  6
CONTINUOUS
 10
518.054749
 20
99.507812
 11
518.054749
 21
158.932312
  0
LINE
  8
0
  6
CONTINUOUS
 10
624.054749
 20
158.932343
 11
624.054749
 21
99.507812
  0
LINE
  8
0
  6
CONTINUOUS
 10
525.054749
 20
59.020496
 11
525.054749
 21
131.720078
  0
LINE
  8
0
  6
CONTINUOUS
 10
617.054749
 20
59.020496
 11
617.054749
 21
131.720078
  0
LINE
  8
0
  6
CONTINUOUS
 10
634.054749
 20
20.916016
 11
634.054749
 21
9.220078
  0
LINE
  8
0
  6
CONTINUOUS
 10
508.054749
 20
20.916016
 11
508.054749
 21
9.220078
  0
LINE
  8
0
  6
CENTER
 10
521.054749
 20
32.220078
 11
521.054749
 21
-2.133322
  0
LINE
  8
0
  6
CENTER
 10
621.054749
 20
32.720078
 11
621.054749
 21
-2.133322
  0
LINE
  8
0
  6
DASHED
 10
515.554749
 20
24.220078
 11
515.554749
 21
9.220078
  0
LINE
  8
0
  6
DASHED
 10
526.554749
 20
24.220078
 11
526.554749
 21
9.220078
  0
LINE
  8
0
  6
DASHED
 10
615.554749
 20
24.220078
 11
615.554749
 21
9.220078
  0
LINE
  8
0
  6
DASHED
 10
626.554749
 20
24.220078
 11
626.554749
 21
9.220078
  0
ARC
  8
0
  6
CONTINUOUS
 10
537.054749
 20
180.126038
 40
3.000000
 50
91.000526
 51
180.000000
  0
ARC
  8
0
  6
CONTINUOUS
 10
605.054749
 20
180.126404
 40
3.000000
 50
0.000000
 51
89.000580
  0
LINE
  8
0
  6
CONTINUOUS
 10
598.554749
 20
9.220078
 11
634.054749
 21
9.220078
  0
LINE
  8
0
  6
CONTINUOUS
 10
544.554749
 20
10.220078
 11
597.554749
 21
10.220078
  0
LINE
  8
0
  6
CONTINUOUS
 10
521.700928
 20
163.745605
 11
530.408325
 21
166.194565
  0
LINE
  8
0
  6
CONTINUOUS
 10
521.700928
 20
94.694557
 11
522.866943
 21
94.366631
  0
LINE
  8
0
  6
CONTINUOUS
 10
528.716553
 20
54.202919
 11
530.392944
 21
53.737240
  0
LINE
  8
0
  6
CONTINUOUS
 10
613.392944
 20
54.202919
 11
611.716553
 21
53.737240
  0
LINE
  8
0
  6
CONTINUOUS
 10
620.408325
 20
94.694565
 11
619.242554
 21
94.366631
  0
LINE
  8
0
  6
CONTINUOUS
 10
620.408325
 20
163.745605
 11
611.701172
 21
166.194565
  0
ARC
  8
0
  6
CONTINUOUS
 10
523.054749
 20
158.932358
 40
5.000000
 50
105.709000
 51
180.000000
  0
ARC
  8
0
  6
CONTINUOUS
 10
523.054749
 20
99.507851
 40
5.000000
 50
180.000000
 51
254.291702
  0
ARC
  8
0
  6
CONTINUOUS
 10
530.054749
 20
59.020538
 40
5.000000
 50
180.000000
 51
254.476196
  0
ARC
  8
0
  6
CONTINUOUS
 10
612.054749
 20
59.020496
 40
5.000000
 50
-74.475708
 51
0.000000
  0
ARC
  8
0
  6
CONTINUOUS
 10
619.054749
 20
99.507805
 40
5.000000
 50
-74.291199
 51
0.000000
  0
ARC
  8
0
  6
CONTINUOUS
 10
619.054749
 20
158.932312
 40
5.000000
 50
0.000000
 51
74.291527
  0
ARC
  8
0
  6
CONTINUOUS
 10
620.054749
 20
91.478699
 40
3.000000
 50
105.709000
 51
180.000000
  0
ARC
  8
0
  6
CONTINUOUS
 10
522.054749
 20
91.478668
 40
3.000000
 50
0.000000
 51
74.291397
  0
ARC
  8
0
  6
CONTINUOUS
 10
529.054749
 20
171.007812
 40
5.000000
 50
-74.291199
 51
0.000000
  0
ARC
  8
0
  6
CONTINUOUS
 10
613.054749
 20
171.007843
 40
5.000000
 50
180.000000
 51
254.291702
  0
ARC
  8
0
  6
CONTINUOUS
 10
613.054749
 20
48.919678
 40
5.000000
 50
105.524399
 51
180.000000
  0
ARC
  8
0
  6
CONTINUOUS
 10
529.054749
 20
48.919640
 40
5.000000
 50
0.000000
 51
74.475952
  0
LINE
  8
0
  6
CONTINUOUS
 10
598.554749
 20
9.220078
 11
597.554749
 21
10.220078
  0
LINE
  8
0
  6
CONTINUOUS
 10
543.554749
 20
9.220078
 11
544.554749
 21
10.220078
  0
LINE
  8
0
  6
CENTER
 10
494.156006
 20
93.220078
 11
650.575989
 21
93.220078
  0
LINE
  8
0
  6
CONTINUOUS
 10
323.149994
 20
125.220116
 11
323.149994
 21
133.220123
  0
LINE
  8
0
  6
CONTINUOUS
 10
330.149994
 20
125.220139
 11
330.149994
 21
133.220139
  0
LINE
  8
0
  6
CONTINUOUS
 10
330.149994
 20
125.220139
 11
323.149994
 21
125.220116
  0
LINE
  8
0
  6
CONTINUOUS
 10
330.149994
 20
133.220139
 11
323.149994
 21
133.220123
  0
ARC
  8
0
  6
CONTINUOUS
 10
313.149994
 20
129.220078
 40
14.000000
 50
16.601500
 51
343.398499
  0
LINE
  8
0
  6
CONTINUOUS
 10
471.054749
 20
115.220078
 11
471.054749
 21
143.220078
  0
LINE
  8
0
  6
CONTINUOUS
 10
516.054749
 20
143.220078
 11
471.054749
 21
143.220078
  0
LINE
  8
0
  6
CONTINUOUS
 10
516.054749
 20
115.220078
 11
471.054749
 21
115.220078
  0
LINE
  8
0
  6
CONTINUOUS
 10
516.054749
 20
144.220078
 11
516.054749
 21
114.220078
  0
LINE
  8
0
  6
CONTINUOUS
 10
518.054749
 20
114.220078
 11
516.054749
 21
114.220078
  0
ARC
  8
0
  6
CONTINUOUS
 10
507.054749
 20
129.220078
 40
4.000000
 50
-90.000000
 51
90.000000
  0
LINE
  8
0
  6
CONTINUOUS
 10
507.054749
 20
133.220078
 11
471.054749
 21
133.220078
  0
LINE
  8
0
  6
CONTINUOUS
 10
507.054749
 20
125.220078
 11
471.054749
 21
125.220078
  0
LINE
  8
0
  6
CONTINUOUS
 10
518.054749
 20
144.220078
 11
516.054749
 21
144.220078
  0
LINE
  8
0
  6
CONTINUOUS
 10
671.054749
 20
115.220078
 11
671.054749
 21
143.220078
  0
LINE
  8
0
  6
CONTINUOUS
 10
626.054749
 20
143.220078
 11
671.054749
 21
143.220078
  0
LINE
  8
0
  6
CONTINUOUS
 10
626.054749
 20
115.220078
 11
671.054749
 21
115.220078
  0
LINE
  8
0
  6
CONTINUOUS
 10
626.054749
 20
144.220078
 11
626.054749
 21
114.220078
  0
LINE
  8
0
  6
CONTINUOUS
 10
624.054749
 20
114.220078
 11
626.054749
 21
114.220078
  0
ARC
  8
0
  6
CONTINUOUS
 10
635.054749
 20
129.220078
 40
4.000000
 50
90.000000
 51
270.000000
  0
LINE
  8
0
  6
CONTINUOUS
 10
635.054749
 20
133.220078
 11
671.054749
 21
133.220078
  0
LINE
  8
0
  6
CONTINUOUS
 10
635.054749
 20
125.220078
 11
671.054749
 21
125.220078
  0
LINE
  8
0
  6
CONTINUOUS
 10
624.054749
 20
144.220078
 11
626.054749
 21
144.220078
  0
LINE
  8
0
  6
CONTINUOUS
 10
224.149994
 20
157.220184
 11
230.649994
 21
157.220184
  0
LINE
  8
0
  6
CONTINUOUS
 10
224.149994
 20
29.219980
 11
230.649994
 21
29.219980
  0
LINE
  8
0
  6
CONTINUOUS
 10
176.149994
 20
125.220078
 11
222.149994
 21
126.826431
  0
LINE
  8
0
  6
CONTINUOUS
 10
230.649994
 20
33.316895
 11
176.149994
 21
35.220078
  0
ARC
  8
0
  6
CONTINUOUS
 10
224.150024
 20
155.220200
 40
2.000000
 50
90.000000
 51
180.000000
  0
ARC
  8
0
  6
CONTINUOUS
 10
224.149994
 20
31.219980
 40
2.000000
 50
180.260773
 51
270.000000
  0
LINE
  8
0
  6
CENTER
 10
-13.503750
 20
80.220078
 11
274.399994
 21
80.220078
  0
LINE
  8
0
  6
CONTINUOUS
 10
176.149994
 20
125.220078
 11
176.149994
 21
35.220078
  0
LINE
  8
0
  6
CONTINUOUS
 10
221.417770
 20
132.987839
 11
215.703262
 21
127.273331
  0
LINE
  8
0
  6
CONTINUOUS
 10
252.913376
 20
411.945038
 11
372.056061
 21
411.945038
  0
ARC
  8
0
  6
CONTINUOUS
 10
372.056061
 20
408.945038
 40
3.000000
 50
1.000000
 51
90.000000
  0
LINE
  8
0
  6
CONTINUOUS
 10
358.144257
 20
417.298767
 11
359.034698
 21
414.132812
  0
ARC
  8
0
  6
CONTINUOUS
 10
361.922638
 20
414.945038
 40
3.000000
 50
195.708649
 51
270.000000
  0
ARC
  8
0
  6
CONTINUOUS
 10
244.727600
 20
429.171600
 40
3.000000
 50
1.500200
 51
77.801201
  0
LINE
  8
0
  6
CONTINUOUS
 10
247.726593
 20
429.250183
 11
248.082596
 21
415.655396
  0
ARC
  8
0
  6
CONTINUOUS
 10
245.995407
 20
435.036163
 40
3.000000
 50
-164.999893
 51
-102.198799
  0
LINE
  8
0
  6
CENTER
 10
-20.171249
 20
374.945038
 11
391.053864
 21
374.945038
  0
LINE
  8
0
  6
CONTINUOUS
 10
264.164886
 20
311.945038
 11
299.149994
 21
311.945038
  0
LINE
  8
0
  6
CONTINUOUS
 10
375.649994
 20
374.945038
 11
375.004150
 21
411.945038
  0
LINE
  8
0
  6
CONTINUOUS
 10
366.839905
 20
434.637726
 11
375.004150
 21
411.945038
  0
ARC
  8
0
  6
CONTINUOUS
 10
362.135132
 20
432.945038
 40
5.000000
 50
19.787489
 51
90.000000
  0
LINE
  8
0
  6
CONTINUOUS
 10
375.649994
 20
374.945038
 11
375.004150
 21
337.945038
  0
LINE
  8
0
  6
CONTINUOUS
 10
366.839905
 20
315.252380
 11
375.004150
 21
337.945038
  0
ARC
  8
0
  6
CONTINUOUS
 10
362.135132
 20
316.945038
 40
5.000000
 50
-90.000000
 51
-19.787489
  0
LINE
  8
0
  6
CONTINUOUS
 10
252.913376
 20
411.945038
 11
372.056061
 21
411.945038
  0
LINE
  8
0
  6
CENTER
 10
313.149994
 20
255.707504
 11
313.149994
 21
486.051239
  0
ARC
  8
0
  6
CONTINUOUS
 10
372.056061
 20
408.945038
 40
3.000000
 50
1.000000
 51
90.000000
  0
ARC
  8
0
  6
CONTINUOUS
 10
372.056061
 20
340.945038
 40
3.000000
 50
-90.000000
 51
-1.000000
  0
LINE
  8
0
  6
CONTINUOUS
 10
252.986603
 20
337.945038
 11
372.056061
 21
337.945038
  0
LINE
  8
0
  6
CONTINUOUS
 10
342.862274
 20
427.945038
 11
283.437744
 21
427.945038
  0
LINE
  8
0
  6
CONTINUOUS
 10
347.675507
 20
424.298767
 11
348.618744
 21
420.945038
  0
ARC
  8
0
  6
CONTINUOUS
 10
342.862274
 20
422.945038
 40
5.000000
 50
15.708638
 51
90.000000
  0
LINE
  8
0
  6
CONTINUOUS
 10
348.618744
 20
420.945038
 11
353.331024
 21
420.945038
  0
ARC
  8
0
  6
CONTINUOUS
 10
353.331024
 20
415.945038
 40
5.000000
 50
15.708638
 51
90.000000
  0
LINE
  8
0
  6
CONTINUOUS
 10
278.624481
 20
424.298767
 11
277.681244
 21
420.945038
  0
ARC
  8
0
  6
CONTINUOUS
 10
283.437744
 20
422.945038
 40
5.000000
 50
90.000000
 51
164.291367
  0
LINE
  8
0
  6
CONTINUOUS
 10
277.681244
 20
420.945038
 11
272.968994
 21
420.945038
  0
LINE
  8
0
  6
CONTINUOUS
 10
268.155731
 20
417.298767
 11
267.265320
 21
414.132812
  0
ARC
  8
0
  6
CONTINUOUS
 10
272.968994
 20
415.945038
 40
5.000000
 50
90.000000
 51
164.291367
  0
ARC
  8
0
  6
CONTINUOUS
 10
264.377350
 20
414.945038
 40
3.000000
 50
-90.000000
 51
-15.708638
  0
LINE
  8
0
  6
CONTINUOUS
 10
342.862274
 20
321.945038
 11
283.437744
 21
321.945038
  0
LINE
  8
0
  6
CONTINUOUS
 10
347.675507
 20
325.591309
 11
348.618744
 21
328.945038
  0
ARC
  8
0
  6
CONTINUOUS
 10
342.862274
 20
326.945038
 40
5.000000
 50
-90.000000
 51
-15.708638
  0
LINE
  8
0
  6
CONTINUOUS
 10
348.618744
 20
328.945038
 11
353.331024
 21
328.945038
  0
LINE
  8
0
  6
CONTINUOUS
 10
358.144257
 20
332.591309
 11
359.034698
 21
335.757294
  0
ARC
  8
0
  6
CONTINUOUS
 10
353.331024
 20
333.945038
 40
5.000000
 50
-90.000000
 51
-15.708638
  0
ARC
  8
0
  6
CONTINUOUS
 10
361.922638
 20
334.945038
 40
3.000000
 50
-270.000000
 51
-195.708633
  0
LINE
  8
0
  6
CONTINUOUS
 10
278.624481
 20
325.591309
 11
277.681244
 21
328.945038
  0
ARC
  8
0
  6
CONTINUOUS
 10
283.437744
 20
326.945038
 40
5.000000
 50
-164.291367
 51
-90.000000
  0
LINE
  8
0
  6
CONTINUOUS
 10
277.681244
 20
328.945038
 11
272.968994
 21
328.945038
  0
LINE
  8
0
  6
CONTINUOUS
 10
268.155731
 20
332.591309
 11
267.265320
 21
335.757294
  0
ARC
  8
0
  6
CONTINUOUS
 10
272.968994
 20
333.945038
 40
5.000000
 50
-164.291367
 51
-90.000000
  0
ARC
  8
0
  6
CONTINUOUS
 10
264.377350
 20
334.945038
 40
3.000000
 50
15.708638
 51
90.000000
  0
LINE
  8
0
  6
CONTINUOUS
 10
259.460114
 20
434.637726
 11
251.382263
 21
412.185242
  0
ARC
  8
0
  6
CONTINUOUS
 10
264.164886
 20
432.945038
 40
5.000000
 50
90.000000
 51
160.212509
  0
LINE
  8
0
  6
CONTINUOUS
 10
259.460114
 20
315.252380
 11
251.398102
 21
337.660797
  0
ARC
  8
0
  6
CONTINUOUS
 10
264.164886
 20
316.945038
 40
5.000000
 50
199.787491
 51
270.000000
  0
LINE
  8
0
  6
CONTINUOUS
 10
264.164886
 20
437.945038
 11
299.149994
 21
437.945038
  0
LINE
  8
0
  6
CENTER
 10
353.149994
 20
436.058319
 11
353.149994
 21
416.616913
  0
LINE
  8
0
  6
CENTER
 10
343.239105
 20
424.945038
 11
361.757660
 21
424.945038
  0
ARC
  8
0
  6
CONTINUOUS
 10
353.149994
 20
424.945038
 40
5.500000
 50
-59.465683
 51
187.598495
  0
ARC
  8
0
  6
CONTINUOUS
 10
273.149994
 20
424.945038
 40
5.500000
 50
-7.598608
 51
239.465683
  0
LINE
  8
0
  6
CENTER
 10
273.149994
 20
436.058319
 11
273.149994
 21
416.616913
  0
LINE
  8
0
  6
CENTER
 10
283.060883
 20
424.945038
 11
264.542328
 21
424.945038
  0
ARC
  8
0
  6
CONTINUOUS
 10
273.149994
 20
324.945038
 40
5.500000
 50
-239.465683
 51
7.598608
  0
LINE
  8
0
  6
CENTER
 10
283.060883
 20
324.945038
 11
264.542328
 21
324.945038
  0
LINE
  8
0
  6
CENTER
 10
273.149994
 20
313.831757
 11
273.149994
 21
333.273163
  0
LINE
  8
0
  6
CENTER
 10
353.149994
 20
313.831757
 11
353.149994
 21
333.273163
  0
LINE
  8
0
  6
CENTER
 10
343.239105
 20
324.945038
 11
361.757660
 21
324.945038
  0
ARC
  8
0
  6
CONTINUOUS
 10
353.149994
 20
324.945038
 40
5.500000
 50
-187.598602
 51
59.465683
  0
LINE
  8
0
  6
CONTINUOUS
 10
337.149994
 20
340.945038
 11
337.149994
 21
408.945038
  0
LINE
  8
0
  6
CONTINUOUS
 10
289.149994
 20
340.945038
 11
289.149994
 21
408.945038
  0
LINE
  8
0
  6
CONTINUOUS
 10
248.230301
 20
334.239136
 11
242.981674
 21
314.650970
  0
LINE
  8
0
  6
CONTINUOUS
 10
247.726593
 20
320.093018
 11
248.082596
 21
333.687805
  0
ARC
  8
0
  6
CONTINUOUS
 10
244.727600
 20
320.171600
 40
3.000000
 50
282.198792
 51
358.499786
  0
ARC
  8
0
  6
CONTINUOUS
 10
245.995407
 20
314.307007
 40
3.000000
 50
102.198799
 51
165.000031
  0
ARC
  8
0
  6
CONTINUOUS
 10
244.727600
 20
429.171600
 40
3.000000
 50
1.500200
 51
77.801201
  0
LINE
  8
0
  6
CONTINUOUS
 10
247.726593
 20
429.250183
 11
248.082596
 21
415.655396
  0
ARC
  8
0
  6
CONTINUOUS
 10
245.995407
 20
435.036163
 40
3.000000
 50
-164.999893
 51
-102.198799
  0
LINE
  8
0
  6
CONTINUOUS
 10
238.078796
 20
438.945038
 11
230.649994
 21
438.945038
  0
LINE
  8
0
  6
CONTINUOUS
 10
242.835159
 20
435.239136
 11
248.156998
 21
415.377563
  0
ARC
  8
0
  6
CONTINUOUS
 10
253.059921
 20
332.945038
 40
5.000000
 50
90.000000
 51
165.000031
  0
ARC
  8
0
  6
CONTINUOUS
 10
252.913376
 20
416.945038
 40
5.000000
 50
194.999847
 51
270.000000
  0
LINE
  8
0
  6
CONTINUOUS
 10
330.149994
 20
474.945038
 11
299.149994
 21
474.945038
  0
LINE
  8
0
  6
CONTINUOUS
 10
299.149994
 20
429.945038
 11
299.149994
 21
474.945038
  0
LINE
  8
0
  6
CONTINUOUS
 10
327.149994
 20
429.945038
 11
327.149994
 21
434.945038
  0
LINE
  8
0
  6
CONTINUOUS
 10
298.149994
 20
429.945038
 11
328.149994
 21
429.945038
  0
LINE
  8
0
  6
CONTINUOUS
 10
328.149994
 20
427.945038
 11
328.149994
 21
429.945038
  0
LINE
  8
0
  6
CONTINUOUS
 10
298.149994
 20
427.945038
 11
298.149994
 21
429.945038
  0
LINE
  8
0
  6
CONTINUOUS
 10
330.149994
 20
437.945038
 11
362.135132
 21
437.945038
  0
LINE
  8
0
  6
CONTINUOUS
 10
326.566406
 20
434.945038
 11
330.149994
 21
434.945038
  0
LINE
  8
0
  6
CONTINUOUS
 10
326.566406
 20
434.945038
 11
326.566406
 21
474.945038
  0
LINE
  8
0
  6
CONTINUOUS
 10
330.149994
 20
474.945038
 11
330.149994
 21
434.945038
  0
LINE
  8
0
  6
CONTINUOUS
 10
330.149994
 20
274.945038
 11
299.149994
 21
274.945038
  0
LINE
  8
0
  6
CONTINUOUS
 10
299.149994
 20
319.945038
 11
299.149994
 21
274.945038
  0
LINE
  8
0
  6
CONTINUOUS
 10
327.149994
 20
319.945038
 11
327.149994
 21
314.945038
  0
LINE
  8
0
  6
CONTINUOUS
 10
298.149994
 20
319.945038
 11
328.149994
 21
319.945038
  0
LINE
  8
0
  6
CONTINUOUS
 10
328.149994
 20
321.945038
 11
328.149994
 21
319.945038
  0
LINE
  8
0
  6
CONTINUOUS
 10
298.149994
 20
321.945038
 11
298.149994
 21
319.945038
  0
LINE
  8
0
  6
CONTINUOUS
 10
326.566406
 20
314.945038
 11
330.149994
 21
314.945038
  0
LINE
  8
0
  6
CONTINUOUS
 10
326.566406
 20
314.945038
 11
326.566406
 21
274.945038
  0
LINE
  8
0
  6
CONTINUOUS
 10
330.149994
 20
274.945038
 11
330.149994
 21
314.945038
  0
LINE
  8
0
  6
CONTINUOUS
 10
330.149994
 20
311.945038
 11
362.135132
 21
311.945038
  0
LINE
  8
0
  6
CONTINUOUS
 10
230.649994
 20
310.945038
 11
238.152039
 21
310.945038
  0
ARC
  8
0
  6
CONTINUOUS
 10
238.152039
 20
315.945038
 40
5.000000
 50
270.000000
 51
345.000031
  0
ARC
  8
0
  6
CONTINUOUS
 10
238.005539
 20
433.945038
 40
5.000000
 50
14.999846
 51
90.000000
  0
LINE
  8
0
  6
CONTINUOUS
 10
250.649994
 20
374.945038
 11
251.244385
 21
408.997406
  0
LINE
  8
0
  6
CONTINUOUS
 10
250.649994
 20
374.945038
 11
251.244385
 21
340.892700
  0
ARC
  8
0
  6
CONTINUOUS
 10
254.243927
 20
408.945038
 40
3.000000
 50
90.000000
 51
179.000000
  0
ARC
  8
0
  6
CONTINUOUS
 10
254.243927
 20
340.945038
 40
3.000000
 50
181.000000
 51
270.000000
  0
LINE
  8
0
  6
CONTINUOUS
 10
249.095642
 20
157.220184
 11
230.649994
 21
157.220184
  0
LINE
  8
0
  6
CONTINUOUS
 10
230.649994
 20
29.219980
 11
245.649994
 21
29.219980
  0
ARC
  8
0
  6
CONTINUOUS
 10
245.650024
 20
24.219961
 40
5.000000
 50
0.000000
 51
90.000000
  0
LINE
  8
0
  6
CONTINUOUS
 10
511.299347
 20
24.844053
 11
530.810120
 21
28.596115
  0
ARC
  8
0
  6
CONTINUOUS
 10
571.054749
 20
93.220078
 40
64.000099
 50
-54.681290
 51
20.105476
  0
ARC
  8
0
  6
CONTINUOUS
 10
571.054749
 20
93.220078
 40
64.000099
 50
159.894516
 51
234.681290
  0
ARC
  8
0
  6
CONTINUOUS
 10
512.054749
 20
20.220078
 40
4.000000
 50
90.000000
 51
180.000000
  0
ARC
  8
0
  6
CONTINUOUS
 10
512.054749
 20
20.916016
 40
4.000000
 50
100.885529
 51
180.000000
  0
ARC
  8
0
  6
CONTINUOUS
 10
530.054749
 20
32.524139
 40
4.000000
 50
-79.114502
 51
0.000000
  0
ARC
  8
0
  6
CONTINUOUS
 10
530.054749
 20
28.220078
 40
4.000000
 50
-90.000000
 51
0.000000
  0
LINE
  8
0
  6
CONTINUOUS
 10
630.810120
 20
24.844053
 11
611.299377
 21
28.596115
  0
ARC
  8
0
  6
CONTINUOUS
 10
630.054749
 20
20.220078
 40
4.000000
 50
0.000000
 51
90.000000
  0
ARC
  8
0
  6
CONTINUOUS
 10
630.054749
 20
20.916016
 40
4.000000
 50
0.000000
 51
79.114471
  0
ARC
  8
0
  6
CONTINUOUS
 10
612.054749
 20
32.524139
 40
4.000000
 50
180.000000
 51
259.114502
  0
ARC
  8
0
  6
CONTINUOUS
 10
612.054749
 20
28.220078
 40
4.000000
 50
180.000000
 51
270.000000
  0
LINE
  8
0
  6
CONTINUOUS
 10
294.591888
 20
29.220078
 11
331.708130
 21
29.220078
  0
LINE
  8
0
  6
CONTINUOUS
 10
292.249268
 20
28.094152
 11
290.050781
 21
25.346004
  0
ARC
  8
0
  6
CONTINUOUS
 10
287.708160
 20
27.220078
 40
3.000000
 50
270.000000
 51
321.340454
  0
ARC
  8
0
  6
CONTINUOUS
 10
294.591888
 20
26.220078
 40
3.000000
 50
90.000000
 51
141.340454
  0
LINE
  8
0
  6
CONTINUOUS
 10
334.050720
 20
28.094152
 11
336.249237
 21
25.346004
  0
ARC
  8
0
  6
CONTINUOUS
 10
338.591858
 20
27.220078
 40
3.000000
 50
-141.340454
 51
-90.000000
  0
ARC
  8
0
  6
CONTINUOUS
 10
331.708130
 20
26.220078
 40
3.000000
 50
38.659546
 51
90.000000
  0
ARC
  8
0
  6
CONTINUOUS
 10
249.095642
 20
162.220184
 40
5.000000
 50
270.000000
 51
304.539978
  0
LINE
  8
0
  6
CONTINUOUS
 10
230.649994
 20
438.945038
 11
230.649994
 21
310.945038
  0
LINE
  8
0
  6
CONTINUOUS
 10
249.149994
 20
144.820084
 11
250.649994
 21
144.820084
  0
LINE
  8
0
  6
CONTINUOUS
 10
249.149994
 20
41.620098
 11
250.649994
 21
41.620098
  0
ARC
  8
0
  6
CONTINUOUS
 10
433.103210
 20
93.220078
 40
191.053177
 50
164.330902
 51
195.669098
  0
ARC
  8
0
  6
CONTINUOUS
 10
433.103210
 20
93.220078
 40
190.053177
 50
178.548599
 51
181.478500
  0
LINE
  8
0
  6
CONTINUOUS
 10
245.149994
 20
98.220078
 11
244.145203
 21
98.220078
  0
LINE
  8
0
  6
CONTINUOUS
 10
247.649994
 20
95.720078
 11
247.649994
 21
90.720078
  0
ARC
  8
0
  6
CONTINUOUS
 10
244.145203
 20
99.218475
 40
1.000000
 50
178.182098
 51
270.000000
  0
ARC
  8
0
  6
CONTINUOUS
 10
245.149994
 20
95.720078
 40
2.500000
 50
0.000000
 51
90.000000
  0
LINE
  8
0
  6
CONTINUOUS
 10
245.149994
 20
88.220078
 11
244.145203
 21
88.220078
  0
ARC
  8
0
  6
CONTINUOUS
 10
244.145203
 20
87.221680
 40
1.000000
 50
-270.000000
 51
-178.182098
  0
ARC
  8
0
  6
CONTINUOUS
 10
245.149994
 20
90.720078
 40
2.500000
 50
-90.000000
 51
0.000000
  0
LINE
  8
0
  6
CONTINUOUS
 10
176.149994
 20
59.714077
 11
220.149994
 21
59.714077
  0
LINE
  8
0
  6
CONTINUOUS
 10
176.149994
 20
44.701077
 11
230.649994
 21
44.701080
  0
LINE
  8
0
  6
CONTINUOUS
 10
222.717972
 20
52.653076
 11
230.649994
 21
52.653076
  0
LINE
  8
0
  6
CONTINUOUS
 10
222.149994
 20
53.867813
 11
222.149994
 21
155.220200
  0
ARC
  8
0
  6
CONTINUOUS
 10
219.650040
 20
31.199499
 40
2.500000
 50
0.260773
 51
88.000000
  0
ARC
  8
0
  6
CONTINUOUS
 10
219.649994
 20
134.755615
 40
2.500000
 50
-45.000000
 51
0.000000
  0
ARC
  8
0
  6
CONTINUOUS
 10
213.935486
 20
129.041107
 40
2.500000
 50
272.000000
 51
315.000000
  0
LINE
  8
0
  6
CONTINUOUS
 10
222.149994
 20
312.945038
 11
222.149994
 21
436.945038
  0
LINE
  8
0
  6
CONTINUOUS
 10
176.149994
 20
419.945038
 11
219.713623
 21
421.466339
  0
LINE
  8
0
  6
CONTINUOUS
 10
176.149994
 20
329.945038
 11
219.713623
 21
328.423767
  0
LINE
  8
0
  6
CONTINUOUS
 10
176.149994
 20
423.957062
 11
176.149994
 21
325.933044
  0
LINE
  8
0
  6
CONTINUOUS
 10
224.149994
 20
438.945038
 11
230.649994
 21
438.945038
  0
LINE
  8
0
  6
CONTINUOUS
 10
224.149994
 20
310.945038
 11
230.649994
 21
310.945038
  0
LINE
  8
0
  6
CONTINUOUS
 10
215.007004
 20
398.945038
 11
222.121979
 21
398.945038
  0
LINE
  8
0
  6
CONTINUOUS
 10
215.612152
 20
350.945038
 11
222.121979
 21
350.945038
  0
LINE
  8
0
  6
CONTINUOUS
 10
215.007004
 20
396.740540
 11
215.007004
 21
353.027954
  0
LINE
  8
0
  6
CONTINUOUS
 10
167.149994
 20
417.945038
 11
167.149994
 21
403.945038
  0
LINE
  8
0
  6
CONTINUOUS
 10
57.150002
 20
419.945038
 11
176.149994
 21
419.945038
  0
LINE
  8
0
  6
CONTINUOUS
 10
57.150002
 20
329.945038
 11
176.149994
 21
329.945038
  0
LINE
  8
0
  6
CONTINUOUS
 10
57.150002
 20
403.945038
 11
167.149994
 21
403.945038
  0
LINE
  8
0
  6
CONTINUOUS
 10
57.150002
 20
345.945038
 11
167.149994
 21
345.945038
  0
ARC
  8
0
  6
CONTINUOUS
 10
169.149994
 20
417.945068
 40
2.000000
 50
90.000000
 51
180.000000
  0
ARC
  8
0
  6
CONTINUOUS
 10
169.149994
 20
331.945038
 40
2.000000
 50
180.000000
 51
270.000000
  0
LINE
  8
0
  6
CONTINUOUS
 10
176.149994
 20
419.945038
 11
176.149994
 21
329.945038
  0
ARC
  8
0
  6
CONTINUOUS
 10
224.149994
 20
436.945038
 40
2.000000
 50
90.000000
 51
180.000000
  0
ARC
  8
0
  6
CONTINUOUS
 10
224.149994
 20
312.945038
 40
2.000000
 50
180.000000
 51
270.000000
  0
ARC
  8
0
  6
CONTINUOUS
 10
219.626373
 20
423.964813
 40
2.500000
 50
272.000000
 51
359.895721
  0
ARC
  8
0
  6
CONTINUOUS
 10
219.626373
 20
325.925293
 40
2.500000
 50
0.104292
 51
88.000000
  0
LINE
  8
0
  6
CONTINUOUS
 10
222.149994
 20
421.551392
 11
222.121979
 21
421.550415
  0
LINE
  8
0
  6
CONTINUOUS
 10
176.649689
 20
424.474487
 11
222.149994
 21
426.063416
  0
LINE
  8
0
  6
CONTINUOUS
 10
176.149994
 20
423.957062
 11
176.649689
 21
424.474487
  0
LINE
  8
0
  6
CONTINUOUS
 10
176.649689
 20
325.415588
 11
222.149994
 21
323.826691
  0
LINE
  8
0
  6
CONTINUOUS
 10
176.149994
 20
325.933044
 11
176.649689
 21
325.415588
  0
LINE
  8
0
  6
CONTINUOUS
 10
47.650002
 20
419.945038
 11
57.150002
 21
419.945038
  0
LINE
  8
0
  6
CONTINUOUS
 10
57.150002
 20
403.945038
 11
47.650002
 21
403.945038
  0
LINE
  8
0
  6
CONTINUOUS
 10
47.650002
 20
329.945038
 11
57.150002
 21
329.945038
  0
LINE
  8
0
  6
CONTINUOUS
 10
57.150002
 20
329.945038
 11
57.150002
 21
368.079010
  0
LINE
  8
0
  6
CONTINUOUS
 10
57.150002
 20
345.945038
 11
47.650002
 21
345.945038
  0
LINE
  8
0
  6
CONTINUOUS
 10
50.650002
 20
368.945038
 11
50.650002
 21
380.945038
  0
LINE
  8
0
  6
CONTINUOUS
 10
57.650002
 20
368.945038
 11
57.650002
 21
380.945038
  0
LINE
  8
0
  6
CONTINUOUS
 10
51.650002
 20
381.945038
 11
56.650002
 21
381.945038
  0
LINE
  8
0
  6
CONTINUOUS
 10
56.650002
 20
367.945038
 11
51.650002
 21
367.945038
  0
ARC
  8
0
  6
CONTINUOUS
 10
56.650002
 20
380.945038
 40
1.000000
 50
0.000000
 51
90.000000
  0
ARC
  8
0
  6
CONTINUOUS
 10
51.650002
 20
380.945038
 40
1.000000
 50
90.000000
 51
180.000000
  0
ARC
  8
0
  6
CONTINUOUS
 10
51.650002
 20
368.945038
 40
1.000000
 50
180.000000
 51
270.000000
  0
ARC
  8
0
  6
CONTINUOUS
 10
56.650002
 20
368.945038
 40
1.000000
 50
-90.000000
 51
0.000000
  0
LINE
  8
0
  6
CONTINUOUS
 10
55.150002
 20
371.445038
 11
55.150002
 21
378.445038
  0
LINE
  8
0
  6
CONTINUOUS
 10
53.150002
 20
371.445038
 11
53.150002
 21
378.445038
  0
ARC
  8
0
  6
CONTINUOUS
 10
54.150002
 20
378.445038
 40
1.000000
 50
90.000000
 51
180.000000
  0
ARC
  8
0
  6
CONTINUOUS
 10
54.150002
 20
378.445038
 40
1.000000
 50
0.000000
 51
90.000000
  0
ARC
  8
0
  6
CONTINUOUS
 10
54.150002
 20
371.445038
 40
1.000000
 50
180.000000
 51
270.000000
  0
ARC
  8
0
  6
CONTINUOUS
 10
54.150002
 20
371.445038
 40
1.000000
 50
-90.000000
 51
0.000000
  0
LINE
  8
0
  6
CONTINUOUS
 10
57.150002
 20
381.811066
 11
57.150002
 21
419.945038
  0
LINE
  8
0
  6
CONTINUOUS
 10
47.650002
 20
421.945038
 11
47.650002
 21
327.945038
  0
LINE
  8
0
  6
CONTINUOUS
 10
47.650002
 20
403.945038
 11
3.674970
 21
403.945038
  0
LINE
  8
0
  6
CONTINUOUS
 10
47.650002
 20
345.945038
 11
3.674970
 21
345.945038
  0
LINE
  8
0
  6
CONTINUOUS
 10
5.149980
 20
421.945038
 11
47.650002
 21
421.945038
  0
LINE
  8
0
  6
CONTINUOUS
 10
5.149980
 20
327.945038
 11
47.650002
 21
327.945038
  0
ARC
  8
0
  6
CONTINUOUS
 10
5.150010
 20
416.945038
 40
5.000000
 50
90.000000
 51
180.000000
  0
ARC
  8
0
  6
CONTINUOUS
 10
5.149980
 20
332.945038
 40
5.000000
 50
180.000000
 51
270.000000
  0
LINE
  8
0
  6
CONTINUOUS
 10
0.150010
 20
416.945038
 11
0.149980
 21
332.945038
  0
LINE
  8
0
  6
CONTINUOUS
 10
47.650002
 20
125.220078
 11
57.150002
 21
125.220078
  0
LINE
  8
0
  6
CONTINUOUS
 10
57.150002
 20
114.629379
 11
47.650002
 21
114.629379
  0
LINE
  8
0
  6
CONTINUOUS
 10
47.650002
 20
35.220078
 11
57.150002
 21
35.220078
  0
LINE
  8
0
  6
CONTINUOUS
 10
57.150002
 20
45.810787
 11
47.650002
 21
45.810787
  0
LINE
  8
0
  6
CONTINUOUS
 10
47.650002
 20
127.220078
 11
47.650002
 21
33.220078
  0
LINE
  8
0
  6
CONTINUOUS
 10
47.650002
 20
109.220078
 11
3.674970
 21
109.220078
  0
LINE
  8
0
  6
CONTINUOUS
 10
47.650002
 20
51.220078
 11
3.674970
 21
51.220078
  0
LINE
  8
0
  6
CONTINUOUS
 10
57.650002
 20
126.720078
 11
57.650002
 21
125.220078
  0
LINE
  8
0
  6
CONTINUOUS
 10
50.650002
 20
126.720078
 11
50.650002
 21
125.220078
  0
LINE
  8
0
  6
CONTINUOUS
 10
50.650002
 20
126.720078
 11
57.650002
 21
126.720078
  0
LINE
  8
0
  6
CONTINUOUS
 10
55.049992
 20
139.720078
 11
55.049992
 21
126.720078
  0
LINE
  8
0
  6
CONTINUOUS
 10
53.249989
 20
140.345078
 11
53.249989
 21
126.720078
  0
LINE
  8
0
  6
CONTINUOUS
 10
51.449989
 20
138.282578
 11
51.449989
 21
126.720078
  0
LINE
  8
0
  6
CONTINUOUS
 10
56.849998
 20
139.095078
 11
56.849998
 21
126.720078
  0
LINE
  8
0
  6
CONTINUOUS
 10
53.249989
 20
140.345078
 11
55.049992
 21
139.720078
  0
LINE
  8
0
  6
CONTINUOUS
 10
51.449989
 20
138.282578
 11
53.249989
 21
138.907578
  0
LINE
  8
0
  6
CONTINUOUS
 10
56.849998
 20
139.095078
 11
55.050999
 21
138.647385
  0
LINE
  8
0
  6
CONTINUOUS
 10
5.149980
 20
127.220078
 11
47.650002
 21
127.220078
  0
LINE
  8
0
  6
CONTINUOUS
 10
5.149980
 20
33.220078
 11
47.650002
 21
33.220078
  0
ARC
  8
0
  6
CONTINUOUS
 10
5.150010
 20
122.220078
 40
5.000000
 50
90.000000
 51
180.000000
  0
ARC
  8
0
  6
CONTINUOUS
 10
5.149980
 20
38.220078
 40
5.000000
 50
180.000000
 51
270.000000
  0
LINE
  8
0
  6
CONTINUOUS
 10
0.150010
 20
122.220078
 11
0.149980
 21
38.220070
  0
LINE
  8
0
  6
CONTINUOUS
 10
57.150002
 20
35.220078
 11
57.150002
 21
125.220078
  0
LINE
  8
0
  6
CONTINUOUS
 10
167.149994
 20
345.945038
 11
167.149994
 21
331.945038
  0
TEXT
  8
0
 10
-20.000000
 20
-8.000000
 40
4.000000
 41
1.000000
  1
HLM-28T-300~450-S90W
 50
0.000000
  0
ENDSEC
  0
EOF
