  0
SECTION
  2
HEADER
  9
$CLAYER
  8
1
  9
$LTSCALE
 40
3.0
  0
ENDSEC
  0
SECTION
  2
TABLES
  0
TABLE
  2
LTYPE
 70
     4
  0
LTYPE
  2
CONTINUOUS
  3
solid line
 70
    64
 72
    65
 73
     0
 40
0.0
  0
LTYPE
  2
DASHED
  3
__ __ __ __ __ __ __ __ __ __ __ __ __ __ __
 70
    64
 72
    65
 73
     2
 40
0.75
 49
0.5
 49
-0.25
  0
LTYPE
  2
CENTER
  3
____ _ ____ _ ____ _ ____ _ ____ _ ____ _ ____
 70
    64
 72
    65
 73
     4
 40
2.0
 49
1.25
 49
-0.25
 49
0.25
 49
-0.25
  0
LTYPE
  2
PHANTOM
  3
_____ _ _ _____ _ _ _____ _ _ _____ _ _ ____
 70
    64
 72
    65
 73
     6
 40
2.5
 49
1.25
 49
-0.25
 49
0.25
 49
-0.25
 49
0.25
 49
-0.25
  0
ENDTAB
  0
TABLE
  2
LAYER
 70
     1
  0
LAYER
  2
0
 70
    64
 62
     7
  6
CONTINUOUS
  0
ENDTAB
  0
TABLE
  2
STYLE
 70
     1
  0
STYLE
  2
STANDARD
 70
     0
 40
0.000000
 41
1.000000
 50
0.000000
 71
     0
 42
3.000000
  3
txt
  4
BIGFONT
  0
ENDTAB
  0
ENDSEC
  0
SECTION
  2
BLOCKS
  0
ENDSEC
  0
SECTION
  2
ENTITIES
  0
LINE
  8
0
  6
CONTINUOUS
 10
167.149994
 20
107.732574
 11
167.149994
 21
21.732557
  0
LINE
  8
0
  6
CONTINUOUS
 10
57.150002
 20
109.732574
 11
176.149994
 21
109.732574
  0
LINE
  8
0
  6
CONTINUOUS
 10
57.150002
 20
19.732578
 11
176.149994
 21
19.732578
  0
LINE
  8
0
  6
CONTINUOUS
 10
57.150002
 20
99.141876
 11
166.112320
 21
99.141876
  0
LINE
  8
0
  6
CONTINUOUS
 10
57.150002
 20
30.323278
 11
166.112320
 21
30.323278
  0
ARC
  8
0
  6
CONTINUOUS
 10
169.149994
 20
107.732597
 40
2.000000
 50
90.000000
 51
180.000000
  0
ARC
  8
0
  6
CONTINUOUS
 10
169.149994
 20
21.732578
 40
2.000000
 50
180.000000
 51
270.000000
  0
LINE
  8
0
  6
CONTINUOUS
 10
375.649994
 20
139.104202
 11
375.649994
 21
-6.267422
  0
LINE
  8
0
  6
CONTINUOUS
 10
250.649994
 20
-6.267422
 11
375.649994
 21
-6.267422
  0
LINE
  8
0
  6
CENTER
 10
259.694794
 20
113.732574
 11
370.861237
 21
113.732574
  0
LINE
  8
0
  6
CENTER
 10
313.149994
 20
185.232544
 11
313.149994
 21
-14.767422
  0
LINE
  8
0
  6
CONTINUOUS
 10
290.704407
 20
168.232544
 11
335.595612
 21
168.232544
  0
LINE
  8
0
  6
CONTINUOUS
 10
338.430389
 20
167.351242
 11
373.484802
 21
143.222824
  0
LINE
  8
0
  6
CONTINUOUS
 10
253.649994
 20
8.732578
 11
372.649994
 21
8.732578
  0
LINE
  8
0
  6
CONTINUOUS
 10
365.649994
 20
7.195078
 11
365.649994
 21
-6.267422
  0
LINE
  8
0
  6
CONTINUOUS
 10
261.649994
 20
7.195078
 11
261.649994
 21
-6.267422
  0
LINE
  8
0
  6
CENTER
 10
353.149994
 20
15.982578
 11
353.149994
 21
-13.017422
  0
LINE
  8
0
  6
CENTER
 10
273.149994
 20
15.982578
 11
273.149994
 21
-11.767422
  0
LINE
  8
0
  6
DASHED
 10
358.649994
 20
8.732578
 11
358.649994
 21
-6.267422
  0
LINE
  8
0
  6
DASHED
 10
347.649994
 20
8.732578
 11
347.649994
 21
-6.267422
  0
LINE
  8
0
  6
DASHED
 10
278.649994
 20
8.732578
 11
278.649994
 21
-6.267422
  0
LINE
  8
0
  6
DASHED
 10
267.649994
 20
8.732578
 11
267.649994
 21
-6.267422
  0
ARC
  8
0
  6
CONTINUOUS
 10
293.149994
 20
63.732578
 40
26.500000
 50
170.529099
 51
270.000000
  0
ARC
  8
0
  6
CONTINUOUS
 10
333.149994
 20
63.732578
 40
26.500000
 50
-90.000000
 51
9.470950
  0
LINE
  8
0
  6
CONTINUOUS
 10
267.011200
 20
68.093056
 11
275.667999
 21
119.985420
  0
LINE
  8
0
  6
CONTINUOUS
 10
350.631989
 20
119.985420
 11
359.288788
 21
68.093079
  0
LINE
  8
0
  6
CONTINUOUS
 10
293.149994
 20
37.232578
 11
333.149994
 21
37.232578
  0
ARC
  8
0
  6
CONTINUOUS
 10
370.649994
 20
139.104141
 40
5.000000
 50
0.000000
 51
55.460110
  0
ARC
  8
0
  6
CONTINUOUS
 10
335.595612
 20
163.232544
 40
5.000000
 50
55.460079
 51
90.000000
  0
ARC
  8
0
  6
CONTINUOUS
 10
290.738403
 20
163.232544
 40
5.000000
 50
90.000000
 51
91.038872
  0
LINE
  8
0
  6
CONTINUOUS
 10
293.149994
 20
13.363352
 11
293.149994
 21
8.732578
  0
LINE
  8
0
  6
CONTINUOUS
 10
333.149994
 20
13.363352
 11
333.149994
 21
8.732578
  0
LINE
  8
0
  6
CONTINUOUS
 10
250.649994
 20
-6.267422
 11
250.649994
 21
139.104156
  0
ARC
  8
0
  6
CONTINUOUS
 10
293.149994
 20
63.732578
 40
24.000000
 50
169.576294
 51
270.000000
  0
ARC
  8
0
  6
CONTINUOUS
 10
333.149994
 20
63.732578
 40
24.000000
 50
-90.000000
 51
9.471373
  0
LINE
  8
0
  6
CONTINUOUS
 10
293.149994
 20
39.732578
 11
333.149994
 21
39.732578
  0
CIRCLE
  8
0
  6
CONTINUOUS
 10
313.149994
 20
113.732574
 40
33.500000
  0
ARC
  8
0
  6
CONTINUOUS
 10
313.149994
 20
113.732574
 40
38.000000
 50
9.470961
 51
170.529099
  0
ARC
  8
0
  6
CONTINUOUS
 10
313.149994
 20
113.732574
 40
38.000000
 50
9.470963
 51
170.529007
  0
ARC
  8
0
  6
CONTINUOUS
 10
313.149994
 20
113.732574
 40
35.500000
 50
-189.470795
 51
9.471022
  0
LINE
  8
0
  6
CONTINUOUS
 10
269.477203
 20
67.681671
 11
278.133789
 21
119.573921
  0
LINE
  8
0
  6
CONTINUOUS
 10
348.165985
 20
119.574036
 11
356.822815
 21
67.681885
  0
LINE
  8
0
  6
CENTER
 10
149.454376
 20
77.732574
 11
274.399994
 21
77.732574
  0
LINE
  8
0
  6
CONTINUOUS
 10
230.649994
 20
77.732574
 11
230.649994
 21
13.732480
  0
LINE
  8
0
  6
CONTINUOUS
 10
230.649994
 20
77.732574
 11
230.649994
 21
141.732681
  0
LINE
  8
0
  6
CONTINUOUS
 10
252.815002
 20
143.222794
 11
287.869598
 21
167.351196
  0
ARC
  8
0
  6
CONTINUOUS
 10
290.704407
 20
163.232544
 40
5.000000
 50
90.000000
 51
124.540298
  0
ARC
  8
0
  6
CONTINUOUS
 10
255.649994
 20
139.104172
 40
5.000000
 50
124.540398
 51
180.000000
  0
ARC
  8
0
  6
CONTINUOUS
 10
253.649994
 20
5.732598
 40
3.000000
 50
90.000000
 51
180.000000
  0
ARC
  8
0
  6
CONTINUOUS
 10
372.649994
 20
5.732578
 40
3.000000
 50
0.000000
 51
90.000000
  0
LINE
  8
0
  6
CONTINUOUS
 10
302.853607
 20
49.732578
 11
298.693207
 21
49.732578
  0
LINE
  8
0
  6
CONTINUOUS
 10
305.149994
 20
56.701317
 11
305.149994
 21
49.732578
  0
LINE
  8
0
  6
CONTINUOUS
 10
309.149994
 20
59.232578
 11
309.149994
 21
61.732578
  0
LINE
  8
0
  6
CONTINUOUS
 10
317.149994
 20
59.232578
 11
317.149994
 21
61.732578
  0
LINE
  8
0
  6
CONTINUOUS
 10
312.368805
 20
60.263828
 11
312.368805
 21
51.045078
  0
LINE
  8
0
  6
CONTINUOUS
 10
313.868805
 20
60.263828
 11
313.868805
 21
51.045078
  0
LINE
  8
0
  6
CONTINUOUS
 10
321.743805
 20
60.263828
 11
321.743805
 21
50.982578
  0
LINE
  8
0
  6
CONTINUOUS
 10
323.118805
 20
55.341957
 11
323.118805
 21
50.982578
  0
LINE
  8
0
  6
CONTINUOUS
 10
303.252014
 20
60.138828
 11
299.397003
 21
60.138828
  0
LINE
  8
0
  6
CONTINUOUS
 10
299.397003
 20
60.138828
 11
298.493805
 21
59.018829
  0
LINE
  8
0
  6
CONTINUOUS
 10
298.602386
 20
61.732578
 11
297.149994
 21
59.872818
  0
LINE
  8
0
  6
CONTINUOUS
 10
298.493805
 20
52.105499
 11
299.411407
 21
51.138817
  0
LINE
  8
0
  6
CONTINUOUS
 10
297.149994
 20
51.289738
 11
298.693207
 21
49.732578
  0
LINE
  8
0
  6
CONTINUOUS
 10
297.149994
 20
59.872818
 11
297.149994
 21
51.289738
  0
LINE
  8
0
  6
CONTINUOUS
 10
298.493805
 20
59.018829
 11
298.493805
 21
52.105499
  0
LINE
  8
0
  6
CONTINUOUS
 10
303.993805
 20
59.421722
 11
303.236786
 21
60.138828
  0
LINE
  8
0
  6
CONTINUOUS
 10
303.981812
 20
61.732578
 11
305.149994
 21
60.436089
  0
LINE
  8
0
  6
CONTINUOUS
 10
303.993805
 20
59.232578
 11
305.149994
 21
59.232578
  0
LINE
  8
0
  6
CONTINUOUS
 10
298.602386
 20
61.732578
 11
303.981812
 21
61.732578
  0
LINE
  8
0
  6
CONTINUOUS
 10
301.899994
 20
56.701317
 11
305.149994
 21
56.701317
  0
LINE
  8
0
  6
CONTINUOUS
 10
303.993805
 20
55.388817
 11
301.899994
 21
55.388817
  0
LINE
  8
0
  6
CONTINUOUS
 10
301.493805
 20
51.138817
 11
299.411407
 21
51.138817
  0
LINE
  8
0
  6
CONTINUOUS
 10
303.993805
 20
54.138817
 11
303.993805
 21
55.138817
  0
ARC
  8
0
  6
CONTINUOUS
 10
301.493805
 20
53.638817
 40
2.500000
 50
-89.999786
 51
0.000109
  0
LINE
  8
0
  6
CONTINUOUS
 10
303.993805
 20
50.689137
 11
303.993805
 21
49.732578
  0
LINE
  8
0
  6
CONTINUOUS
 10
305.149994
 20
60.436089
 11
305.149994
 21
59.232578
  0
LINE
  8
0
  6
CONTINUOUS
 10
303.993805
 20
55.388817
 11
303.993805
 21
53.638817
  0
LINE
  8
0
  6
CONTINUOUS
 10
301.899994
 20
56.701317
 11
301.899994
 21
55.388817
  0
LINE
  8
0
  6
CONTINUOUS
 10
303.993805
 20
49.732578
 11
305.149994
 21
49.732578
  0
LINE
  8
0
  6
CONTINUOUS
 10
303.993805
 20
50.689137
 11
302.853607
 21
49.732578
  0
LINE
  8
0
  6
CONTINUOUS
 10
313.868805
 20
51.045078
 11
314.368805
 21
51.045078
  0
LINE
  8
0
  6
CONTINUOUS
 10
311.774994
 20
51.045078
 11
311.774994
 21
49.732578
  0
LINE
  8
0
  6
CONTINUOUS
 10
314.368805
 20
51.045078
 11
314.368805
 21
49.732578
  0
LINE
  8
0
  6
CONTINUOUS
 10
316.315613
 20
59.232578
 11
317.149994
 21
59.232578
  0
LINE
  8
0
  6
CONTINUOUS
 10
309.149994
 20
59.232578
 11
310.037994
 21
59.232578
  0
LINE
  8
0
  6
CONTINUOUS
 10
309.149994
 20
61.732578
 11
317.149994
 21
61.732578
  0
LINE
  8
0
  6
CONTINUOUS
 10
311.774994
 20
49.732578
 11
314.368805
 21
49.732578
  0
LINE
  8
0
  6
CONTINUOUS
 10
311.774994
 20
51.045078
 11
312.368805
 21
51.045078
  0
ARC
  8
0
  6
CONTINUOUS
 10
325.946808
 20
58.529453
 40
3.203126
 50
-73.981873
 51
90.003510
  0
ARC
  8
0
  6
CONTINUOUS
 10
325.946808
 20
58.529453
 40
1.954124
 50
-82.585274
 51
62.411850
  0
LINE
  8
0
  6
CONTINUOUS
 10
321.149994
 20
61.732578
 11
325.946808
 21
61.732578
  0
LINE
  8
0
  6
CONTINUOUS
 10
326.199005
 20
56.591660
 11
323.118805
 21
56.591660
  0
LINE
  8
0
  6
CONTINUOUS
 10
321.149994
 20
61.732578
 11
321.149994
 21
60.263828
  0
LINE
  8
0
  6
CONTINUOUS
 10
323.118805
 20
60.263828
 11
323.118805
 21
56.591660
  0
LINE
  8
0
  6
CONTINUOUS
 10
326.830811
 20
55.450699
 11
328.813202
 21
50.982578
  0
LINE
  8
0
  6
CONTINUOUS
 10
325.679199
 20
55.341957
 11
327.555389
 21
50.982578
  0
LINE
  8
0
  6
CONTINUOUS
 10
321.149994
 20
50.982578
 11
321.743805
 21
50.982578
  0
LINE
  8
0
  6
CONTINUOUS
 10
323.118805
 20
50.982578
 11
323.665588
 21
50.982578
  0
LINE
  8
0
  6
CONTINUOUS
 10
323.665588
 20
49.732578
 11
321.149994
 21
49.732578
  0
LINE
  8
0
  6
CONTINUOUS
 10
327.306213
 20
50.982578
 11
327.555389
 21
50.982578
  0
LINE
  8
0
  6
CONTINUOUS
 10
328.813202
 20
50.982578
 11
329.149994
 21
50.982578
  0
LINE
  8
0
  6
CONTINUOUS
 10
327.306213
 20
49.732578
 11
329.149994
 21
49.732578
  0
LINE
  8
0
  6
CONTINUOUS
 10
329.149994
 20
50.982578
 11
329.149994
 21
49.732578
  0
LINE
  8
0
  6
CONTINUOUS
 10
327.306213
 20
50.982578
 11
327.306213
 21
49.732578
  0
LINE
  8
0
  6
CONTINUOUS
 10
323.665588
 20
50.982578
 11
323.665588
 21
49.732578
  0
LINE
  8
0
  6
CONTINUOUS
 10
321.149994
 20
50.982578
 11
321.149994
 21
49.732578
  0
LINE
  8
0
  6
CONTINUOUS
 10
310.467804
 20
60.263828
 11
310.037994
 21
59.232578
  0
LINE
  8
0
  6
CONTINUOUS
 10
315.953186
 20
60.263828
 11
316.315613
 21
59.232578
  0
LINE
  8
0
  6
CONTINUOUS
 10
313.868805
 20
60.263828
 11
315.953186
 21
60.263828
  0
LINE
  8
0
  6
CONTINUOUS
 10
312.368805
 20
60.263828
 11
310.467804
 21
60.263828
  0
LINE
  8
0
  6
CONTINUOUS
 10
323.118805
 20
55.341957
 11
325.679199
 21
55.341957
  0
LINE
  8
0
  6
CONTINUOUS
 10
321.149994
 20
60.263828
 11
321.743805
 21
60.263828
  0
LINE
  8
0
  6
CONTINUOUS
 10
323.118805
 20
60.263828
 11
326.851807
 21
60.261398
  0
LINE
  8
0
  6
CONTINUOUS
 10
303.993805
 20
59.421722
 11
303.993805
 21
59.232578
  0
LINE
  8
0
  6
CONTINUOUS
 10
609.859741
 20
24.732578
 11
609.859741
 21
28.711298
  0
LINE
  8
0
  6
CONTINUOUS
 10
519.859741
 20
24.732578
 11
519.859741
 21
28.711239
  0
LINE
  8
0
  6
CONTINUOUS
 10
524.859741
 20
19.732578
 11
527.859741
 21
19.732578
  0
LINE
  8
0
  6
CONTINUOUS
 10
604.859741
 20
19.732578
 11
601.859741
 21
19.732578
  0
ARC
  8
0
  6
CONTINUOUS
 10
524.859741
 20
24.732578
 40
5.000000
 50
180.000000
 51
270.000000
  0
ARC
  8
0
  6
CONTINUOUS
 10
604.859741
 20
24.732578
 40
5.000000
 50
-90.000000
 51
0.000000
  0
ARC
  8
0
  6
CONTINUOUS
 10
605.872131
 20
36.720619
 40
8.000000
 50
306.780975
 51
358.958740
  0
ARC
  8
0
  6
CONTINUOUS
 10
523.847534
 20
36.720360
 40
8.000000
 50
181.041107
 51
233.216995
  0
ARC
  8
0
  6
CONTINUOUS
 10
611.859741
 20
28.711317
 40
2.000000
 50
126.781197
 51
180.000000
  0
ARC
  8
0
  6
CONTINUOUS
 10
517.859741
 20
28.711239
 40
2.000000
 50
0.000000
 51
53.217121
  0
LINE
  8
0
  6
CENTER
 10
564.859741
 20
-23.596262
 11
564.859741
 21
189.651901
  0
LINE
  8
0
  6
CENTER
 10
447.588745
 20
113.732574
 11
681.896729
 21
113.732574
  0
LINE
  8
0
  6
CONTINUOUS
 10
501.859741
 20
-6.267422
 11
537.359741
 21
-6.267422
  0
LINE
  8
0
  6
CONTINUOUS
 10
505.859741
 20
8.732578
 11
523.859741
 21
8.732578
  0
LINE
  8
0
  6
CONTINUOUS
 10
623.859741
 20
8.732578
 11
605.859741
 21
8.732578
  0
LINE
  8
0
  6
CONTINUOUS
 10
529.359741
 20
141.732574
 11
600.109741
 21
141.732574
  0
LINE
  8
0
  6
CONTINUOUS
 10
598.912170
 20
167.638458
 11
564.859741
 21
168.232574
  0
LINE
  8
0
  6
CONTINUOUS
 10
530.807373
 20
167.638062
 11
564.859741
 21
168.232574
  0
LINE
  8
0
  6
CONTINUOUS
 10
601.859741
 20
164.638916
 11
601.859741
 21
-6.267442
  0
LINE
  8
0
  6
CONTINUOUS
 10
527.859741
 20
164.638519
 11
527.859741
 21
-6.267422
  0
LINE
  8
0
  6
CONTINUOUS
 10
511.859741
 20
84.020309
 11
511.859741
 21
143.444824
  0
LINE
  8
0
  6
CONTINUOUS
 10
617.859741
 20
143.444839
 11
617.859741
 21
84.020317
  0
LINE
  8
0
  6
CONTINUOUS
 10
518.859741
 20
43.532997
 11
518.859741
 21
116.232574
  0
LINE
  8
0
  6
CONTINUOUS
 10
610.859741
 20
43.532997
 11
610.859741
 21
116.232574
  0
LINE
  8
0
  6
CONTINUOUS
 10
627.859741
 20
5.428516
 11
627.859741
 21
-6.267422
  0
LINE
  8
0
  6
CONTINUOUS
 10
501.859741
 20
5.428516
 11
501.859741
 21
-6.267422
  0
LINE
  8
0
  6
CENTER
 10
514.859741
 20
16.732578
 11
514.859741
 21
-17.620823
  0
LINE
  8
0
  6
CENTER
 10
614.859741
 20
17.232578
 11
614.859741
 21
-17.620823
  0
LINE
  8
0
  6
DASHED
 10
509.359741
 20
8.732578
 11
509.359741
 21
-6.267422
  0
LINE
  8
0
  6
DASHED
 10
520.359741
 20
8.732578
 11
520.359741
 21
-6.267422
  0
LINE
  8
0
  6
DASHED
 10
609.359741
 20
8.732578
 11
609.359741
 21
-6.267422
  0
LINE
  8
0
  6
DASHED
 10
620.359741
 20
8.732578
 11
620.359741
 21
-6.267422
  0
ARC
  8
0
  6
CONTINUOUS
 10
530.859741
 20
164.638535
 40
3.000000
 50
91.000526
 51
180.000000
  0
ARC
  8
0
  6
CONTINUOUS
 10
598.859741
 20
164.638901
 40
3.000000
 50
0.000000
 51
89.000580
  0
LINE
  8
0
  6
CONTINUOUS
 10
592.359741
 20
-6.267422
 11
627.859741
 21
-6.267422
  0
LINE
  8
0
  6
CONTINUOUS
 10
538.359741
 20
-5.267422
 11
591.359741
 21
-5.267422
  0
LINE
  8
0
  6
CONTINUOUS
 10
515.505920
 20
148.258102
 11
524.213379
 21
150.707062
  0
LINE
  8
0
  6
CONTINUOUS
 10
515.505920
 20
79.207062
 11
516.671936
 21
78.879128
  0
LINE
  8
0
  6
CONTINUOUS
 10
522.521545
 20
38.715420
 11
524.197937
 21
38.249737
  0
LINE
  8
0
  6
CONTINUOUS
 10
607.197937
 20
38.715420
 11
605.521545
 21
38.249737
  0
LINE
  8
0
  6
CONTINUOUS
 10
614.213379
 20
79.207062
 11
613.047546
 21
78.879135
  0
LINE
  8
0
  6
CONTINUOUS
 10
614.213379
 20
148.258102
 11
605.506165
 21
150.707062
  0
ARC
  8
0
  6
CONTINUOUS
 10
516.859741
 20
143.444855
 40
5.000000
 50
105.709000
 51
180.000000
  0
ARC
  8
0
  6
CONTINUOUS
 10
516.859741
 20
84.020348
 40
5.000000
 50
180.000000
 51
254.291702
  0
ARC
  8
0
  6
CONTINUOUS
 10
523.859741
 20
43.533039
 40
5.000000
 50
180.000000
 51
254.476196
  0
ARC
  8
0
  6
CONTINUOUS
 10
605.859741
 20
43.532997
 40
5.000000
 50
-74.475708
 51
0.000000
  0
ARC
  8
0
  6
CONTINUOUS
 10
612.859741
 20
84.020309
 40
5.000000
 50
-74.291199
 51
0.000000
  0
ARC
  8
0
  6
CONTINUOUS
 10
612.859741
 20
143.444824
 40
5.000000
 50
0.000000
 51
74.291527
  0
ARC
  8
0
  6
CONTINUOUS
 10
613.859741
 20
75.991196
 40
3.000000
 50
105.709000
 51
180.000000
  0
ARC
  8
0
  6
CONTINUOUS
 10
515.859741
 20
75.991165
 40
3.000000
 50
0.000000
 51
74.291397
  0
ARC
  8
0
  6
CONTINUOUS
 10
522.859741
 20
155.520325
 40
5.000000
 50
-74.291199
 51
0.000000
  0
ARC
  8
0
  6
CONTINUOUS
 10
606.859741
 20
155.520340
 40
5.000000
 50
180.000000
 51
254.291702
  0
ARC
  8
0
  6
CONTINUOUS
 10
606.859741
 20
33.432178
 40
5.000000
 50
105.524399
 51
180.000000
  0
ARC
  8
0
  6
CONTINUOUS
 10
522.859741
 20
33.432137
 40
5.000000
 50
0.000000
 51
74.475952
  0
LINE
  8
0
  6
CONTINUOUS
 10
592.359741
 20
-6.267422
 11
591.359741
 21
-5.267422
  0
LINE
  8
0
  6
CONTINUOUS
 10
537.359741
 20
-6.267422
 11
538.359741
 21
-5.267422
  0
LINE
  8
0
  6
CENTER
 10
487.960999
 20
77.732574
 11
644.380981
 21
77.732574
  0
LINE
  8
0
  6
CONTINUOUS
 10
323.149994
 20
109.732620
 11
323.149994
 21
117.732620
  0
LINE
  8
0
  6
CONTINUOUS
 10
330.149994
 20
109.732635
 11
330.149994
 21
117.732635
  0
LINE
  8
0
  6
CONTINUOUS
 10
330.149994
 20
109.732635
 11
323.149994
 21
109.732620
  0
LINE
  8
0
  6
CONTINUOUS
 10
330.149994
 20
117.732635
 11
323.149994
 21
117.732620
  0
ARC
  8
0
  6
CONTINUOUS
 10
313.149994
 20
113.732574
 40
14.000000
 50
16.601500
 51
343.398499
  0
LINE
  8
0
  6
CONTINUOUS
 10
464.859741
 20
99.732574
 11
464.859741
 21
127.732574
  0
LINE
  8
0
  6
CONTINUOUS
 10
509.859741
 20
127.732574
 11
464.859741
 21
127.732574
  0
LINE
  8
0
  6
CONTINUOUS
 10
509.859741
 20
99.732574
 11
464.859741
 21
99.732574
  0
LINE
  8
0
  6
CONTINUOUS
 10
509.859741
 20
128.732574
 11
509.859741
 21
98.732574
  0
LINE
  8
0
  6
CONTINUOUS
 10
511.859741
 20
98.732574
 11
509.859741
 21
98.732574
  0
ARC
  8
0
  6
CONTINUOUS
 10
500.859741
 20
113.732574
 40
4.000000
 50
-90.000000
 51
90.000000
  0
LINE
  8
0
  6
CONTINUOUS
 10
500.859741
 20
117.732574
 11
464.859741
 21
117.732574
  0
LINE
  8
0
  6
CONTINUOUS
 10
500.859741
 20
109.732574
 11
464.859741
 21
109.732574
  0
LINE
  8
0
  6
CONTINUOUS
 10
511.859741
 20
128.732574
 11
509.859741
 21
128.732574
  0
LINE
  8
0
  6
CONTINUOUS
 10
664.859741
 20
99.732574
 11
664.859741
 21
127.732574
  0
LINE
  8
0
  6
CONTINUOUS
 10
619.859741
 20
127.732574
 11
664.859741
 21
127.732574
  0
LINE
  8
0
  6
CONTINUOUS
 10
619.859741
 20
99.732574
 11
664.859741
 21
99.732574
  0
LINE
  8
0
  6
CONTINUOUS
 10
619.859741
 20
128.732574
 11
619.859741
 21
98.732574
  0
LINE
  8
0
  6
CONTINUOUS
 10
617.859741
 20
98.732574
 11
619.859741
 21
98.732574
  0
ARC
  8
0
  6
CONTINUOUS
 10
628.859741
 20
113.732574
 40
4.000000
 50
90.000000
 51
270.000000
  0
LINE
  8
0
  6
CONTINUOUS
 10
628.859741
 20
117.732574
 11
664.859741
 21
117.732574
  0
LINE
  8
0
  6
CONTINUOUS
 10
628.859741
 20
109.732574
 11
664.859741
 21
109.732574
  0
LINE
  8
0
  6
CONTINUOUS
 10
617.859741
 20
128.732574
 11
619.859741
 21
128.732574
  0
LINE
  8
0
  6
CONTINUOUS
 10
224.149994
 20
141.732681
 11
230.649994
 21
141.732681
  0
LINE
  8
0
  6
CONTINUOUS
 10
224.149994
 20
13.732480
 11
230.649994
 21
13.732480
  0
LINE
  8
0
  6
CONTINUOUS
 10
176.149994
 20
109.732574
 11
222.149994
 21
111.338936
  0
LINE
  8
0
  6
CONTINUOUS
 10
230.649994
 20
17.829395
 11
176.149994
 21
19.732578
  0
ARC
  8
0
  6
CONTINUOUS
 10
224.150024
 20
139.732697
 40
2.000000
 50
90.000000
 51
180.000000
  0
ARC
  8
0
  6
CONTINUOUS
 10
224.149994
 20
15.732480
 40
2.000000
 50
180.260773
 51
270.000000
  0
LINE
  8
0
  6
CENTER
 10
-13.503750
 20
64.732574
 11
274.399994
 21
64.732574
  0
LINE
  8
0
  6
CONTINUOUS
 10
176.149994
 20
109.732574
 11
176.149994
 21
19.732578
  0
LINE
  8
0
  6
CONTINUOUS
 10
221.417770
 20
117.500343
 11
215.703262
 21
111.785835
  0
LINE
  8
0
  6
CONTINUOUS
 10
252.913376
 20
396.457550
 11
372.056061
 21
396.457550
  0
ARC
  8
0
  6
CONTINUOUS
 10
372.056061
 20
393.457550
 40
3.000000
 50
1.000000
 51
90.000000
  0
LINE
  8
0
  6
CONTINUOUS
 10
358.144257
 20
401.811279
 11
359.034698
 21
398.645325
  0
ARC
  8
0
  6
CONTINUOUS
 10
361.922638
 20
399.457550
 40
3.000000
 50
195.708649
 51
270.000000
  0
ARC
  8
0
  6
CONTINUOUS
 10
244.727600
 20
413.684113
 40
3.000000
 50
1.500200
 51
77.801201
  0
LINE
  8
0
  6
CONTINUOUS
 10
247.726593
 20
413.762665
 11
248.082596
 21
400.167877
  0
ARC
  8
0
  6
CONTINUOUS
 10
245.995407
 20
419.548645
 40
3.000000
 50
-164.999893
 51
-102.198799
  0
LINE
  8
0
  6
CENTER
 10
-20.171249
 20
359.457550
 11
391.053864
 21
359.457550
  0
LINE
  8
0
  6
CONTINUOUS
 10
264.164886
 20
296.457550
 11
299.149994
 21
296.457550
  0
LINE
  8
0
  6
CONTINUOUS
 10
375.649994
 20
359.457550
 11
375.004150
 21
396.457550
  0
LINE
  8
0
  6
CONTINUOUS
 10
366.839905
 20
419.150208
 11
375.004150
 21
396.457550
  0
ARC
  8
0
  6
CONTINUOUS
 10
362.135132
 20
417.457550
 40
5.000000
 50
19.787489
 51
90.000000
  0
LINE
  8
0
  6
CONTINUOUS
 10
375.649994
 20
359.457550
 11
375.004150
 21
322.457550
  0
LINE
  8
0
  6
CONTINUOUS
 10
366.839905
 20
299.764893
 11
375.004150
 21
322.457550
  0
ARC
  8
0
  6
CONTINUOUS
 10
362.135132
 20
301.457550
 40
5.000000
 50
-90.000000
 51
-19.787489
  0
LINE
  8
0
  6
CONTINUOUS
 10
252.913376
 20
396.457550
 11
372.056061
 21
396.457550
  0
LINE
  8
0
  6
CENTER
 10
313.149994
 20
240.220001
 11
313.149994
 21
470.563751
  0
ARC
  8
0
  6
CONTINUOUS
 10
372.056061
 20
393.457550
 40
3.000000
 50
1.000000
 51
90.000000
  0
ARC
  8
0
  6
CONTINUOUS
 10
372.056061
 20
325.457550
 40
3.000000
 50
-90.000000
 51
-1.000000
  0
LINE
  8
0
  6
CONTINUOUS
 10
252.986603
 20
322.457550
 11
372.056061
 21
322.457550
  0
LINE
  8
0
  6
CONTINUOUS
 10
342.862274
 20
412.457550
 11
283.437744
 21
412.457550
  0
LINE
  8
0
  6
CONTINUOUS
 10
347.675507
 20
408.811279
 11
348.618744
 21
405.457550
  0
ARC
  8
0
  6
CONTINUOUS
 10
342.862274
 20
407.457550
 40
5.000000
 50
15.708638
 51
90.000000
  0
LINE
  8
0
  6
CONTINUOUS
 10
348.618744
 20
405.457550
 11
353.331024
 21
405.457550
  0
ARC
  8
0
  6
CONTINUOUS
 10
353.331024
 20
400.457550
 40
5.000000
 50
15.708638
 51
90.000000
  0
LINE
  8
0
  6
CONTINUOUS
 10
278.624481
 20
408.811279
 11
277.681244
 21
405.457550
  0
ARC
  8
0
  6
CONTINUOUS
 10
283.437744
 20
407.457550
 40
5.000000
 50
90.000000
 51
164.291367
  0
LINE
  8
0
  6
CONTINUOUS
 10
277.681244
 20
405.457550
 11
272.968994
 21
405.457550
  0
LINE
  8
0
  6
CONTINUOUS
 10
268.155731
 20
401.811279
 11
267.265320
 21
398.645325
  0
ARC
  8
0
  6
CONTINUOUS
 10
272.968994
 20
400.457550
 40
5.000000
 50
90.000000
 51
164.291367
  0
ARC
  8
0
  6
CONTINUOUS
 10
264.377350
 20
399.457550
 40
3.000000
 50
-90.000000
 51
-15.708638
  0
LINE
  8
0
  6
CONTINUOUS
 10
342.862274
 20
306.457550
 11
283.437744
 21
306.457550
  0
LINE
  8
0
  6
CONTINUOUS
 10
347.675507
 20
310.103821
 11
348.618744
 21
313.457550
  0
ARC
  8
0
  6
CONTINUOUS
 10
342.862274
 20
311.457550
 40
5.000000
 50
-90.000000
 51
-15.708638
  0
LINE
  8
0
  6
CONTINUOUS
 10
348.618744
 20
313.457550
 11
353.331024
 21
313.457550
  0
LINE
  8
0
  6
CONTINUOUS
 10
358.144257
 20
317.103821
 11
359.034698
 21
320.269775
  0
ARC
  8
0
  6
CONTINUOUS
 10
353.331024
 20
318.457550
 40
5.000000
 50
-90.000000
 51
-15.708638
  0
ARC
  8
0
  6
CONTINUOUS
 10
361.922638
 20
319.457550
 40
3.000000
 50
-270.000000
 51
-195.708633
  0
LINE
  8
0
  6
CONTINUOUS
 10
278.624481
 20
310.103821
 11
277.681244
 21
313.457550
  0
ARC
  8
0
  6
CONTINUOUS
 10
283.437744
 20
311.457550
 40
5.000000
 50
-164.291367
 51
-90.000000
  0
LINE
  8
0
  6
CONTINUOUS
 10
277.681244
 20
313.457550
 11
272.968994
 21
313.457550
  0
LINE
  8
0
  6
CONTINUOUS
 10
268.155731
 20
317.103821
 11
267.265320
 21
320.269775
  0
ARC
  8
0
  6
CONTINUOUS
 10
272.968994
 20
318.457550
 40
5.000000
 50
-164.291367
 51
-90.000000
  0
ARC
  8
0
  6
CONTINUOUS
 10
264.377350
 20
319.457550
 40
3.000000
 50
15.708638
 51
90.000000
  0
LINE
  8
0
  6
CONTINUOUS
 10
259.460114
 20
419.150208
 11
251.382263
 21
396.697754
  0
ARC
  8
0
  6
CONTINUOUS
 10
264.164886
 20
417.457550
 40
5.000000
 50
90.000000
 51
160.212509
  0
LINE
  8
0
  6
CONTINUOUS
 10
259.460114
 20
299.764893
 11
251.398102
 21
322.173309
  0
ARC
  8
0
  6
CONTINUOUS
 10
264.164886
 20
301.457550
 40
5.000000
 50
199.787491
 51
270.000000
  0
LINE
  8
0
  6
CONTINUOUS
 10
264.164886
 20
422.457550
 11
299.149994
 21
422.457550
  0
LINE
  8
0
  6
CENTER
 10
353.149994
 20
420.570831
 11
353.149994
 21
401.129425
  0
LINE
  8
0
  6
CENTER
 10
343.239105
 20
409.457550
 11
361.757660
 21
409.457550
  0
ARC
  8
0
  6
CONTINUOUS
 10
353.149994
 20
409.457550
 40
5.500000
 50
-59.465683
 51
187.598495
  0
ARC
  8
0
  6
CONTINUOUS
 10
273.149994
 20
409.457550
 40
5.500000
 50
-7.598608
 51
239.465683
  0
LINE
  8
0
  6
CENTER
 10
273.149994
 20
420.570831
 11
273.149994
 21
401.129425
  0
LINE
  8
0
  6
CENTER
 10
283.060883
 20
409.457550
 11
264.542328
 21
409.457550
  0
ARC
  8
0
  6
CONTINUOUS
 10
273.149994
 20
309.457550
 40
5.500000
 50
-239.465683
 51
7.598608
  0
LINE
  8
0
  6
CENTER
 10
283.060883
 20
309.457550
 11
264.542328
 21
309.457550
  0
LINE
  8
0
  6
CENTER
 10
273.149994
 20
298.344269
 11
273.149994
 21
317.785675
  0
LINE
  8
0
  6
CENTER
 10
353.149994
 20
298.344269
 11
353.149994
 21
317.785675
  0
LINE
  8
0
  6
CENTER
 10
343.239105
 20
309.457550
 11
361.757660
 21
309.457550
  0
ARC
  8
0
  6
CONTINUOUS
 10
353.149994
 20
309.457550
 40
5.500000
 50
-187.598602
 51
59.465683
  0
LINE
  8
0
  6
CONTINUOUS
 10
337.149994
 20
325.457550
 11
337.149994
 21
393.457550
  0
LINE
  8
0
  6
CONTINUOUS
 10
289.149994
 20
325.457550
 11
289.149994
 21
393.457550
  0
LINE
  8
0
  6
CONTINUOUS
 10
248.230301
 20
318.751648
 11
242.981674
 21
299.163452
  0
LINE
  8
0
  6
CONTINUOUS
 10
247.726593
 20
304.605499
 11
248.082596
 21
318.200317
  0
ARC
  8
0
  6
CONTINUOUS
 10
244.727600
 20
304.684113
 40
3.000000
 50
282.198792
 51
358.499786
  0
ARC
  8
0
  6
CONTINUOUS
 10
245.995407
 20
298.819519
 40
3.000000
 50
102.198799
 51
165.000031
  0
ARC
  8
0
  6
CONTINUOUS
 10
244.727600
 20
413.684113
 40
3.000000
 50
1.500200
 51
77.801201
  0
LINE
  8
0
  6
CONTINUOUS
 10
247.726593
 20
413.762665
 11
248.082596
 21
400.167877
  0
ARC
  8
0
  6
CONTINUOUS
 10
245.995407
 20
419.548645
 40
3.000000
 50
-164.999893
 51
-102.198799
  0
LINE
  8
0
  6
CONTINUOUS
 10
238.078796
 20
423.457550
 11
230.649994
 21
423.457550
  0
LINE
  8
0
  6
CONTINUOUS
 10
242.835159
 20
419.751617
 11
248.156998
 21
399.890045
  0
ARC
  8
0
  6
CONTINUOUS
 10
253.059921
 20
317.457550
 40
5.000000
 50
90.000000
 51
165.000031
  0
ARC
  8
0
  6
CONTINUOUS
 10
252.913376
 20
401.457550
 40
5.000000
 50
194.999847
 51
270.000000
  0
LINE
  8
0
  6
CONTINUOUS
 10
330.149994
 20
459.457550
 11
299.149994
 21
459.457550
  0
LINE
  8
0
  6
CONTINUOUS
 10
299.149994
 20
414.457550
 11
299.149994
 21
459.457550
  0
LINE
  8
0
  6
CONTINUOUS
 10
327.149994
 20
414.457550
 11
327.149994
 21
419.457550
  0
LINE
  8
0
  6
CONTINUOUS
 10
298.149994
 20
414.457550
 11
328.149994
 21
414.457550
  0
LINE
  8
0
  6
CONTINUOUS
 10
328.149994
 20
412.457550
 11
328.149994
 21
414.457550
  0
LINE
  8
0
  6
CONTINUOUS
 10
298.149994
 20
412.457550
 11
298.149994
 21
414.457550
  0
LINE
  8
0
  6
CONTINUOUS
 10
330.149994
 20
422.457550
 11
362.135132
 21
422.457550
  0
LINE
  8
0
  6
CONTINUOUS
 10
326.566406
 20
419.457550
 11
330.149994
 21
419.457550
  0
LINE
  8
0
  6
CONTINUOUS
 10
326.566406
 20
419.457550
 11
326.566406
 21
459.457550
  0
LINE
  8
0
  6
CONTINUOUS
 10
330.149994
 20
459.457550
 11
330.149994
 21
419.457550
  0
LINE
  8
0
  6
CONTINUOUS
 10
330.149994
 20
259.457550
 11
299.149994
 21
259.457550
  0
LINE
  8
0
  6
CONTINUOUS
 10
299.149994
 20
304.457550
 11
299.149994
 21
259.457550
  0
LINE
  8
0
  6
CONTINUOUS
 10
327.149994
 20
304.457550
 11
327.149994
 21
299.457550
  0
LINE
  8
0
  6
CONTINUOUS
 10
298.149994
 20
304.457550
 11
328.149994
 21
304.457550
  0
LINE
  8
0
  6
CONTINUOUS
 10
328.149994
 20
306.457550
 11
328.149994
 21
304.457550
  0
LINE
  8
0
  6
CONTINUOUS
 10
298.149994
 20
306.457550
 11
298.149994
 21
304.457550
  0
LINE
  8
0
  6
CONTINUOUS
 10
326.566406
 20
299.457550
 11
330.149994
 21
299.457550
  0
LINE
  8
0
  6
CONTINUOUS
 10
326.566406
 20
299.457550
 11
326.566406
 21
259.457550
  0
LINE
  8
0
  6
CONTINUOUS
 10
330.149994
 20
259.457550
 11
330.149994
 21
299.457550
  0
LINE
  8
0
  6
CONTINUOUS
 10
330.149994
 20
296.457550
 11
362.135132
 21
296.457550
  0
LINE
  8
0
  6
CONTINUOUS
 10
230.649994
 20
295.457550
 11
238.152039
 21
295.457550
  0
ARC
  8
0
  6
CONTINUOUS
 10
238.152039
 20
300.457550
 40
5.000000
 50
270.000000
 51
345.000031
  0
ARC
  8
0
  6
CONTINUOUS
 10
238.005539
 20
418.457550
 40
5.000000
 50
14.999846
 51
90.000000
  0
LINE
  8
0
  6
CONTINUOUS
 10
250.649994
 20
359.457550
 11
251.244385
 21
393.509918
  0
LINE
  8
0
  6
CONTINUOUS
 10
250.649994
 20
359.457550
 11
251.244385
 21
325.405182
  0
ARC
  8
0
  6
CONTINUOUS
 10
254.243927
 20
393.457550
 40
3.000000
 50
90.000000
 51
179.000000
  0
ARC
  8
0
  6
CONTINUOUS
 10
254.243927
 20
325.457550
 40
3.000000
 50
181.000000
 51
270.000000
  0
LINE
  8
0
  6
CONTINUOUS
 10
249.095642
 20
141.732681
 11
230.649994
 21
141.732681
  0
LINE
  8
0
  6
CONTINUOUS
 10
230.649994
 20
13.732480
 11
245.649994
 21
13.732480
  0
ARC
  8
0
  6
CONTINUOUS
 10
245.650024
 20
8.732462
 40
5.000000
 50
0.000000
 51
90.000000
  0
LINE
  8
0
  6
CONTINUOUS
 10
505.104370
 20
9.356553
 11
524.615112
 21
13.108615
  0
ARC
  8
0
  6
CONTINUOUS
 10
564.859741
 20
77.732574
 40
64.000099
 50
-54.681290
 51
20.105476
  0
ARC
  8
0
  6
CONTINUOUS
 10
564.859741
 20
77.732574
 40
64.000099
 50
159.894516
 51
234.681290
  0
ARC
  8
0
  6
CONTINUOUS
 10
505.859741
 20
4.732578
 40
4.000000
 50
90.000000
 51
180.000000
  0
ARC
  8
0
  6
CONTINUOUS
 10
505.859741
 20
5.428516
 40
4.000000
 50
100.885529
 51
180.000000
  0
ARC
  8
0
  6
CONTINUOUS
 10
523.859741
 20
17.036640
 40
4.000000
 50
-79.114502
 51
0.000000
  0
ARC
  8
0
  6
CONTINUOUS
 10
523.859741
 20
12.732578
 40
4.000000
 50
-90.000000
 51
0.000000
  0
LINE
  8
0
  6
CONTINUOUS
 10
624.615112
 20
9.356553
 11
605.104370
 21
13.108615
  0
ARC
  8
0
  6
CONTINUOUS
 10
623.859741
 20
4.732578
 40
4.000000
 50
0.000000
 51
90.000000
  0
ARC
  8
0
  6
CONTINUOUS
 10
623.859741
 20
5.428516
 40
4.000000
 50
0.000000
 51
79.114471
  0
ARC
  8
0
  6
CONTINUOUS
 10
605.859741
 20
17.036640
 40
4.000000
 50
180.000000
 51
259.114502
  0
ARC
  8
0
  6
CONTINUOUS
 10
605.859741
 20
12.732578
 40
4.000000
 50
180.000000
 51
270.000000
  0
LINE
  8
0
  6
CONTINUOUS
 10
294.591888
 20
13.732578
 11
331.708130
 21
13.732578
  0
LINE
  8
0
  6
CONTINUOUS
 10
292.249268
 20
12.606652
 11
290.050781
 21
9.858504
  0
ARC
  8
0
  6
CONTINUOUS
 10
287.708160
 20
11.732578
 40
3.000000
 50
270.000000
 51
321.340454
  0
ARC
  8
0
  6
CONTINUOUS
 10
294.591888
 20
10.732578
 40
3.000000
 50
90.000000
 51
141.340454
  0
LINE
  8
0
  6
CONTINUOUS
 10
334.050720
 20
12.606652
 11
336.249237
 21
9.858504
  0
ARC
  8
0
  6
CONTINUOUS
 10
338.591858
 20
11.732578
 40
3.000000
 50
-141.340454
 51
-90.000000
  0
ARC
  8
0
  6
CONTINUOUS
 10
331.708130
 20
10.732578
 40
3.000000
 50
38.659546
 51
90.000000
  0
ARC
  8
0
  6
CONTINUOUS
 10
249.095642
 20
146.732681
 40
5.000000
 50
270.000000
 51
304.539978
  0
LINE
  8
0
  6
CONTINUOUS
 10
230.649994
 20
423.457550
 11
230.649994
 21
295.457550
  0
LINE
  8
0
  6
CONTINUOUS
 10
249.149994
 20
129.332581
 11
250.649994
 21
129.332581
  0
LINE
  8
0
  6
CONTINUOUS
 10
249.149994
 20
26.132599
 11
250.649994
 21
26.132599
  0
ARC
  8
0
  6
CONTINUOUS
 10
433.103210
 20
77.732574
 40
191.053177
 50
164.330902
 51
195.669098
  0
ARC
  8
0
  6
CONTINUOUS
 10
433.103210
 20
77.732574
 40
190.053177
 50
178.548599
 51
181.478500
  0
LINE
  8
0
  6
CONTINUOUS
 10
245.149994
 20
82.732574
 11
244.145203
 21
82.732574
  0
LINE
  8
0
  6
CONTINUOUS
 10
247.649994
 20
80.232574
 11
247.649994
 21
75.232574
  0
ARC
  8
0
  6
CONTINUOUS
 10
244.145203
 20
83.730980
 40
1.000000
 50
178.182098
 51
270.000000
  0
ARC
  8
0
  6
CONTINUOUS
 10
245.149994
 20
80.232574
 40
2.500000
 50
0.000000
 51
90.000000
  0
LINE
  8
0
  6
CONTINUOUS
 10
245.149994
 20
72.732574
 11
244.145203
 21
72.732574
  0
ARC
  8
0
  6
CONTINUOUS
 10
244.145203
 20
71.734177
 40
1.000000
 50
-270.000000
 51
-178.182098
  0
ARC
  8
0
  6
CONTINUOUS
 10
245.149994
 20
75.232574
 40
2.500000
 50
-90.000000
 51
0.000000
  0
LINE
  8
0
  6
CONTINUOUS
 10
176.149994
 20
44.226578
 11
220.149994
 21
44.226578
  0
LINE
  8
0
  6
CONTINUOUS
 10
176.149994
 20
29.213577
 11
230.649994
 21
29.213579
  0
LINE
  8
0
  6
CONTINUOUS
 10
222.717972
 20
37.165577
 11
230.649994
 21
37.165577
  0
LINE
  8
0
  6
CONTINUOUS
 10
222.149994
 20
38.380314
 11
222.149994
 21
139.732697
  0
ARC
  8
0
  6
CONTINUOUS
 10
219.650040
 20
15.711999
 40
2.500000
 50
0.260773
 51
88.000000
  0
ARC
  8
0
  6
CONTINUOUS
 10
219.649994
 20
119.268112
 40
2.500000
 50
-45.000000
 51
0.000000
  0
ARC
  8
0
  6
CONTINUOUS
 10
213.935486
 20
113.553596
 40
2.500000
 50
272.000000
 51
315.000000
  0
LINE
  8
0
  6
CONTINUOUS
 10
222.149994
 20
297.457550
 11
222.149994
 21
421.457550
  0
LINE
  8
0
  6
CONTINUOUS
 10
176.149994
 20
404.457550
 11
219.713623
 21
405.978821
  0
LINE
  8
0
  6
CONTINUOUS
 10
176.149994
 20
314.457550
 11
219.713623
 21
312.936279
  0
LINE
  8
0
  6
CONTINUOUS
 10
176.149994
 20
408.469543
 11
176.149994
 21
310.445557
  0
LINE
  8
0
  6
CONTINUOUS
 10
224.149994
 20
423.457550
 11
230.649994
 21
423.457550
  0
LINE
  8
0
  6
CONTINUOUS
 10
224.149994
 20
295.457550
 11
230.649994
 21
295.457550
  0
LINE
  8
0
  6
CONTINUOUS
 10
215.007004
 20
383.457550
 11
222.121979
 21
383.457550
  0
LINE
  8
0
  6
CONTINUOUS
 10
215.612152
 20
335.457550
 11
222.121979
 21
335.457550
  0
LINE
  8
0
  6
CONTINUOUS
 10
215.007004
 20
381.253052
 11
215.007004
 21
337.540466
  0
LINE
  8
0
  6
CONTINUOUS
 10
167.149994
 20
402.457550
 11
167.149994
 21
388.457550
  0
LINE
  8
0
  6
CONTINUOUS
 10
57.150002
 20
404.457550
 11
176.149994
 21
404.457550
  0
LINE
  8
0
  6
CONTINUOUS
 10
57.150002
 20
314.457550
 11
176.149994
 21
314.457550
  0
LINE
  8
0
  6
CONTINUOUS
 10
57.150002
 20
388.457550
 11
167.149994
 21
388.457550
  0
LINE
  8
0
  6
CONTINUOUS
 10
57.150002
 20
330.457550
 11
167.149994
 21
330.457550
  0
ARC
  8
0
  6
CONTINUOUS
 10
169.149994
 20
402.457581
 40
2.000000
 50
90.000000
 51
180.000000
  0
ARC
  8
0
  6
CONTINUOUS
 10
169.149994
 20
316.457550
 40
2.000000
 50
180.000000
 51
270.000000
  0
LINE
  8
0
  6
CONTINUOUS
 10
176.149994
 20
404.457550
 11
176.149994
 21
314.457550
  0
ARC
  8
0
  6
CONTINUOUS
 10
224.149994
 20
421.457550
 40
2.000000
 50
90.000000
 51
180.000000
  0
ARC
  8
0
  6
CONTINUOUS
 10
224.149994
 20
297.457550
 40
2.000000
 50
180.000000
 51
270.000000
  0
ARC
  8
0
  6
CONTINUOUS
 10
219.626373
 20
408.477295
 40
2.500000
 50
272.000000
 51
359.895721
  0
ARC
  8
0
  6
CONTINUOUS
 10
219.626373
 20
310.437805
 40
2.500000
 50
0.104292
 51
88.000000
  0
LINE
  8
0
  6
CONTINUOUS
 10
222.149994
 20
406.063904
 11
222.121979
 21
406.062927
  0
LINE
  8
0
  6
CONTINUOUS
 10
176.649689
 20
408.987000
 11
222.149994
 21
410.575897
  0
LINE
  8
0
  6
CONTINUOUS
 10
176.149994
 20
408.469543
 11
176.649689
 21
408.987000
  0
LINE
  8
0
  6
CONTINUOUS
 10
176.649689
 20
309.928101
 11
222.149994
 21
308.339203
  0
LINE
  8
0
  6
CONTINUOUS
 10
176.149994
 20
310.445557
 11
176.649689
 21
309.928101
  0
LINE
  8
0
  6
CONTINUOUS
 10
47.650002
 20
404.457550
 11
57.150002
 21
404.457550
  0
LINE
  8
0
  6
CONTINUOUS
 10
57.150002
 20
388.457550
 11
47.650002
 21
388.457550
  0
LINE
  8
0
  6
CONTINUOUS
 10
47.650002
 20
314.457550
 11
57.150002
 21
314.457550
  0
LINE
  8
0
  6
CONTINUOUS
 10
57.150002
 20
314.457550
 11
57.150002
 21
334.457520
  0
LINE
  8
0
  6
CONTINUOUS
 10
57.150002
 20
330.457550
 11
47.650002
 21
330.457550
  0
LINE
  8
0
  6
CONTINUOUS
 10
57.150002
 20
384.457520
 11
57.150002
 21
404.457550
  0
LINE
  8
0
  6
CONTINUOUS
 10
47.650002
 20
406.457550
 11
47.650002
 21
359.457550
  0
LINE
  8
0
  6
CONTINUOUS
 10
47.650002
 20
388.457550
 11
3.674970
 21
388.457550
  0
LINE
  8
0
  6
CONTINUOUS
 10
47.650002
 20
330.457550
 11
3.674970
 21
330.457550
  0
LINE
  8
0
  6
CONTINUOUS
 10
5.149980
 20
406.457550
 11
47.650002
 21
406.457550
  0
LINE
  8
0
  6
CONTINUOUS
 10
5.149980
 20
312.457550
 11
47.650002
 21
312.457550
  0
ARC
  8
0
  6
CONTINUOUS
 10
5.150010
 20
401.457550
 40
5.000000
 50
90.000000
 51
180.000000
  0
ARC
  8
0
  6
CONTINUOUS
 10
5.149980
 20
317.457550
 40
5.000000
 50
180.000000
 51
270.000000
  0
LINE
  8
0
  6
CONTINUOUS
 10
0.150010
 20
401.457550
 11
0.149980
 21
317.457550
  0
LINE
  8
0
  6
CONTINUOUS
 10
47.650002
 20
109.732574
 11
57.150002
 21
109.732574
  0
LINE
  8
0
  6
CONTINUOUS
 10
57.150002
 20
99.141876
 11
47.650002
 21
99.141876
  0
LINE
  8
0
  6
CONTINUOUS
 10
47.650002
 20
19.732578
 11
57.150002
 21
19.732578
  0
LINE
  8
0
  6
CONTINUOUS
 10
57.150002
 20
30.323288
 11
47.650002
 21
30.323288
  0
LINE
  8
0
  6
CONTINUOUS
 10
47.650002
 20
111.732574
 11
47.650002
 21
17.732578
  0
LINE
  8
0
  6
CONTINUOUS
 10
47.650002
 20
93.732574
 11
3.674970
 21
93.732574
  0
LINE
  8
0
  6
CONTINUOUS
 10
47.650002
 20
35.732578
 11
3.674970
 21
35.732578
  0
LINE
  8
0
  6
CONTINUOUS
 10
5.149980
 20
111.732574
 11
47.650002
 21
111.732574
  0
LINE
  8
0
  6
CONTINUOUS
 10
5.149980
 20
17.732578
 11
47.650002
 21
17.732578
  0
ARC
  8
0
  6
CONTINUOUS
 10
5.150010
 20
106.732574
 40
5.000000
 50
90.000000
 51
180.000000
  0
ARC
  8
0
  6
CONTINUOUS
 10
5.149980
 20
22.732578
 40
5.000000
 50
180.000000
 51
270.000000
  0
LINE
  8
0
  6
CONTINUOUS
 10
0.150010
 20
106.732574
 11
0.149980
 21
22.732569
  0
LINE
  8
0
  6
CONTINUOUS
 10
57.150002
 20
19.732578
 11
57.150002
 21
109.732574
  0
LINE
  8
0
  6
CONTINUOUS
 10
47.650002
 20
359.457550
 11
47.650002
 21
312.457550
  0
LINE
  8
0
  6
CONTINUOUS
 10
48.150002
 20
336.457520
 11
48.150002
 21
382.457520
  0
LINE
  8
0
  6
CONTINUOUS
 10
50.150002
 20
384.457520
 11
48.150002
 21
382.457520
  0
LINE
  8
0
  6
CONTINUOUS
 10
50.150002
 20
384.457520
 11
96.149986
 21
384.457520
  0
LINE
  8
0
  6
CONTINUOUS
 10
90.650002
 20
379.957520
 11
90.650002
 21
384.457520
  0
ARC
  8
0
  6
CONTINUOUS
 10
93.650002
 20
379.957520
 40
3.000000
 50
180.000000
 51
270.000000
  0
LINE
  8
0
  6
CONTINUOUS
 10
93.650002
 20
376.957520
 11
98.149986
 21
376.957520
  0
CIRCLE
  8
0
  6
CONTINUOUS
 10
94.650002
 20
380.957520
 40
2.250000
  0
LINE
  8
0
  6
CONTINUOUS
 10
98.149994
 20
336.457520
 11
98.149986
 21
382.457520
  0
LINE
  8
0
  6
CONTINUOUS
 10
96.149986
 20
384.457520
 11
98.149986
 21
382.457520
  0
LINE
  8
0
  6
CONTINUOUS
 10
96.149994
 20
334.457520
 11
98.149994
 21
336.457520
  0
LINE
  8
0
  6
CONTINUOUS
 10
96.149994
 20
334.457520
 11
50.150002
 21
334.457520
  0
LINE
  8
0
  6
CONTINUOUS
 10
48.150002
 20
336.457520
 11
50.150002
 21
334.457520
  0
LINE
  8
0
  6
CONTINUOUS
 10
52.650002
 20
341.957520
 11
48.150009
 21
341.957520
  0
CIRCLE
  8
0
  6
CONTINUOUS
 10
51.650002
 20
337.957520
 40
2.250000
  0
ARC
  8
0
  6
CONTINUOUS
 10
52.650002
 20
338.957520
 40
3.000000
 50
0.000000
 51
90.000000
  0
LINE
  8
0
  6
CONTINUOUS
 10
55.650002
 20
338.957520
 11
55.650002
 21
334.457520
  0
LINE
  8
0
  6
CENTER
 10
73.150002
 20
326.991760
 11
73.150002
 21
391.123779
  0
LINE
  8
0
  6
CONTINUOUS
 10
49.150005
 20
341.957550
 11
49.150005
 21
376.957550
  0
LINE
  8
0
  6
CONTINUOUS
 10
90.650002
 20
383.457550
 11
55.650021
 21
383.457550
  0
LINE
  8
0
  6
CONTINUOUS
 10
97.149994
 20
376.957550
 11
97.149994
 21
341.957550
  0
LINE
  8
0
  6
CONTINUOUS
 10
55.650002
 20
335.457550
 11
90.649979
 21
335.457550
  0
LINE
  8
0
  6
CONTINUOUS
 10
52.650021
 20
376.957550
 11
48.150021
 21
376.957550
  0
ARC
  8
0
  6
CONTINUOUS
 10
52.650021
 20
379.957550
 40
3.000000
 50
-90.000000
 51
0.000000
  0
LINE
  8
0
  6
CONTINUOUS
 10
55.650021
 20
379.957550
 11
55.650021
 21
384.457550
  0
CIRCLE
  8
0
  6
CONTINUOUS
 10
51.650021
 20
380.957550
 40
2.250000
  0
LINE
  8
0
  6
CONTINUOUS
 10
93.649979
 20
341.957550
 11
98.149979
 21
341.957550
  0
ARC
  8
0
  6
CONTINUOUS
 10
93.649979
 20
338.957550
 40
3.000000
 50
90.000000
 51
180.000000
  0
LINE
  8
0
  6
CONTINUOUS
 10
90.649979
 20
338.957550
 11
90.649979
 21
334.457550
  0
CIRCLE
  8
0
  6
CONTINUOUS
 10
94.649979
 20
337.957550
 40
2.250000
  0
LINE
  8
0
  6
CONTINUOUS
 10
49.650002
 20
111.232574
 11
96.150002
 21
111.232574
  0
LINE
  8
0
  6
CONTINUOUS
 10
98.149979
 20
155.232574
 11
98.150002
 21
113.232574
  0
LINE
  8
0
  6
CONTINUOUS
 10
48.150002
 20
155.232574
 11
48.150002
 21
113.232574
  0
LINE
  8
0
  6
CONTINUOUS
 10
48.150002
 20
123.232574
 11
98.150002
 21
123.232574
  0
LINE
  8
0
  6
CONTINUOUS
 10
96.150002
 20
111.232574
 11
98.150002
 21
113.232574
  0
LINE
  8
0
  6
CONTINUOUS
 10
48.150002
 20
113.232574
 11
50.150002
 21
111.232574
  0
LINE
  8
0
  6
CONTINUOUS
 10
48.150002
 20
113.232574
 11
98.150002
 21
113.232574
  0
LINE
  8
0
  6
CONTINUOUS
 10
48.150002
 20
124.232574
 11
98.149986
 21
124.232574
  0
LINE
  8
0
  6
CONTINUOUS
 10
49.150002
 20
156.232574
 11
97.149979
 21
156.232574
  0
LINE
  8
0
  6
CONTINUOUS
 10
97.149979
 20
156.232574
 11
98.149979
 21
155.232574
  0
LINE
  8
0
  6
CONTINUOUS
 10
49.150002
 20
156.232574
 11
48.150002
 21
155.232574
  0
LINE
  8
0
  6
CONTINUOUS
 10
48.150002
 20
155.232574
 11
98.149979
 21
155.232574
  0
LINE
  8
0
  6
CENTER
 10
73.150002
 20
104.843071
 11
73.150002
 21
161.543076
  0
LINE
  8
0
  6
CENTER
 10
45.775002
 20
139.232574
 11
50.400002
 21
139.232574
  0
LINE
  8
0
  6
CONTINUOUS
 10
49.650002
 20
111.232574
 11
49.650002
 21
109.732574
  0
LINE
  8
0
  6
CONTINUOUS
 10
95.650002
 20
111.232574
 11
95.650002
 21
109.732574
  0
LINE
  8
0
  6
CONTINUOUS
 10
47.275002
 20
149.732574
 11
49.275002
 21
149.732574
  0
LINE
  8
0
  6
CONTINUOUS
 10
47.275002
 20
128.732574
 11
49.275002
 21
128.732574
  0
LINE
  8
0
  6
CONTINUOUS
 10
167.149994
 20
330.457550
 11
167.149994
 21
316.457520
  0
TEXT
  8
0
 10
-20.000000
 20
-23.000000
 40
4.000000
 41
1.000000
  1
HLM-28T-300~450-S90WK
 50
0.000000
  0
ENDSEC
  0
EOF
