  0
SECTION
  2
HEADER
  9
$CLAYER
  8
1
  9
$LTSCALE
 40
3.0
  0
ENDSEC
  0
SECTION
  2
TABLES
  0
TABLE
  2
LTYPE
 70
     4
  0
LTYPE
  2
CONTINUOUS
  3
solid line
 70
    64
 72
    65
 73
     0
 40
0.0
  0
LTYPE
  2
DASHED
  3
__ __ __ __ __ __ __ __ __ __ __ __ __ __ __
 70
    64
 72
    65
 73
     2
 40
0.75
 49
0.5
 49
-0.25
  0
LTYPE
  2
CENTER
  3
____ _ ____ _ ____ _ ____ _ ____ _ ____ _ ____
 70
    64
 72
    65
 73
     4
 40
2.0
 49
1.25
 49
-0.25
 49
0.25
 49
-0.25
  0
LTYPE
  2
PHANTOM
  3
_____ _ _ _____ _ _ _____ _ _ _____ _ _ ____
 70
    64
 72
    65
 73
     6
 40
2.5
 49
1.25
 49
-0.25
 49
0.25
 49
-0.25
 49
0.25
 49
-0.25
  0
ENDTAB
  0
TABLE
  2
LAYER
 70
     1
  0
LAYER
  2
0
 70
    64
 62
     7
  6
CONTINUOUS
  0
ENDTAB
  0
TABLE
  2
STYLE
 70
     1
  0
STYLE
  2
STANDARD
 70
     0
 40
0.000000
 41
1.000000
 50
0.000000
 71
     0
 42
3.000000
  3
txt
  4
BIGFONT
  0
ENDTAB
  0
ENDSEC
  0
SECTION
  2
BLOCKS
  0
ENDSEC
  0
SECTION
  2
ENTITIES
  0
LINE
  8
0
  6
CENTER
 10
370.336121
 20
292.720428
 11
370.336121
 21
513.948730
  0
LINE
  8
0
  6
CONTINUOUS
 10
294.335938
 20
420.782928
 11
295.121399
 21
375.782928
  0
LINE
  8
0
  6
CONTINUOUS
 10
428.786194
 20
345.782928
 11
386.336121
 21
345.782928
  0
LINE
  8
0
  6
CONTINUOUS
 10
304.392548
 20
350.981720
 11
295.121399
 21
375.782928
  0
ARC
  8
0
  6
CONTINUOUS
 10
311.886078
 20
353.782928
 40
8.000000
 50
200.496613
 51
270.000000
  0
LINE
  8
0
  6
CONTINUOUS
 10
294.335938
 20
420.782928
 11
295.121399
 21
465.782928
  0
LINE
  8
0
  6
CONTINUOUS
 10
428.786194
 20
495.782928
 11
370.336121
 21
495.782928
  0
LINE
  8
0
  6
CONTINUOUS
 10
304.392548
 20
490.584137
 11
295.121399
 21
465.782928
  0
ARC
  8
0
  6
CONTINUOUS
 10
311.886078
 20
487.782928
 40
8.000000
 50
90.000000
 51
159.503387
  0
LINE
  8
0
  6
CONTINUOUS
 10
436.279724
 20
350.981720
 11
445.334503
 21
375.204193
  0
ARC
  8
0
  6
CONTINUOUS
 10
428.786194
 20
353.782928
 40
8.000000
 50
270.000000
 51
339.503387
  0
LINE
  8
0
  6
CONTINUOUS
 10
436.279724
 20
490.584137
 11
445.334503
 21
466.361664
  0
ARC
  8
0
  6
CONTINUOUS
 10
428.786194
 20
487.782928
 40
8.000000
 50
20.496618
 51
90.000000
  0
LINE
  8
0
  6
CONTINUOUS
 10
442.999512
 20
375.782928
 11
298.069489
 21
375.782928
  0
LINE
  8
0
  6
CONTINUOUS
 10
298.069489
 20
465.782928
 11
442.999512
 21
465.782928
  0
LINE
  8
0
  6
CONTINUOUS
 10
370.336121
 20
358.782928
 11
335.077332
 21
358.782928
  0
ARC
  8
0
  6
CONTINUOUS
 10
298.069489
 20
378.782928
 40
3.000000
 50
181.000000
 51
270.000000
  0
ARC
  8
0
  6
CONTINUOUS
 10
298.069489
 20
462.782928
 40
3.000000
 50
90.000000
 51
179.000000
  0
LINE
  8
0
  6
CONTINUOUS
 10
341.336121
 20
378.782928
 11
341.336121
 21
462.782928
  0
LINE
  8
0
  6
CONTINUOUS
 10
399.336121
 20
378.782928
 11
399.336121
 21
462.782928
  0
LINE
  8
0
  6
CONTINUOUS
 10
458.336121
 20
356.782928
 11
458.336121
 21
484.782928
  0
LINE
  8
0
  6
CONTINUOUS
 10
455.763794
 20
356.782928
 11
458.336121
 21
356.782928
  0
LINE
  8
0
  6
CONTINUOUS
 10
330.280487
 20
362.372101
 11
329.277313
 21
365.782928
  0
ARC
  8
0
  6
CONTINUOUS
 10
335.077332
 20
363.782928
 40
5.000000
 50
196.389542
 51
270.000000
  0
LINE
  8
0
  6
CONTINUOUS
 10
314.789978
 20
369.390320
 11
313.982269
 21
372.175537
  0
LINE
  8
0
  6
CONTINUOUS
 10
319.592133
 20
365.782928
 11
329.277313
 21
365.782928
  0
LINE
  8
0
  6
CONTINUOUS
 10
370.336121
 20
358.782928
 11
405.594940
 21
358.782928
  0
LINE
  8
0
  6
CONTINUOUS
 10
370.336121
 20
482.782928
 11
335.077332
 21
482.782928
  0
LINE
  8
0
  6
CONTINUOUS
 10
370.336121
 20
482.782928
 11
405.594940
 21
482.782928
  0
LINE
  8
0
  6
CONTINUOUS
 10
351.336121
 20
300.782928
 11
386.336121
 21
300.782928
  0
LINE
  8
0
  6
CONTINUOUS
 10
386.336121
 20
355.782928
 11
386.336121
 21
300.782928
  0
LINE
  8
0
  6
CONTINUOUS
 10
354.336121
 20
355.782928
 11
354.336121
 21
350.782928
  0
LINE
  8
0
  6
CONTINUOUS
 10
387.836121
 20
355.782928
 11
352.836121
 21
355.782928
  0
LINE
  8
0
  6
CONTINUOUS
 10
387.836121
 20
358.782928
 11
387.836121
 21
355.782928
  0
LINE
  8
0
  6
CONTINUOUS
 10
352.836121
 20
358.782928
 11
352.836121
 21
355.782928
  0
LINE
  8
0
  6
CONTINUOUS
 10
351.336121
 20
345.782928
 11
311.886078
 21
345.782928
  0
LINE
  8
0
  6
CONTINUOUS
 10
351.336121
 20
300.782928
 11
351.336121
 21
350.782928
  0
LINE
  8
0
  6
CONTINUOUS
 10
355.137451
 20
350.782928
 11
351.336121
 21
350.782928
  0
LINE
  8
0
  6
CONTINUOUS
 10
355.137451
 20
350.782928
 11
355.137451
 21
300.782928
  0
LINE
  8
0
  6
CONTINUOUS
 10
370.336121
 20
495.782928
 11
311.886078
 21
495.782928
  0
LINE
  8
0
  6
CENTER
 10
332.712463
 20
360.782928
 11
313.774963
 21
360.782928
  0
LINE
  8
0
  6
CENTER
 10
322.836121
 20
369.935272
 11
322.836121
 21
350.435272
  0
ARC
  8
0
  6
CONTINUOUS
 10
322.836121
 20
360.782928
 40
6.500000
 50
-231.240692
 51
50.284863
  0
ARC
  8
0
  6
CONTINUOUS
 10
417.836121
 20
360.782928
 40
6.500000
 50
-230.284866
 51
51.240688
  0
LINE
  8
0
  6
CENTER
 10
417.836121
 20
369.935272
 11
417.836121
 21
350.435272
  0
LINE
  8
0
  6
CENTER
 10
407.959808
 20
360.782928
 11
426.897308
 21
360.782928
  0
LINE
  8
0
  6
CENTER
 10
714.257507
 20
420.782928
 11
282.915100
 21
420.782928
  0
LINE
  8
0
  6
CONTINUOUS
 10
450.934174
 20
360.488831
 11
447.829132
 21
372.077026
  0
ARC
  8
0
  6
CONTINUOUS
 10
442.999512
 20
370.782928
 40
5.000000
 50
15.000000
 51
90.000000
  0
ARC
  8
0
  6
CONTINUOUS
 10
455.763794
 20
361.782928
 40
5.000000
 50
195.000000
 51
270.000000
  0
LINE
  8
0
  6
CONTINUOUS
 10
455.763794
 20
484.782928
 11
458.336121
 21
484.782928
  0
LINE
  8
0
  6
CONTINUOUS
 10
450.934174
 20
481.077026
 11
447.829132
 21
469.488831
  0
ARC
  8
0
  6
CONTINUOUS
 10
455.763794
 20
479.782928
 40
5.000000
 50
90.000000
 51
165.000000
  0
ARC
  8
0
  6
CONTINUOUS
 10
442.999512
 20
470.782928
 40
5.000000
 50
-90.000000
 51
-15.000000
  0
LINE
  8
0
  6
CONTINUOUS
 10
446.336334
 20
420.782928
 11
445.602295
 21
378.730560
  0
LINE
  8
0
  6
CONTINUOUS
 10
446.336334
 20
420.782928
 11
445.602295
 21
462.835297
  0
ARC
  8
0
  6
CONTINUOUS
 10
442.602753
 20
378.782928
 40
3.000000
 50
270.000000
 51
359.000000
  0
ARC
  8
0
  6
CONTINUOUS
 10
442.602753
 20
462.782928
 40
3.000000
 50
1.000000
 51
90.000000
  0
ARC
  8
0
  6
CONTINUOUS
 10
319.592133
 20
370.782928
 40
5.000000
 50
196.172165
 51
270.000000
  0
ARC
  8
0
  6
CONTINUOUS
 10
309.180115
 20
370.782928
 40
5.000000
 50
16.172159
 51
90.000000
  0
LINE
  8
0
  6
CONTINUOUS
 10
312.936127
 20
375.782928
 11
312.932922
 21
375.794006
  0
ARC
  8
0
  6
CONTINUOUS
 10
405.594940
 20
363.782928
 40
5.000000
 50
270.000000
 51
343.610474
  0
LINE
  8
0
  6
CONTINUOUS
 10
410.391785
 20
362.372101
 11
411.394958
 21
365.782928
  0
LINE
  8
0
  6
CONTINUOUS
 10
425.882263
 20
369.390320
 11
426.690002
 21
372.175537
  0
LINE
  8
0
  6
CONTINUOUS
 10
421.080139
 20
365.782928
 11
411.394958
 21
365.782928
  0
ARC
  8
0
  6
CONTINUOUS
 10
421.080139
 20
370.782928
 40
5.000000
 50
270.000000
 51
343.827850
  0
ARC
  8
0
  6
CONTINUOUS
 10
431.492126
 20
370.782928
 40
5.000000
 50
90.000000
 51
163.827835
  0
LINE
  8
0
  6
CONTINUOUS
 10
427.736145
 20
375.782928
 11
427.739349
 21
375.794006
  0
ARC
  8
0
  6
CONTINUOUS
 10
417.836121
 20
480.782928
 40
6.500000
 50
-51.240688
 51
230.284866
  0
LINE
  8
0
  6
CENTER
 10
407.959808
 20
480.782928
 11
426.897308
 21
480.782928
  0
ARC
  8
0
  6
CONTINUOUS
 10
405.594940
 20
477.782928
 40
5.000000
 50
16.389540
 51
90.000000
  0
LINE
  8
0
  6
CONTINUOUS
 10
410.391785
 20
479.193756
 11
411.394958
 21
475.782928
  0
LINE
  8
0
  6
CONTINUOUS
 10
425.882263
 20
472.175537
 11
426.690002
 21
469.390320
  0
LINE
  8
0
  6
CONTINUOUS
 10
421.080139
 20
475.782928
 11
411.394958
 21
475.782928
  0
ARC
  8
0
  6
CONTINUOUS
 10
421.080139
 20
470.782928
 40
5.000000
 50
16.172159
 51
90.000000
  0
ARC
  8
0
  6
CONTINUOUS
 10
431.492126
 20
470.782928
 40
5.000000
 50
196.172165
 51
270.000000
  0
LINE
  8
0
  6
CONTINUOUS
 10
427.736145
 20
465.782928
 11
427.739349
 21
465.771851
  0
LINE
  8
0
  6
CENTER
 10
417.836121
 20
471.630585
 11
417.836121
 21
491.130585
  0
LINE
  8
0
  6
CONTINUOUS
 10
330.280487
 20
479.193756
 11
329.277313
 21
475.782928
  0
ARC
  8
0
  6
CONTINUOUS
 10
335.077332
 20
477.782928
 40
5.000000
 50
90.000000
 51
163.610458
  0
LINE
  8
0
  6
CONTINUOUS
 10
314.789978
 20
472.175537
 11
313.982269
 21
469.390320
  0
LINE
  8
0
  6
CONTINUOUS
 10
319.592133
 20
475.782928
 11
329.277313
 21
475.782928
  0
LINE
  8
0
  6
CENTER
 10
332.712463
 20
480.782928
 11
313.774963
 21
480.782928
  0
LINE
  8
0
  6
CENTER
 10
322.836121
 20
471.630585
 11
322.836121
 21
491.130585
  0
ARC
  8
0
  6
CONTINUOUS
 10
322.836121
 20
480.782928
 40
6.500000
 50
-50.284863
 51
231.240692
  0
ARC
  8
0
  6
CONTINUOUS
 10
319.592133
 20
470.782928
 40
5.000000
 50
90.000000
 51
163.827835
  0
ARC
  8
0
  6
CONTINUOUS
 10
309.180115
 20
470.782928
 40
5.000000
 50
-90.000000
 51
-16.172159
  0
LINE
  8
0
  6
CONTINUOUS
 10
312.936127
 20
465.782928
 11
312.932922
 21
465.771851
  0
LINE
  8
0
  6
CENTER
 10
81.125504
 20
7.605000
 11
81.125504
 21
259.450592
  0
LINE
  8
0
  6
CENTER
 10
1.328118
 20
117.724998
 11
156.958115
 21
117.724998
  0
LINE
  8
0
  6
CENTER
 10
4.093118
 20
162.725006
 11
215.302505
 21
162.725006
  0
LINE
  8
0
  6
CENTER
 10
141.125504
 20
49.323738
 11
141.125504
 21
11.424620
  0
LINE
  8
0
  6
CENTER
 10
21.125500
 20
49.323738
 11
21.125500
 21
11.424620
  0
LINE
  8
0
  6
CONTINUOUS
 10
6.125500
 20
22.725000
 11
51.125500
 21
22.725000
  0
LINE
  8
0
  6
CONTINUOUS
 10
111.125504
 20
22.725000
 11
156.125504
 21
22.725000
  0
LINE
  8
0
  6
CONTINUOUS
 10
153.625504
 20
40.724998
 11
130.125504
 21
40.724998
  0
LINE
  8
0
  6
CONTINUOUS
 10
8.625500
 20
40.724998
 11
32.125500
 21
40.724998
  0
LINE
  8
0
  6
CONTINUOUS
 10
126.125504
 20
223.991760
 11
126.125504
 21
22.725000
  0
LINE
  8
0
  6
CONTINUOUS
 10
36.125500
 20
210.466202
 11
36.125500
 21
223.991287
  0
LINE
  8
0
  6
CONTINUOUS
 10
156.125504
 20
38.607182
 11
156.125504
 21
22.725000
  0
LINE
  8
0
  6
CONTINUOUS
 10
6.125500
 20
38.607182
 11
6.125500
 21
22.725000
  0
LINE
  8
0
  6
CONTINUOUS
 10
52.625500
 20
24.225000
 11
109.625504
 21
24.225000
  0
LINE
  8
0
  6
CONTINUOUS
 10
123.177902
 20
226.991302
 11
81.125504
 21
227.725006
  0
LINE
  8
0
  6
CONTINUOUS
 10
39.073101
 20
226.990814
 11
81.125504
 21
227.725006
  0
LINE
  8
0
  6
CONTINUOUS
 10
19.125500
 20
127.466194
 11
19.125500
 21
197.983826
  0
LINE
  8
0
  6
CONTINUOUS
 10
143.125504
 20
127.466194
 11
143.125504
 21
197.983826
  0
LINE
  8
0
  6
CONTINUOUS
 10
26.125500
 20
78.481003
 11
26.125500
 21
166.635406
  0
LINE
  8
0
  6
CONTINUOUS
 10
136.125504
 20
78.481018
 11
136.125504
 21
166.635406
  0
LINE
  8
0
  6
DASHED
 10
147.625504
 20
40.724998
 11
147.625504
 21
22.725000
  0
LINE
  8
0
  6
DASHED
 10
134.625504
 20
40.724998
 11
134.625504
 21
22.725000
  0
LINE
  8
0
  6
DASHED
 10
27.625500
 20
40.724998
 11
27.625500
 21
22.725000
  0
LINE
  8
0
  6
DASHED
 10
14.625500
 20
40.724998
 11
14.625500
 21
22.725000
  0
ARC
  8
0
  6
CONTINUOUS
 10
39.125500
 20
223.991287
 40
3.000000
 50
91.000603
 51
180.000000
  0
ARC
  8
0
  6
CONTINUOUS
 10
123.125504
 20
223.991745
 40
3.000000
 50
0.000000
 51
89.000580
  0
LINE
  8
0
  6
CONTINUOUS
 10
32.536301
 20
205.669357
 11
22.714701
 21
202.780624
  0
LINE
  8
0
  6
CONTINUOUS
 10
22.714701
 20
122.669365
 11
23.254101
 21
122.510696
  0
LINE
  8
0
  6
CONTINUOUS
 10
29.732901
 20
73.678864
 11
32.518101
 21
72.871140
  0
LINE
  8
0
  6
CONTINUOUS
 10
8.214500
 20
41.073158
 11
33.618698
 21
45.307201
  0
LINE
  8
0
  6
CONTINUOUS
 10
154.036499
 20
41.073181
 11
128.632294
 21
45.307220
  0
LINE
  8
0
  6
CONTINUOUS
 10
132.518097
 20
73.678864
 11
129.732895
 21
72.871140
  0
LINE
  8
0
  6
CONTINUOUS
 10
139.536301
 20
122.669365
 11
138.996902
 21
122.510689
  0
LINE
  8
0
  6
CONTINUOUS
 10
139.536301
 20
202.780640
 11
129.714706
 21
205.669357
  0
LINE
  8
0
  6
CONTINUOUS
 10
38.699902
 20
195.225006
 11
123.378098
 21
195.225006
  0
ARC
  8
0
  6
CONTINUOUS
 10
24.125500
 20
197.983841
 40
5.000000
 50
106.389900
 51
180.000000
  0
ARC
  8
0
  6
CONTINUOUS
 10
138.125504
 20
197.983795
 40
5.000000
 50
0.000000
 51
73.610527
  0
ARC
  8
0
  6
CONTINUOUS
 10
24.125500
 20
127.466225
 40
5.000000
 50
180.000000
 51
253.610794
  0
ARC
  8
0
  6
CONTINUOUS
 10
138.125504
 20
127.466187
 40
5.000000
 50
-73.610321
 51
0.000000
  0
ARC
  8
0
  6
CONTINUOUS
 10
131.125504
 20
78.481003
 40
5.000000
 50
-73.827698
 51
0.000000
  0
ARC
  8
0
  6
CONTINUOUS
 10
31.125500
 20
78.481041
 40
5.000000
 50
180.000000
 51
253.828201
  0
LINE
  8
0
  6
CONTINUOUS
 10
36.125500
 20
210.466202
 11
36.125500
 21
22.725000
  0
ARC
  8
0
  6
CONTINUOUS
 10
31.125500
 20
210.466187
 40
5.000000
 50
-73.610229
 51
0.000000
  0
ARC
  8
0
  6
CONTINUOUS
 10
22.125500
 20
118.673218
 40
4.000000
 50
0.000000
 51
73.610649
  0
ARC
  8
0
  6
CONTINUOUS
 10
31.125500
 20
68.068977
 40
5.000000
 50
0.000000
 51
73.827919
  0
ARC
  8
0
  6
CONTINUOUS
 10
131.125504
 20
68.069023
 40
5.000000
 50
106.172501
 51
180.000000
  0
ARC
  8
0
  6
CONTINUOUS
 10
140.125504
 20
118.673248
 40
4.000000
 50
106.389999
 51
180.000000
  0
ARC
  8
0
  6
CONTINUOUS
 10
131.125504
 20
210.466217
 40
5.000000
 50
180.000000
 51
253.610794
  0
ARC
  8
0
  6
CONTINUOUS
 10
33.125500
 20
48.266380
 40
3.000000
 50
-80.537483
 51
0.000000
  0
ARC
  8
0
  6
CONTINUOUS
 10
32.125500
 20
44.724960
 40
4.000000
 50
-90.000000
 51
0.000000
  0
ARC
  8
0
  6
CONTINUOUS
 10
8.625500
 20
38.225021
 40
2.500000
 50
90.000000
 51
180.000000
  0
LINE
  8
0
  6
CONTINUOUS
 10
51.125500
 20
22.725000
 11
52.625500
 21
24.225000
  0
LINE
  8
0
  6
CONTINUOUS
 10
111.125504
 20
22.725000
 11
109.625504
 21
24.225000
  0
ARC
  8
0
  6
CONTINUOUS
 10
129.125504
 20
48.266418
 40
3.000000
 50
180.000000
 51
260.537903
  0
ARC
  8
0
  6
CONTINUOUS
 10
130.125504
 20
44.724998
 40
4.000000
 50
180.000000
 51
270.000000
  0
ARC
  8
0
  6
CONTINUOUS
 10
153.625504
 20
38.224998
 40
2.500000
 50
0.000000
 51
90.000000
  0
LINE
  8
0
  6
CONTINUOUS
 10
201.125504
 20
146.725006
 11
201.125504
 21
178.725006
  0
LINE
  8
0
  6
CONTINUOUS
 10
146.125504
 20
178.725006
 11
201.125504
 21
178.725006
  0
LINE
  8
0
  6
CONTINUOUS
 10
146.125504
 20
146.725006
 11
201.125504
 21
146.725006
  0
LINE
  8
0
  6
CONTINUOUS
 10
146.125504
 20
180.225006
 11
146.125504
 21
145.225006
  0
LINE
  8
0
  6
CONTINUOUS
 10
143.125504
 20
180.225006
 11
146.125504
 21
180.225006
  0
LINE
  8
0
  6
CONTINUOUS
 10
143.125504
 20
145.225006
 11
146.125504
 21
145.225006
  0
ARC
  8
0
  6
CONTINUOUS
 10
156.125504
 20
162.725006
 40
5.000000
 50
90.000000
 51
270.000000
  0
LINE
  8
0
  6
CONTINUOUS
 10
156.125504
 20
167.725006
 11
201.125504
 21
167.725006
  0
LINE
  8
0
  6
CONTINUOUS
 10
156.125504
 20
157.725006
 11
201.125504
 21
157.725006
  0
ARC
  8
0
  6
CONTINUOUS
 10
8.625500
 20
38.607201
 40
2.500000
 50
99.462753
 51
180.000000
  0
ARC
  8
0
  6
CONTINUOUS
 10
153.625504
 20
38.607182
 40
2.500000
 50
0.000000
 51
80.537682
  0
LINE
  8
0
  6
CONTINUOUS
 10
458.336121
 20
181.725006
 11
458.336121
 21
53.724998
  0
ARC
  8
0
  6
CONTINUOUS
 10
81.125504
 20
117.724998
 40
64.000000
 50
165.638489
 51
210.753525
  0
ARC
  8
0
  6
CONTINUOUS
 10
81.125504
 20
117.724998
 40
64.000000
 50
-30.753519
 51
14.361512
  0
ARC
  8
0
  6
CONTINUOUS
 10
40.113300
 20
76.712784
 40
8.000000
 50
211.001404
 51
233.216995
  0
ARC
  8
0
  6
CONTINUOUS
 10
34.125500
 20
68.703659
 40
2.000000
 50
30.947910
 51
53.217121
  0
ARC
  8
0
  6
CONTINUOUS
 10
122.137703
 20
76.712784
 40
8.000000
 50
-53.216999
 51
-31.001400
  0
ARC
  8
0
  6
CONTINUOUS
 10
128.125504
 20
68.703659
 40
2.000000
 50
126.782883
 51
149.052094
  0
LINE
  8
0
  6
CENTER
 10
705.461243
 20
104.724998
 11
413.449768
 21
104.724998
  0
LINE
  8
0
  6
CENTER
 10
487.619995
 20
117.724998
 11
413.449768
 21
117.724998
  0
LINE
  8
0
  6
CONTINUOUS
 10
466.836121
 20
482.782928
 11
466.836121
 21
358.782928
  0
LINE
  8
0
  6
CONTINUOUS
 10
512.836121
 20
375.782928
 11
469.272522
 21
374.261658
  0
LINE
  8
0
  6
CONTINUOUS
 10
512.836121
 20
465.782928
 11
469.272522
 21
467.304199
  0
LINE
  8
0
  6
CONTINUOUS
 10
512.836121
 20
371.770935
 11
512.836121
 21
469.794922
  0
LINE
  8
0
  6
CONTINUOUS
 10
464.836121
 20
356.782928
 11
458.336121
 21
356.782928
  0
LINE
  8
0
  6
CONTINUOUS
 10
464.836121
 20
484.782928
 11
458.336121
 21
484.782928
  0
LINE
  8
0
  6
CONTINUOUS
 10
473.979126
 20
396.782928
 11
466.864166
 21
396.782928
  0
LINE
  8
0
  6
CONTINUOUS
 10
473.373993
 20
444.782928
 11
466.864166
 21
444.782928
  0
LINE
  8
0
  6
CONTINUOUS
 10
473.979126
 20
398.987427
 11
473.979126
 21
442.700012
  0
LINE
  8
0
  6
CONTINUOUS
 10
521.836121
 20
377.782928
 11
521.836121
 21
391.782928
  0
LINE
  8
0
  6
CONTINUOUS
 10
631.836121
 20
375.782928
 11
512.836121
 21
375.782928
  0
LINE
  8
0
  6
CONTINUOUS
 10
631.836121
 20
465.782928
 11
512.836121
 21
465.782928
  0
LINE
  8
0
  6
CONTINUOUS
 10
631.836121
 20
391.782928
 11
521.836121
 21
391.782928
  0
LINE
  8
0
  6
CONTINUOUS
 10
631.836121
 20
449.782928
 11
521.836121
 21
449.782928
  0
ARC
  8
0
  6
CONTINUOUS
 10
519.836121
 20
377.782898
 40
2.000000
 50
-90.000000
 51
0.000000
  0
ARC
  8
0
  6
CONTINUOUS
 10
519.836121
 20
463.782928
 40
2.000000
 50
0.000000
 51
90.000000
  0
LINE
  8
0
  6
CONTINUOUS
 10
512.836121
 20
375.782928
 11
512.836121
 21
465.782928
  0
ARC
  8
0
  6
CONTINUOUS
 10
464.836121
 20
358.782928
 40
2.000000
 50
-90.000000
 51
0.000000
  0
ARC
  8
0
  6
CONTINUOUS
 10
464.836121
 20
482.782928
 40
2.000000
 50
0.000000
 51
90.000000
  0
ARC
  8
0
  6
CONTINUOUS
 10
469.359772
 20
371.763184
 40
2.500000
 50
92.000000
 51
179.895706
  0
ARC
  8
0
  6
CONTINUOUS
 10
469.359772
 20
469.802673
 40
2.500000
 50
180.104294
 51
268.000000
  0
LINE
  8
0
  6
CONTINUOUS
 10
466.836121
 20
374.176575
 11
466.864166
 21
374.177551
  0
LINE
  8
0
  6
CONTINUOUS
 10
512.336426
 20
371.253479
 11
466.836121
 21
369.664581
  0
LINE
  8
0
  6
CONTINUOUS
 10
512.836121
 20
371.770935
 11
512.336426
 21
371.253479
  0
LINE
  8
0
  6
CONTINUOUS
 10
512.336426
 20
470.312378
 11
466.836121
 21
471.901276
  0
LINE
  8
0
  6
CONTINUOUS
 10
512.836121
 20
469.794922
 11
512.336426
 21
470.312378
  0
LINE
  8
0
  6
CONTINUOUS
 10
521.836121
 20
147.725006
 11
521.836121
 21
61.724979
  0
LINE
  8
0
  6
CONTINUOUS
 10
631.836121
 20
149.725006
 11
512.836121
 21
149.725006
  0
LINE
  8
0
  6
CONTINUOUS
 10
631.836121
 20
59.724998
 11
512.836121
 21
59.724998
  0
LINE
  8
0
  6
CONTINUOUS
 10
631.836121
 20
139.134293
 11
522.873840
 21
139.134293
  0
LINE
  8
0
  6
CONTINUOUS
 10
631.836121
 20
70.315697
 11
522.873840
 21
70.315697
  0
ARC
  8
0
  6
CONTINUOUS
 10
519.836121
 20
147.725021
 40
2.000000
 50
0.000000
 51
90.000000
  0
ARC
  8
0
  6
CONTINUOUS
 10
519.836121
 20
61.724998
 40
2.000000
 50
-90.000000
 51
0.000000
  0
LINE
  8
0
  6
CONTINUOUS
 10
464.836121
 20
181.725098
 11
458.336121
 21
181.725098
  0
LINE
  8
0
  6
CONTINUOUS
 10
464.836121
 20
53.724903
 11
458.336121
 21
53.724903
  0
LINE
  8
0
  6
CONTINUOUS
 10
512.836121
 20
149.725006
 11
466.836121
 21
151.331360
  0
LINE
  8
0
  6
CONTINUOUS
 10
458.336121
 20
57.821819
 11
512.836121
 21
59.724998
  0
ARC
  8
0
  6
CONTINUOUS
 10
464.836121
 20
179.725128
 40
2.000000
 50
0.000000
 51
90.000000
  0
ARC
  8
0
  6
CONTINUOUS
 10
464.836121
 20
55.724903
 40
2.000000
 50
-90.000000
 51
-0.260773
  0
LINE
  8
0
  6
CONTINUOUS
 10
512.836121
 20
149.725006
 11
512.836121
 21
59.724998
  0
LINE
  8
0
  6
CONTINUOUS
 10
467.568359
 20
157.492767
 11
473.282867
 21
151.778259
  0
LINE
  8
0
  6
CONTINUOUS
 10
512.836121
 20
84.219002
 11
468.836121
 21
84.219002
  0
LINE
  8
0
  6
CONTINUOUS
 10
512.836121
 20
69.206001
 11
458.336121
 21
69.206001
  0
LINE
  8
0
  6
CONTINUOUS
 10
466.268158
 20
77.157997
 11
458.336121
 21
77.157997
  0
LINE
  8
0
  6
CONTINUOUS
 10
466.836121
 20
78.372734
 11
466.836121
 21
179.725128
  0
ARC
  8
0
  6
CONTINUOUS
 10
469.336090
 20
55.704422
 40
2.500000
 50
92.000000
 51
179.739227
  0
ARC
  8
0
  6
CONTINUOUS
 10
469.336121
 20
159.260529
 40
2.500000
 50
180.000000
 51
225.000000
  0
ARC
  8
0
  6
CONTINUOUS
 10
475.050659
 20
153.546021
 40
2.500000
 50
-135.000000
 51
-92.000000
  0
LINE
  8
0
  6
CENTER
 10
370.336121
 20
250.021179
 11
370.336121
 21
12.092120
  0
LINE
  8
0
  6
CENTER
 10
429.634888
 20
162.725006
 11
308.916260
 21
162.725006
  0
LINE
  8
0
  6
CENTER
 10
322.836121
 20
48.000439
 11
322.836121
 21
14.135700
  0
LINE
  8
0
  6
CENTER
 10
417.836121
 20
48.000439
 11
417.836121
 21
13.843760
  0
LINE
  8
0
  6
CONTINUOUS
 10
446.336121
 20
22.725000
 11
294.336121
 21
22.725000
  0
LINE
  8
0
  6
CONTINUOUS
 10
446.336121
 20
40.724998
 11
294.336121
 21
40.724998
  0
LINE
  8
0
  6
CONTINUOUS
 10
294.336121
 20
191.030563
 11
294.336121
 21
22.725000
  0
LINE
  8
0
  6
CONTINUOUS
 10
446.336121
 20
186.225006
 11
446.336121
 21
191.030563
  0
LINE
  8
0
  6
CONTINUOUS
 10
396.839539
 20
227.725006
 11
343.832733
 21
227.725006
  0
LINE
  8
0
  6
CONTINUOUS
 10
451.336121
 20
181.725006
 11
458.336121
 21
181.725006
  0
LINE
  8
0
  6
CONTINUOUS
 10
451.336121
 20
53.724998
 11
458.336121
 21
53.724998
  0
LINE
  8
0
  6
CONTINUOUS
 10
297.786133
 20
197.610626
 11
339.282745
 21
226.305054
  0
LINE
  8
0
  6
CONTINUOUS
 10
442.886139
 20
197.610626
 11
401.389526
 21
226.305054
  0
ARC
  8
0
  6
CONTINUOUS
 10
343.832733
 20
219.725006
 40
8.000000
 50
90.000000
 51
124.663300
  0
ARC
  8
0
  6
CONTINUOUS
 10
302.336121
 20
191.030518
 40
8.000000
 50
124.663300
 51
180.000000
  0
ARC
  8
0
  6
CONTINUOUS
 10
396.839539
 20
219.725006
 40
8.000000
 50
55.336300
 51
90.000000
  0
ARC
  8
0
  6
CONTINUOUS
 10
438.336121
 20
191.030594
 40
8.000000
 50
0.000000
 51
55.336201
  0
LINE
  8
0
  6
CONTINUOUS
 10
446.336121
 20
49.224998
 11
446.336121
 21
22.725000
  0
ARC
  8
0
  6
CONTINUOUS
 10
451.336121
 20
186.725006
 40
5.000000
 50
180.000000
 51
270.000000
  0
LINE
  8
0
  6
CONTINUOUS
 10
446.336121
 20
49.224998
 11
446.336121
 21
186.225006
  0
ARC
  8
0
  6
CONTINUOUS
 10
451.336121
 20
48.724979
 40
5.000000
 50
90.000000
 51
180.000000
  0
LINE
  8
0
  6
DASHED
 10
424.336121
 20
40.724998
 11
424.336121
 21
22.725000
  0
LINE
  8
0
  6
DASHED
 10
411.336121
 20
40.724998
 11
411.336121
 21
22.725000
  0
LINE
  8
0
  6
DASHED
 10
329.336121
 20
40.724998
 11
329.336121
 21
22.725000
  0
LINE
  8
0
  6
DASHED
 10
316.336121
 20
40.724998
 11
316.336121
 21
22.725000
  0
CIRCLE
  8
0
  6
CONTINUOUS
 10
370.336121
 20
162.725006
 40
39.000000
  0
ARC
  8
0
  6
CONTINUOUS
 10
370.336121
 20
162.725006
 40
44.000000
 50
12.523100
 51
167.476807
  0
ARC
  8
0
  6
CONTINUOUS
 10
395.836121
 20
103.724998
 40
29.000000
 50
-90.000000
 51
12.523100
  0
ARC
  8
0
  6
CONTINUOUS
 10
344.836121
 20
103.724998
 40
29.000000
 50
167.476807
 51
270.000000
  0
ARC
  8
0
  6
CONTINUOUS
 10
395.836121
 20
103.724998
 40
31.900000
 50
-90.000000
 51
12.523100
  0
ARC
  8
0
  6
CONTINUOUS
 10
344.836121
 20
103.724998
 40
31.900000
 50
167.476807
 51
270.000000
  0
ARC
  8
0
  6
CONTINUOUS
 10
370.336121
 20
162.725006
 40
41.099998
 50
-192.523193
 51
12.523100
  0
LINE
  8
0
  6
CONTINUOUS
 10
426.977142
 20
110.642006
 11
413.289337
 21
172.265701
  0
LINE
  8
0
  6
CONTINUOUS
 10
424.146118
 20
110.013184
 11
410.458344
 21
171.636887
  0
LINE
  8
0
  6
CONTINUOUS
 10
395.836121
 20
71.824997
 11
344.836121
 21
71.824997
  0
LINE
  8
0
  6
CONTINUOUS
 10
344.836121
 20
74.724998
 11
395.836121
 21
74.724998
  0
LINE
  8
0
  6
CONTINUOUS
 10
327.382935
 20
172.265778
 11
313.695129
 21
110.642067
  0
LINE
  8
0
  6
CONTINUOUS
 10
330.213928
 20
171.636963
 11
316.526123
 21
110.013237
  0
ARC
  8
0
  6
CONTINUOUS
 10
266.627319
 20
117.724998
 40
185.208893
 50
-13.998090
 51
13.998090
  0
LINE
  8
0
  6
CONTINUOUS
 10
432.336121
 20
38.658440
 11
432.336121
 21
22.725000
  0
LINE
  8
0
  6
CONTINUOUS
 10
308.336121
 20
38.658440
 11
308.336121
 21
22.725000
  0
LINE
  8
0
  6
CONTINUOUS
 10
346.578735
 20
45.724998
 11
394.093536
 21
45.724998
  0
LINE
  8
0
  6
CONTINUOUS
 10
395.336121
 20
44.789120
 11
395.336121
 21
41.724998
  0
LINE
  8
0
  6
CONTINUOUS
 10
344.457520
 20
44.846321
 11
341.800537
 21
42.189461
  0
LINE
  8
0
  6
CONTINUOUS
 10
396.214722
 20
44.846321
 11
398.871521
 21
42.189499
  0
LINE
  8
0
  6
CONTINUOUS
 10
345.336121
 20
44.789120
 11
345.336121
 21
41.724998
  0
ARC
  8
0
  6
CONTINUOUS
 10
402.407135
 20
45.724998
 40
5.000000
 50
-135.000107
 51
-90.000000
  0
ARC
  8
0
  6
CONTINUOUS
 10
394.093536
 20
42.724998
 40
3.000000
 50
44.999691
 51
90.000000
  0
ARC
  8
0
  6
CONTINUOUS
 10
396.336121
 20
41.724998
 40
1.000000
 50
180.000000
 51
270.000000
  0
ARC
  8
0
  6
CONTINUOUS
 10
338.265137
 20
45.724998
 40
5.000000
 50
-90.000000
 51
-45.000000
  0
ARC
  8
0
  6
CONTINUOUS
 10
346.578735
 20
42.724998
 40
3.000000
 50
90.000000
 51
134.999802
  0
ARC
  8
0
  6
CONTINUOUS
 10
344.336121
 20
41.724998
 40
1.000000
 50
-90.000000
 51
0.000000
  0
LINE
  8
0
  6
CONTINUOUS
 10
358.109131
 20
86.724998
 11
353.168732
 21
86.724998
  0
LINE
  8
0
  6
CONTINUOUS
 10
360.836121
 20
95.000397
 11
360.836121
 21
86.724998
  0
LINE
  8
0
  6
CONTINUOUS
 10
365.586121
 20
98.006248
 11
365.586121
 21
100.974998
  0
LINE
  8
0
  6
CONTINUOUS
 10
375.086121
 20
98.006248
 11
375.086121
 21
100.974998
  0
LINE
  8
0
  6
CONTINUOUS
 10
369.408325
 20
99.230858
 11
369.408325
 21
88.283600
  0
LINE
  8
0
  6
CONTINUOUS
 10
371.189545
 20
99.230858
 11
371.189545
 21
88.283600
  0
LINE
  8
0
  6
CONTINUOUS
 10
380.541138
 20
99.230858
 11
380.541138
 21
88.209381
  0
LINE
  8
0
  6
CONTINUOUS
 10
382.173920
 20
93.386139
 11
382.173920
 21
88.209381
  0
LINE
  8
0
  6
CONTINUOUS
 10
358.582123
 20
99.082420
 11
354.004333
 21
99.082420
  0
LINE
  8
0
  6
CONTINUOUS
 10
354.004333
 20
99.082420
 11
352.931732
 21
97.752419
  0
LINE
  8
0
  6
CONTINUOUS
 10
353.060730
 20
100.974998
 11
351.336121
 21
98.766533
  0
LINE
  8
0
  6
CONTINUOUS
 10
352.931732
 20
89.542839
 11
354.021545
 21
88.394920
  0
LINE
  8
0
  6
CONTINUOUS
 10
351.336121
 20
88.574120
 11
353.168732
 21
86.724998
  0
LINE
  8
0
  6
CONTINUOUS
 10
351.336121
 20
98.766533
 11
351.336121
 21
88.574120
  0
LINE
  8
0
  6
CONTINUOUS
 10
352.931732
 20
97.752419
 11
352.931732
 21
89.542839
  0
LINE
  8
0
  6
CONTINUOUS
 10
359.463135
 20
98.230858
 11
358.564117
 21
99.082420
  0
LINE
  8
0
  6
CONTINUOUS
 10
359.448730
 20
100.974998
 11
360.836121
 21
99.435417
  0
LINE
  8
0
  6
CONTINUOUS
 10
359.463135
 20
98.006248
 11
360.836121
 21
98.006248
  0
LINE
  8
0
  6
CONTINUOUS
 10
353.060730
 20
100.974998
 11
359.448730
 21
100.974998
  0
LINE
  8
0
  6
CONTINUOUS
 10
356.976746
 20
95.000397
 11
360.836121
 21
95.000397
  0
LINE
  8
0
  6
CONTINUOUS
 10
359.463135
 20
93.441803
 11
356.976746
 21
93.441803
  0
LINE
  8
0
  6
CONTINUOUS
 10
356.494324
 20
88.394920
 11
354.021545
 21
88.394920
  0
LINE
  8
0
  6
CONTINUOUS
 10
359.463135
 20
91.957420
 11
359.463135
 21
93.144920
  0
ARC
  8
0
  6
CONTINUOUS
 10
356.494324
 20
91.363663
 40
2.968750
 50
-89.999786
 51
0.000109
  0
LINE
  8
0
  6
CONTINUOUS
 10
359.463135
 20
87.860924
 11
359.463135
 21
86.724998
  0
LINE
  8
0
  6
CONTINUOUS
 10
360.836121
 20
99.435417
 11
360.836121
 21
98.006248
  0
LINE
  8
0
  6
CONTINUOUS
 10
359.463135
 20
93.441803
 11
359.463135
 21
91.363663
  0
LINE
  8
0
  6
CONTINUOUS
 10
356.976746
 20
95.000397
 11
356.976746
 21
93.441803
  0
LINE
  8
0
  6
CONTINUOUS
 10
359.463135
 20
86.724998
 11
360.836121
 21
86.724998
  0
LINE
  8
0
  6
CONTINUOUS
 10
359.463135
 20
87.860924
 11
358.109131
 21
86.724998
  0
LINE
  8
0
  6
CONTINUOUS
 10
371.189545
 20
88.283600
 11
371.783325
 21
88.283600
  0
LINE
  8
0
  6
CONTINUOUS
 10
368.703339
 20
88.283600
 11
368.703339
 21
86.724998
  0
LINE
  8
0
  6
CONTINUOUS
 10
371.783325
 20
88.283600
 11
371.783325
 21
86.724998
  0
LINE
  8
0
  6
CONTINUOUS
 10
374.095123
 20
98.006248
 11
375.086121
 21
98.006248
  0
LINE
  8
0
  6
CONTINUOUS
 10
365.586121
 20
98.006248
 11
366.640747
 21
98.006248
  0
LINE
  8
0
  6
CONTINUOUS
 10
365.586121
 20
100.974998
 11
375.086121
 21
100.974998
  0
LINE
  8
0
  6
CONTINUOUS
 10
368.703339
 20
86.724998
 11
371.783325
 21
86.724998
  0
LINE
  8
0
  6
CONTINUOUS
 10
368.703339
 20
88.283600
 11
369.408325
 21
88.283600
  0
ARC
  8
0
  6
CONTINUOUS
 10
385.532318
 20
97.171280
 40
3.803712
 50
-73.981873
 51
90.003510
  0
ARC
  8
0
  6
CONTINUOUS
 10
385.532318
 20
97.171280
 40
2.320524
 50
-82.585274
 51
62.411850
  0
LINE
  8
0
  6
CONTINUOUS
 10
379.836121
 20
100.974998
 11
385.532318
 21
100.974998
  0
LINE
  8
0
  6
CONTINUOUS
 10
385.831940
 20
94.870163
 11
382.173920
 21
94.870163
  0
LINE
  8
0
  6
CONTINUOUS
 10
379.836121
 20
100.974998
 11
379.836121
 21
99.230858
  0
LINE
  8
0
  6
CONTINUOUS
 10
382.173920
 20
99.230858
 11
382.173920
 21
94.870163
  0
LINE
  8
0
  6
CONTINUOUS
 10
386.581940
 20
93.515259
 11
388.936340
 21
88.209381
  0
LINE
  8
0
  6
CONTINUOUS
 10
385.214722
 20
93.386139
 11
387.442535
 21
88.209381
  0
LINE
  8
0
  6
CONTINUOUS
 10
379.836121
 20
88.209381
 11
380.541138
 21
88.209381
  0
LINE
  8
0
  6
CONTINUOUS
 10
382.173920
 20
88.209381
 11
382.823517
 21
88.209381
  0
LINE
  8
0
  6
CONTINUOUS
 10
382.823517
 20
86.724998
 11
379.836121
 21
86.724998
  0
LINE
  8
0
  6
CONTINUOUS
 10
387.146729
 20
88.209381
 11
387.442535
 21
88.209381
  0
LINE
  8
0
  6
CONTINUOUS
 10
388.936340
 20
88.209381
 11
389.336121
 21
88.209381
  0
LINE
  8
0
  6
CONTINUOUS
 10
387.146729
 20
86.724998
 11
389.336121
 21
86.724998
  0
LINE
  8
0
  6
CONTINUOUS
 10
389.336121
 20
88.209381
 11
389.336121
 21
86.724998
  0
LINE
  8
0
  6
CONTINUOUS
 10
387.146729
 20
88.209381
 11
387.146729
 21
86.724998
  0
LINE
  8
0
  6
CONTINUOUS
 10
382.823517
 20
88.209381
 11
382.823517
 21
86.724998
  0
LINE
  8
0
  6
CONTINUOUS
 10
379.836121
 20
88.209381
 11
379.836121
 21
86.724998
  0
LINE
  8
0
  6
CONTINUOUS
 10
367.150940
 20
99.230858
 11
366.640747
 21
98.006248
  0
LINE
  8
0
  6
CONTINUOUS
 10
373.664917
 20
99.230858
 11
374.095123
 21
98.006248
  0
LINE
  8
0
  6
CONTINUOUS
 10
371.189545
 20
99.230858
 11
373.664917
 21
99.230858
  0
LINE
  8
0
  6
CONTINUOUS
 10
369.408325
 20
99.230858
 11
367.150940
 21
99.230858
  0
LINE
  8
0
  6
CONTINUOUS
 10
382.173920
 20
93.386139
 11
385.214722
 21
93.386139
  0
LINE
  8
0
  6
CONTINUOUS
 10
379.836121
 20
99.230858
 11
380.541138
 21
99.230858
  0
LINE
  8
0
  6
CONTINUOUS
 10
382.173920
 20
99.230858
 11
386.607147
 21
99.227974
  0
LINE
  8
0
  6
CONTINUOUS
 10
359.463135
 20
98.230858
 11
359.463135
 21
98.006248
  0
LINE
  8
0
  6
CONTINUOUS
 10
442.336121
 20
171.502106
 11
442.336121
 21
99.947929
  0
LINE
  8
0
  6
CONTINUOUS
 10
298.336121
 20
171.502106
 11
298.336121
 21
99.947922
  0
ARC
  8
0
  6
CONTINUOUS
 10
370.336121
 20
135.725006
 40
88.000000
 50
228.189804
 51
311.810791
  0
ARC
  8
0
  6
CONTINUOUS
 10
370.336121
 20
135.725006
 40
88.000000
 50
48.217949
 51
131.810501
  0
ARC
  8
0
  6
CONTINUOUS
 10
338.336121
 20
171.502106
 40
40.000000
 50
131.810806
 51
180.000000
  0
ARC
  8
0
  6
CONTINUOUS
 10
402.336121
 20
171.502106
 40
40.000000
 50
0.000000
 51
48.251911
  0
ARC
  8
0
  6
CONTINUOUS
 10
402.336121
 20
99.947914
 40
40.000000
 50
-48.187901
 51
0.000000
  0
ARC
  8
0
  6
CONTINUOUS
 10
338.336121
 20
99.947914
 40
40.000000
 50
180.000000
 51
228.190094
  0
LINE
  8
0
  6
CONTINUOUS
 10
359.336121
 20
167.725006
 11
359.336121
 21
157.725006
  0
LINE
  8
0
  6
CONTINUOUS
 10
351.336121
 20
167.725006
 11
351.336121
 21
157.725006
  0
LINE
  8
0
  6
CONTINUOUS
 10
351.336121
 20
167.725006
 11
359.336121
 21
167.725006
  0
LINE
  8
0
  6
CONTINUOUS
 10
351.336121
 20
157.725006
 11
359.336121
 21
157.725006
  0
ARC
  8
0
  6
CONTINUOUS
 10
370.336121
 20
162.725006
 40
16.000000
 50
-161.790100
 51
161.790100
  0
LINE
  8
0
  6
CONTINUOUS
 10
641.336121
 20
375.782928
 11
631.836121
 21
375.782928
  0
LINE
  8
0
  6
CONTINUOUS
 10
631.836121
 20
391.782928
 11
641.336121
 21
391.782928
  0
LINE
  8
0
  6
CONTINUOUS
 10
641.336121
 20
465.782928
 11
631.836121
 21
465.782928
  0
LINE
  8
0
  6
CONTINUOUS
 10
631.836121
 20
465.782928
 11
631.836121
 21
427.648956
  0
LINE
  8
0
  6
CONTINUOUS
 10
631.836121
 20
449.782928
 11
641.336121
 21
449.782928
  0
LINE
  8
0
  6
CONTINUOUS
 10
638.336121
 20
426.782928
 11
638.336121
 21
414.782928
  0
LINE
  8
0
  6
CONTINUOUS
 10
631.336121
 20
426.782928
 11
631.336121
 21
414.782928
  0
LINE
  8
0
  6
CONTINUOUS
 10
637.336121
 20
413.782928
 11
632.336121
 21
413.782928
  0
LINE
  8
0
  6
CONTINUOUS
 10
632.336121
 20
427.782928
 11
637.336121
 21
427.782928
  0
ARC
  8
0
  6
CONTINUOUS
 10
632.336121
 20
414.782928
 40
1.000000
 50
180.000000
 51
270.000000
  0
ARC
  8
0
  6
CONTINUOUS
 10
637.336121
 20
414.782928
 40
1.000000
 50
-90.000000
 51
0.000000
  0
ARC
  8
0
  6
CONTINUOUS
 10
637.336121
 20
426.782928
 40
1.000000
 50
0.000000
 51
90.000000
  0
ARC
  8
0
  6
CONTINUOUS
 10
632.336121
 20
426.782928
 40
1.000000
 50
90.000000
 51
180.000000
  0
LINE
  8
0
  6
CONTINUOUS
 10
633.836121
 20
424.282928
 11
633.836121
 21
417.282928
  0
LINE
  8
0
  6
CONTINUOUS
 10
635.836121
 20
424.282928
 11
635.836121
 21
417.282928
  0
ARC
  8
0
  6
CONTINUOUS
 10
634.836121
 20
417.282928
 40
1.000000
 50
-90.000000
 51
0.000000
  0
ARC
  8
0
  6
CONTINUOUS
 10
634.836121
 20
417.282928
 40
1.000000
 50
180.000000
 51
270.000000
  0
ARC
  8
0
  6
CONTINUOUS
 10
634.836121
 20
424.282928
 40
1.000000
 50
0.000000
 51
90.000000
  0
ARC
  8
0
  6
CONTINUOUS
 10
634.836121
 20
424.282928
 40
1.000000
 50
90.000000
 51
180.000000
  0
LINE
  8
0
  6
CONTINUOUS
 10
631.836121
 20
413.916901
 11
631.836121
 21
375.782928
  0
LINE
  8
0
  6
CONTINUOUS
 10
641.336121
 20
373.782928
 11
641.336121
 21
467.782928
  0
LINE
  8
0
  6
CONTINUOUS
 10
641.336121
 20
391.782928
 11
685.311157
 21
391.782928
  0
LINE
  8
0
  6
CONTINUOUS
 10
641.336121
 20
449.782928
 11
685.311157
 21
449.782928
  0
LINE
  8
0
  6
CONTINUOUS
 10
683.836182
 20
373.782928
 11
641.336121
 21
373.782928
  0
LINE
  8
0
  6
CONTINUOUS
 10
683.836182
 20
467.782928
 11
641.336121
 21
467.782928
  0
ARC
  8
0
  6
CONTINUOUS
 10
683.836121
 20
378.782928
 40
5.000000
 50
-90.000000
 51
0.000000
  0
ARC
  8
0
  6
CONTINUOUS
 10
683.836182
 20
462.782928
 40
5.000000
 50
0.000000
 51
90.000000
  0
LINE
  8
0
  6
CONTINUOUS
 10
688.836121
 20
378.782928
 11
688.836182
 21
462.782928
  0
LINE
  8
0
  6
CONTINUOUS
 10
641.336121
 20
149.725006
 11
631.836121
 21
149.725006
  0
LINE
  8
0
  6
CONTINUOUS
 10
631.836121
 20
139.134293
 11
641.336121
 21
139.134293
  0
LINE
  8
0
  6
CONTINUOUS
 10
641.336121
 20
59.724998
 11
631.836121
 21
59.724998
  0
LINE
  8
0
  6
CONTINUOUS
 10
631.836121
 20
70.315712
 11
641.336121
 21
70.315712
  0
LINE
  8
0
  6
CONTINUOUS
 10
641.336121
 20
151.725006
 11
641.336121
 21
57.724998
  0
LINE
  8
0
  6
CONTINUOUS
 10
641.336121
 20
133.725006
 11
685.311157
 21
133.725006
  0
LINE
  8
0
  6
CONTINUOUS
 10
641.336121
 20
75.724998
 11
685.311157
 21
75.724998
  0
LINE
  8
0
  6
CONTINUOUS
 10
631.336121
 20
151.225006
 11
631.336121
 21
149.725006
  0
LINE
  8
0
  6
CONTINUOUS
 10
638.336121
 20
151.225006
 11
638.336121
 21
149.725006
  0
LINE
  8
0
  6
CONTINUOUS
 10
638.336121
 20
151.225006
 11
631.336121
 21
151.225006
  0
LINE
  8
0
  6
CONTINUOUS
 10
633.936157
 20
164.225006
 11
633.936157
 21
151.225006
  0
LINE
  8
0
  6
CONTINUOUS
 10
635.736145
 20
164.850006
 11
635.736145
 21
151.225006
  0
LINE
  8
0
  6
CONTINUOUS
 10
637.536133
 20
162.787506
 11
637.536133
 21
151.225006
  0
LINE
  8
0
  6
CONTINUOUS
 10
632.136108
 20
163.600006
 11
632.136108
 21
151.225006
  0
LINE
  8
0
  6
CONTINUOUS
 10
635.736145
 20
164.850006
 11
633.936157
 21
164.225006
  0
LINE
  8
0
  6
CONTINUOUS
 10
637.536133
 20
162.787506
 11
635.736145
 21
163.412506
  0
LINE
  8
0
  6
CONTINUOUS
 10
632.136108
 20
163.600006
 11
633.935120
 21
163.152298
  0
LINE
  8
0
  6
CONTINUOUS
 10
683.836182
 20
151.725006
 11
641.336121
 21
151.725006
  0
LINE
  8
0
  6
CONTINUOUS
 10
683.836182
 20
57.724998
 11
641.336121
 21
57.724998
  0
ARC
  8
0
  6
CONTINUOUS
 10
683.836121
 20
146.725006
 40
5.000000
 50
0.000000
 51
90.000000
  0
ARC
  8
0
  6
CONTINUOUS
 10
683.836182
 20
62.724998
 40
5.000000
 50
-90.000000
 51
0.000000
  0
LINE
  8
0
  6
CONTINUOUS
 10
688.836121
 20
146.725006
 11
688.836182
 21
62.724991
  0
LINE
  8
0
  6
CONTINUOUS
 10
631.836121
 20
59.724998
 11
631.836121
 21
149.725006
  0
LINE
  8
0
  6
CONTINUOUS
 10
521.836121
 20
449.782928
 11
521.836121
 21
463.782959
  0
TEXT
  8
0
 10
1.000000
 20
7.000000
 40
4.000000
 41
1.000000
  1
HLM-32L-1200~1800-S60
 50
0.000000
  0
ENDSEC
  0
EOF
