  0
SECTION
  2
HEADER
  9
$CLAYER
  8
1
  9
$LTSCALE
 40
3.0
  0
ENDSEC
  0
SECTION
  2
TABLES
  0
TABLE
  2
LTYPE
 70
     4
  0
LTYPE
  2
CONTINUOUS
  3
solid line
 70
    64
 72
    65
 73
     0
 40
0.0
  0
LTYPE
  2
DASHED
  3
__ __ __ __ __ __ __ __ __ __ __ __ __ __ __
 70
    64
 72
    65
 73
     2
 40
0.75
 49
0.5
 49
-0.25
  0
LTYPE
  2
CENTER
  3
____ _ ____ _ ____ _ ____ _ ____ _ ____ _ ____
 70
    64
 72
    65
 73
     4
 40
2.0
 49
1.25
 49
-0.25
 49
0.25
 49
-0.25
  0
LTYPE
  2
PHANTOM
  3
_____ _ _ _____ _ _ _____ _ _ _____ _ _ ____
 70
    64
 72
    65
 73
     6
 40
2.5
 49
1.25
 49
-0.25
 49
0.25
 49
-0.25
 49
0.25
 49
-0.25
  0
ENDTAB
  0
TABLE
  2
LAYER
 70
     1
  0
LAYER
  2
0
 70
    64
 62
     7
  6
CONTINUOUS
  0
ENDTAB
  0
TABLE
  2
STYLE
 70
     1
  0
STYLE
  2
STANDARD
 70
     0
 40
0.000000
 41
1.000000
 50
0.000000
 71
     0
 42
3.000000
  3
txt
  4
BIGFONT
  0
ENDTAB
  0
ENDSEC
  0
SECTION
  2
BLOCKS
  0
ENDSEC
  0
SECTION
  2
ENTITIES
  0
LINE
  8
0
  6
CENTER
 10
373.802368
 20
283.885437
 11
373.802368
 21
505.113739
  0
LINE
  8
0
  6
CONTINUOUS
 10
297.802185
 20
411.947937
 11
298.587646
 21
366.947937
  0
LINE
  8
0
  6
CONTINUOUS
 10
432.252441
 20
336.947937
 11
389.802368
 21
336.947937
  0
LINE
  8
0
  6
CONTINUOUS
 10
307.858795
 20
342.146698
 11
298.587646
 21
366.947937
  0
ARC
  8
0
  6
CONTINUOUS
 10
315.352325
 20
344.947937
 40
8.000000
 50
200.496613
 51
270.000000
  0
LINE
  8
0
  6
CONTINUOUS
 10
297.802185
 20
411.947937
 11
298.587646
 21
456.947937
  0
LINE
  8
0
  6
CONTINUOUS
 10
432.252441
 20
486.947937
 11
373.802368
 21
486.947937
  0
LINE
  8
0
  6
CONTINUOUS
 10
307.858795
 20
481.749146
 11
298.587646
 21
456.947937
  0
ARC
  8
0
  6
CONTINUOUS
 10
315.352325
 20
478.947937
 40
8.000000
 50
90.000000
 51
159.503387
  0
LINE
  8
0
  6
CONTINUOUS
 10
439.745972
 20
342.146698
 11
448.800781
 21
366.369202
  0
ARC
  8
0
  6
CONTINUOUS
 10
432.252441
 20
344.947937
 40
8.000000
 50
270.000000
 51
339.503387
  0
LINE
  8
0
  6
CONTINUOUS
 10
439.745972
 20
481.749146
 11
448.800781
 21
457.526642
  0
ARC
  8
0
  6
CONTINUOUS
 10
432.252441
 20
478.947937
 40
8.000000
 50
20.496618
 51
90.000000
  0
LINE
  8
0
  6
CONTINUOUS
 10
446.465759
 20
366.947937
 11
301.535736
 21
366.947937
  0
LINE
  8
0
  6
CONTINUOUS
 10
301.535736
 20
456.947937
 11
446.465759
 21
456.947937
  0
LINE
  8
0
  6
CONTINUOUS
 10
373.802368
 20
349.947937
 11
338.543579
 21
349.947937
  0
ARC
  8
0
  6
CONTINUOUS
 10
301.535736
 20
369.947937
 40
3.000000
 50
181.000000
 51
270.000000
  0
ARC
  8
0
  6
CONTINUOUS
 10
301.535736
 20
453.947937
 40
3.000000
 50
90.000000
 51
179.000000
  0
LINE
  8
0
  6
CONTINUOUS
 10
344.802368
 20
369.947937
 11
344.802368
 21
453.947937
  0
LINE
  8
0
  6
CONTINUOUS
 10
402.802368
 20
369.947937
 11
402.802368
 21
453.947937
  0
LINE
  8
0
  6
CONTINUOUS
 10
461.802368
 20
347.947937
 11
461.802368
 21
475.947937
  0
LINE
  8
0
  6
CONTINUOUS
 10
459.230042
 20
347.947937
 11
461.802368
 21
347.947937
  0
LINE
  8
0
  6
CONTINUOUS
 10
333.746735
 20
353.537109
 11
332.743561
 21
356.947937
  0
ARC
  8
0
  6
CONTINUOUS
 10
338.543579
 20
354.947937
 40
5.000000
 50
196.389542
 51
270.000000
  0
LINE
  8
0
  6
CONTINUOUS
 10
318.256256
 20
360.555298
 11
317.448517
 21
363.340546
  0
LINE
  8
0
  6
CONTINUOUS
 10
323.058380
 20
356.947937
 11
332.743561
 21
356.947937
  0
LINE
  8
0
  6
CONTINUOUS
 10
373.802368
 20
349.947937
 11
409.061188
 21
349.947937
  0
LINE
  8
0
  6
CONTINUOUS
 10
373.802368
 20
473.947937
 11
338.543579
 21
473.947937
  0
LINE
  8
0
  6
CONTINUOUS
 10
373.802368
 20
473.947937
 11
409.061188
 21
473.947937
  0
LINE
  8
0
  6
CONTINUOUS
 10
354.802368
 20
291.947937
 11
389.802368
 21
291.947937
  0
LINE
  8
0
  6
CONTINUOUS
 10
389.802368
 20
346.947937
 11
389.802368
 21
291.947937
  0
LINE
  8
0
  6
CONTINUOUS
 10
357.802368
 20
346.947937
 11
357.802368
 21
341.947937
  0
LINE
  8
0
  6
CONTINUOUS
 10
391.302368
 20
346.947937
 11
356.302368
 21
346.947937
  0
LINE
  8
0
  6
CONTINUOUS
 10
391.302368
 20
349.947937
 11
391.302368
 21
346.947937
  0
LINE
  8
0
  6
CONTINUOUS
 10
356.302368
 20
349.947937
 11
356.302368
 21
346.947937
  0
LINE
  8
0
  6
CONTINUOUS
 10
354.802368
 20
336.947937
 11
315.352325
 21
336.947937
  0
LINE
  8
0
  6
CONTINUOUS
 10
354.802368
 20
291.947937
 11
354.802368
 21
341.947937
  0
LINE
  8
0
  6
CONTINUOUS
 10
358.603699
 20
341.947937
 11
354.802368
 21
341.947937
  0
LINE
  8
0
  6
CONTINUOUS
 10
358.603699
 20
341.947937
 11
358.603699
 21
291.947937
  0
LINE
  8
0
  6
CONTINUOUS
 10
373.802368
 20
486.947937
 11
315.352325
 21
486.947937
  0
LINE
  8
0
  6
CENTER
 10
336.178711
 20
351.947937
 11
317.241211
 21
351.947937
  0
LINE
  8
0
  6
CENTER
 10
326.302368
 20
361.100281
 11
326.302368
 21
341.600281
  0
ARC
  8
0
  6
CONTINUOUS
 10
326.302368
 20
351.947937
 40
6.500000
 50
-231.240692
 51
50.284863
  0
ARC
  8
0
  6
CONTINUOUS
 10
421.302368
 20
351.947937
 40
6.500000
 50
-230.284866
 51
51.240688
  0
LINE
  8
0
  6
CENTER
 10
421.302368
 20
361.100281
 11
421.302368
 21
341.600281
  0
LINE
  8
0
  6
CENTER
 10
411.426056
 20
351.947937
 11
430.363556
 21
351.947937
  0
LINE
  8
0
  6
CENTER
 10
717.723755
 20
411.947937
 11
286.381348
 21
411.947937
  0
LINE
  8
0
  6
CONTINUOUS
 10
454.400421
 20
351.653839
 11
451.295380
 21
363.242035
  0
ARC
  8
0
  6
CONTINUOUS
 10
446.465759
 20
361.947937
 40
5.000000
 50
15.000000
 51
90.000000
  0
ARC
  8
0
  6
CONTINUOUS
 10
459.230042
 20
352.947937
 40
5.000000
 50
195.000000
 51
270.000000
  0
LINE
  8
0
  6
CONTINUOUS
 10
459.230042
 20
475.947937
 11
461.802368
 21
475.947937
  0
LINE
  8
0
  6
CONTINUOUS
 10
454.400421
 20
472.242035
 11
451.295380
 21
460.653839
  0
ARC
  8
0
  6
CONTINUOUS
 10
459.230042
 20
470.947937
 40
5.000000
 50
90.000000
 51
165.000000
  0
ARC
  8
0
  6
CONTINUOUS
 10
446.465759
 20
461.947937
 40
5.000000
 50
-90.000000
 51
-15.000000
  0
LINE
  8
0
  6
CONTINUOUS
 10
449.802582
 20
411.947937
 11
449.068542
 21
369.895569
  0
LINE
  8
0
  6
CONTINUOUS
 10
449.802582
 20
411.947937
 11
449.068542
 21
454.000275
  0
ARC
  8
0
  6
CONTINUOUS
 10
446.069000
 20
369.947937
 40
3.000000
 50
270.000000
 51
359.000000
  0
ARC
  8
0
  6
CONTINUOUS
 10
446.069000
 20
453.947937
 40
3.000000
 50
1.000000
 51
90.000000
  0
ARC
  8
0
  6
CONTINUOUS
 10
323.058380
 20
361.947937
 40
5.000000
 50
196.172165
 51
270.000000
  0
ARC
  8
0
  6
CONTINUOUS
 10
312.646362
 20
361.947937
 40
5.000000
 50
16.172159
 51
90.000000
  0
LINE
  8
0
  6
CONTINUOUS
 10
316.402374
 20
366.947937
 11
316.399170
 21
366.959015
  0
ARC
  8
0
  6
CONTINUOUS
 10
409.061188
 20
354.947937
 40
5.000000
 50
270.000000
 51
343.610474
  0
LINE
  8
0
  6
CONTINUOUS
 10
413.858032
 20
353.537109
 11
414.861206
 21
356.947937
  0
LINE
  8
0
  6
CONTINUOUS
 10
429.348511
 20
360.555298
 11
430.156250
 21
363.340546
  0
LINE
  8
0
  6
CONTINUOUS
 10
424.546387
 20
356.947937
 11
414.861206
 21
356.947937
  0
ARC
  8
0
  6
CONTINUOUS
 10
424.546387
 20
361.947937
 40
5.000000
 50
270.000000
 51
343.827850
  0
ARC
  8
0
  6
CONTINUOUS
 10
434.958374
 20
361.947937
 40
5.000000
 50
90.000000
 51
163.827835
  0
LINE
  8
0
  6
CONTINUOUS
 10
431.202393
 20
366.947937
 11
431.205597
 21
366.959015
  0
ARC
  8
0
  6
CONTINUOUS
 10
421.302368
 20
471.947937
 40
6.500000
 50
-51.240688
 51
230.284866
  0
LINE
  8
0
  6
CENTER
 10
411.426056
 20
471.947937
 11
430.363556
 21
471.947937
  0
ARC
  8
0
  6
CONTINUOUS
 10
409.061188
 20
468.947937
 40
5.000000
 50
16.389540
 51
90.000000
  0
LINE
  8
0
  6
CONTINUOUS
 10
413.858032
 20
470.358765
 11
414.861206
 21
466.947937
  0
LINE
  8
0
  6
CONTINUOUS
 10
429.348511
 20
463.340546
 11
430.156250
 21
460.555298
  0
LINE
  8
0
  6
CONTINUOUS
 10
424.546387
 20
466.947937
 11
414.861206
 21
466.947937
  0
ARC
  8
0
  6
CONTINUOUS
 10
424.546387
 20
461.947937
 40
5.000000
 50
16.172159
 51
90.000000
  0
ARC
  8
0
  6
CONTINUOUS
 10
434.958374
 20
461.947937
 40
5.000000
 50
196.172165
 51
270.000000
  0
LINE
  8
0
  6
CONTINUOUS
 10
431.202393
 20
456.947937
 11
431.205597
 21
456.936829
  0
LINE
  8
0
  6
CENTER
 10
421.302368
 20
462.795593
 11
421.302368
 21
482.295593
  0
LINE
  8
0
  6
CONTINUOUS
 10
333.746735
 20
470.358765
 11
332.743561
 21
466.947937
  0
ARC
  8
0
  6
CONTINUOUS
 10
338.543579
 20
468.947937
 40
5.000000
 50
90.000000
 51
163.610458
  0
LINE
  8
0
  6
CONTINUOUS
 10
318.256256
 20
463.340546
 11
317.448517
 21
460.555298
  0
LINE
  8
0
  6
CONTINUOUS
 10
323.058380
 20
466.947937
 11
332.743561
 21
466.947937
  0
LINE
  8
0
  6
CENTER
 10
336.178711
 20
471.947937
 11
317.241211
 21
471.947937
  0
LINE
  8
0
  6
CENTER
 10
326.302368
 20
462.795593
 11
326.302368
 21
482.295593
  0
ARC
  8
0
  6
CONTINUOUS
 10
326.302368
 20
471.947937
 40
6.500000
 50
-50.284863
 51
231.240692
  0
ARC
  8
0
  6
CONTINUOUS
 10
323.058380
 20
461.947937
 40
5.000000
 50
90.000000
 51
163.827835
  0
ARC
  8
0
  6
CONTINUOUS
 10
312.646362
 20
461.947937
 40
5.000000
 50
-90.000000
 51
-16.172159
  0
LINE
  8
0
  6
CONTINUOUS
 10
316.402374
 20
456.947937
 11
316.399170
 21
456.936829
  0
LINE
  8
0
  6
CENTER
 10
81.174248
 20
-1.230000
 11
81.174248
 21
235.035004
  0
LINE
  8
0
  6
CENTER
 10
7.085000
 20
108.889999
 11
155.854996
 21
108.889999
  0
LINE
  8
0
  6
CENTER
 10
4.141868
 20
153.889999
 11
215.351257
 21
153.889999
  0
LINE
  8
0
  6
CENTER
 10
141.174255
 20
40.488739
 11
141.174255
 21
2.589620
  0
LINE
  8
0
  6
CENTER
 10
21.174250
 20
40.488739
 11
21.174250
 21
2.589620
  0
LINE
  8
0
  6
CONTINUOUS
 10
6.174250
 20
13.890000
 11
51.174252
 21
13.890000
  0
LINE
  8
0
  6
CONTINUOUS
 10
111.174248
 20
13.890000
 11
156.174255
 21
13.890000
  0
LINE
  8
0
  6
CONTINUOUS
 10
153.674255
 20
31.889999
 11
130.174255
 21
31.889999
  0
LINE
  8
0
  6
CONTINUOUS
 10
8.674250
 20
31.889999
 11
32.174252
 21
31.889999
  0
LINE
  8
0
  6
CONTINUOUS
 10
126.174248
 20
215.156754
 11
126.174248
 21
13.890000
  0
LINE
  8
0
  6
CONTINUOUS
 10
36.174252
 20
201.631195
 11
36.174252
 21
215.156281
  0
LINE
  8
0
  6
CONTINUOUS
 10
156.174255
 20
29.772181
 11
156.174255
 21
13.890000
  0
LINE
  8
0
  6
CONTINUOUS
 10
6.174250
 20
29.772181
 11
6.174250
 21
13.890000
  0
LINE
  8
0
  6
CONTINUOUS
 10
52.674252
 20
15.390000
 11
109.674248
 21
15.390000
  0
LINE
  8
0
  6
CONTINUOUS
 10
123.226646
 20
218.156296
 11
81.174248
 21
218.889999
  0
LINE
  8
0
  6
CONTINUOUS
 10
39.121849
 20
218.155823
 11
81.174248
 21
218.889999
  0
LINE
  8
0
  6
CONTINUOUS
 10
19.174250
 20
118.631195
 11
19.174250
 21
189.148819
  0
LINE
  8
0
  6
CONTINUOUS
 10
143.174255
 20
118.631195
 11
143.174255
 21
189.148819
  0
LINE
  8
0
  6
CONTINUOUS
 10
26.174250
 20
69.646004
 11
26.174250
 21
157.800400
  0
LINE
  8
0
  6
CONTINUOUS
 10
136.174255
 20
69.646019
 11
136.174255
 21
157.800400
  0
LINE
  8
0
  6
DASHED
 10
147.674255
 20
31.889999
 11
147.674255
 21
13.890000
  0
LINE
  8
0
  6
DASHED
 10
134.674255
 20
31.889999
 11
134.674255
 21
13.890000
  0
LINE
  8
0
  6
DASHED
 10
27.674250
 20
31.889999
 11
27.674250
 21
13.890000
  0
LINE
  8
0
  6
DASHED
 10
14.674250
 20
31.889999
 11
14.674250
 21
13.890000
  0
ARC
  8
0
  6
CONTINUOUS
 10
39.174252
 20
215.156281
 40
3.000000
 50
91.000603
 51
180.000000
  0
ARC
  8
0
  6
CONTINUOUS
 10
123.174248
 20
215.156738
 40
3.000000
 50
0.000000
 51
89.000580
  0
LINE
  8
0
  6
CONTINUOUS
 10
32.585049
 20
196.834366
 11
22.763451
 21
193.945618
  0
LINE
  8
0
  6
CONTINUOUS
 10
22.763451
 20
113.834366
 11
23.302851
 21
113.675697
  0
LINE
  8
0
  6
CONTINUOUS
 10
29.781651
 20
64.843857
 11
32.566849
 21
64.036140
  0
LINE
  8
0
  6
CONTINUOUS
 10
8.263250
 20
32.238159
 11
33.667450
 21
36.472198
  0
LINE
  8
0
  6
CONTINUOUS
 10
154.085251
 20
32.238178
 11
128.681046
 21
36.472221
  0
LINE
  8
0
  6
CONTINUOUS
 10
132.566849
 20
64.843857
 11
129.781647
 21
64.036140
  0
LINE
  8
0
  6
CONTINUOUS
 10
139.585052
 20
113.834366
 11
139.045654
 21
113.675690
  0
LINE
  8
0
  6
CONTINUOUS
 10
139.585052
 20
193.945633
 11
129.763443
 21
196.834366
  0
LINE
  8
0
  6
CONTINUOUS
 10
38.748650
 20
186.389999
 11
123.426849
 21
186.389999
  0
ARC
  8
0
  6
CONTINUOUS
 10
24.174250
 20
189.148834
 40
5.000000
 50
106.389900
 51
180.000000
  0
ARC
  8
0
  6
CONTINUOUS
 10
138.174255
 20
189.148804
 40
5.000000
 50
0.000000
 51
73.610527
  0
ARC
  8
0
  6
CONTINUOUS
 10
24.174250
 20
118.631226
 40
5.000000
 50
180.000000
 51
253.610794
  0
ARC
  8
0
  6
CONTINUOUS
 10
138.174255
 20
118.631187
 40
5.000000
 50
-73.610321
 51
0.000000
  0
ARC
  8
0
  6
CONTINUOUS
 10
131.174255
 20
69.646004
 40
5.000000
 50
-73.827698
 51
0.000000
  0
ARC
  8
0
  6
CONTINUOUS
 10
31.174250
 20
69.646042
 40
5.000000
 50
180.000000
 51
253.828201
  0
LINE
  8
0
  6
CONTINUOUS
 10
36.174252
 20
201.631195
 11
36.174252
 21
13.890000
  0
ARC
  8
0
  6
CONTINUOUS
 10
31.174250
 20
201.631180
 40
5.000000
 50
-73.610229
 51
0.000000
  0
ARC
  8
0
  6
CONTINUOUS
 10
22.174250
 20
109.838219
 40
4.000000
 50
0.000000
 51
73.610649
  0
ARC
  8
0
  6
CONTINUOUS
 10
31.174250
 20
59.233978
 40
5.000000
 50
0.000000
 51
73.827919
  0
ARC
  8
0
  6
CONTINUOUS
 10
131.174255
 20
59.234020
 40
5.000000
 50
106.172501
 51
180.000000
  0
ARC
  8
0
  6
CONTINUOUS
 10
140.174255
 20
109.838249
 40
4.000000
 50
106.389999
 51
180.000000
  0
ARC
  8
0
  6
CONTINUOUS
 10
131.174255
 20
201.631226
 40
5.000000
 50
180.000000
 51
253.610794
  0
ARC
  8
0
  6
CONTINUOUS
 10
33.174252
 20
39.431381
 40
3.000000
 50
-80.537483
 51
0.000000
  0
ARC
  8
0
  6
CONTINUOUS
 10
32.174252
 20
35.889961
 40
4.000000
 50
-90.000000
 51
0.000000
  0
ARC
  8
0
  6
CONTINUOUS
 10
8.674250
 20
29.390020
 40
2.500000
 50
90.000000
 51
180.000000
  0
LINE
  8
0
  6
CONTINUOUS
 10
51.174252
 20
13.890000
 11
52.674252
 21
15.390000
  0
LINE
  8
0
  6
CONTINUOUS
 10
111.174248
 20
13.890000
 11
109.674248
 21
15.390000
  0
ARC
  8
0
  6
CONTINUOUS
 10
129.174255
 20
39.431419
 40
3.000000
 50
180.000000
 51
260.537903
  0
ARC
  8
0
  6
CONTINUOUS
 10
130.174255
 20
35.889999
 40
4.000000
 50
180.000000
 51
270.000000
  0
ARC
  8
0
  6
CONTINUOUS
 10
153.674255
 20
29.389999
 40
2.500000
 50
0.000000
 51
90.000000
  0
LINE
  8
0
  6
CONTINUOUS
 10
201.174255
 20
137.889999
 11
201.174255
 21
169.889999
  0
LINE
  8
0
  6
CONTINUOUS
 10
146.174255
 20
169.889999
 11
201.174255
 21
169.889999
  0
LINE
  8
0
  6
CONTINUOUS
 10
146.174255
 20
137.889999
 11
201.174255
 21
137.889999
  0
LINE
  8
0
  6
CONTINUOUS
 10
146.174255
 20
171.389999
 11
146.174255
 21
136.389999
  0
LINE
  8
0
  6
CONTINUOUS
 10
143.174255
 20
171.389999
 11
146.174255
 21
171.389999
  0
LINE
  8
0
  6
CONTINUOUS
 10
143.174255
 20
136.389999
 11
146.174255
 21
136.389999
  0
ARC
  8
0
  6
CONTINUOUS
 10
156.174255
 20
153.889999
 40
5.000000
 50
90.000000
 51
270.000000
  0
LINE
  8
0
  6
CONTINUOUS
 10
156.174255
 20
158.889999
 11
201.174255
 21
158.889999
  0
LINE
  8
0
  6
CONTINUOUS
 10
156.174255
 20
148.889999
 11
201.174255
 21
148.889999
  0
ARC
  8
0
  6
CONTINUOUS
 10
8.674250
 20
29.772200
 40
2.500000
 50
99.462753
 51
180.000000
  0
ARC
  8
0
  6
CONTINUOUS
 10
153.674255
 20
29.772181
 40
2.500000
 50
0.000000
 51
80.537682
  0
LINE
  8
0
  6
CONTINUOUS
 10
461.802368
 20
172.889999
 11
461.802368
 21
44.889999
  0
ARC
  8
0
  6
CONTINUOUS
 10
81.174248
 20
108.889999
 40
64.000000
 50
165.638489
 51
210.753525
  0
ARC
  8
0
  6
CONTINUOUS
 10
81.174248
 20
108.889999
 40
64.000000
 50
-30.753519
 51
14.361512
  0
ARC
  8
0
  6
CONTINUOUS
 10
40.162048
 20
67.877777
 40
8.000000
 50
211.001404
 51
233.216995
  0
ARC
  8
0
  6
CONTINUOUS
 10
34.174252
 20
59.868660
 40
2.000000
 50
30.947910
 51
53.217121
  0
ARC
  8
0
  6
CONTINUOUS
 10
122.186447
 20
67.877777
 40
8.000000
 50
-53.216999
 51
-31.001400
  0
ARC
  8
0
  6
CONTINUOUS
 10
128.174255
 20
59.868660
 40
2.000000
 50
126.782883
 51
149.052094
  0
LINE
  8
0
  6
CENTER
 10
708.927490
 20
95.889999
 11
416.916016
 21
95.889999
  0
LINE
  8
0
  6
CENTER
 10
549.839050
 20
108.889999
 11
416.916016
 21
108.889999
  0
LINE
  8
0
  6
CONTINUOUS
 10
470.302368
 20
473.947937
 11
470.302368
 21
349.947937
  0
LINE
  8
0
  6
CONTINUOUS
 10
516.302368
 20
366.947937
 11
472.738770
 21
365.426666
  0
LINE
  8
0
  6
CONTINUOUS
 10
516.302368
 20
456.947937
 11
472.738770
 21
458.469208
  0
LINE
  8
0
  6
CONTINUOUS
 10
516.302368
 20
362.935944
 11
516.302368
 21
460.959930
  0
LINE
  8
0
  6
CONTINUOUS
 10
468.302368
 20
347.947937
 11
461.802368
 21
347.947937
  0
LINE
  8
0
  6
CONTINUOUS
 10
468.302368
 20
475.947937
 11
461.802368
 21
475.947937
  0
LINE
  8
0
  6
CONTINUOUS
 10
477.445374
 20
387.947937
 11
470.330414
 21
387.947937
  0
LINE
  8
0
  6
CONTINUOUS
 10
476.840240
 20
435.947937
 11
470.330414
 21
435.947937
  0
LINE
  8
0
  6
CONTINUOUS
 10
477.445374
 20
390.152435
 11
477.445374
 21
433.865021
  0
LINE
  8
0
  6
CONTINUOUS
 10
525.302368
 20
368.947937
 11
525.302368
 21
382.947937
  0
LINE
  8
0
  6
CONTINUOUS
 10
635.302368
 20
366.947937
 11
516.302368
 21
366.947937
  0
LINE
  8
0
  6
CONTINUOUS
 10
635.302368
 20
456.947937
 11
516.302368
 21
456.947937
  0
LINE
  8
0
  6
CONTINUOUS
 10
635.302368
 20
382.947937
 11
525.302368
 21
382.947937
  0
LINE
  8
0
  6
CONTINUOUS
 10
635.302368
 20
440.947937
 11
525.302368
 21
440.947937
  0
ARC
  8
0
  6
CONTINUOUS
 10
523.302368
 20
368.947906
 40
2.000000
 50
-90.000000
 51
0.000000
  0
ARC
  8
0
  6
CONTINUOUS
 10
523.302368
 20
454.947937
 40
2.000000
 50
0.000000
 51
90.000000
  0
LINE
  8
0
  6
CONTINUOUS
 10
516.302368
 20
366.947937
 11
516.302368
 21
456.947937
  0
ARC
  8
0
  6
CONTINUOUS
 10
468.302368
 20
349.947937
 40
2.000000
 50
-90.000000
 51
0.000000
  0
ARC
  8
0
  6
CONTINUOUS
 10
468.302368
 20
473.947937
 40
2.000000
 50
0.000000
 51
90.000000
  0
ARC
  8
0
  6
CONTINUOUS
 10
472.826019
 20
362.928192
 40
2.500000
 50
92.000000
 51
179.895706
  0
ARC
  8
0
  6
CONTINUOUS
 10
472.826019
 20
460.967682
 40
2.500000
 50
180.104294
 51
268.000000
  0
LINE
  8
0
  6
CONTINUOUS
 10
470.302368
 20
365.341583
 11
470.330414
 21
365.342560
  0
LINE
  8
0
  6
CONTINUOUS
 10
515.802673
 20
362.418488
 11
470.302368
 21
360.829590
  0
LINE
  8
0
  6
CONTINUOUS
 10
516.302368
 20
362.935944
 11
515.802673
 21
362.418488
  0
LINE
  8
0
  6
CONTINUOUS
 10
515.802673
 20
461.477386
 11
470.302368
 21
463.066284
  0
LINE
  8
0
  6
CONTINUOUS
 10
516.302368
 20
460.959930
 11
515.802673
 21
461.477386
  0
LINE
  8
0
  6
CONTINUOUS
 10
525.302368
 20
138.889999
 11
525.302368
 21
52.889980
  0
LINE
  8
0
  6
CONTINUOUS
 10
635.302368
 20
140.889999
 11
516.302368
 21
140.889999
  0
LINE
  8
0
  6
CONTINUOUS
 10
635.302368
 20
50.889999
 11
516.302368
 21
50.889999
  0
LINE
  8
0
  6
CONTINUOUS
 10
635.302368
 20
130.299301
 11
526.340088
 21
130.299301
  0
LINE
  8
0
  6
CONTINUOUS
 10
635.302368
 20
61.480701
 11
526.340088
 21
61.480701
  0
ARC
  8
0
  6
CONTINUOUS
 10
523.302368
 20
138.890015
 40
2.000000
 50
0.000000
 51
90.000000
  0
ARC
  8
0
  6
CONTINUOUS
 10
523.302368
 20
52.889999
 40
2.000000
 50
-90.000000
 51
0.000000
  0
LINE
  8
0
  6
CONTINUOUS
 10
468.302368
 20
172.890106
 11
461.802368
 21
172.890106
  0
LINE
  8
0
  6
CONTINUOUS
 10
468.302368
 20
44.889900
 11
461.802368
 21
44.889900
  0
LINE
  8
0
  6
CONTINUOUS
 10
516.302368
 20
140.889999
 11
470.302368
 21
142.496353
  0
LINE
  8
0
  6
CONTINUOUS
 10
461.802368
 20
48.986816
 11
516.302368
 21
50.889999
  0
ARC
  8
0
  6
CONTINUOUS
 10
468.302368
 20
170.890121
 40
2.000000
 50
0.000000
 51
90.000000
  0
ARC
  8
0
  6
CONTINUOUS
 10
468.302368
 20
46.889900
 40
2.000000
 50
-90.000000
 51
-0.260773
  0
LINE
  8
0
  6
CONTINUOUS
 10
516.302368
 20
140.889999
 11
516.302368
 21
50.889999
  0
LINE
  8
0
  6
CONTINUOUS
 10
471.034607
 20
148.657761
 11
476.749115
 21
142.943253
  0
LINE
  8
0
  6
CONTINUOUS
 10
516.302368
 20
75.384003
 11
472.302368
 21
75.384003
  0
LINE
  8
0
  6
CONTINUOUS
 10
516.302368
 20
60.370998
 11
461.802368
 21
60.370998
  0
LINE
  8
0
  6
CONTINUOUS
 10
469.734406
 20
68.322998
 11
461.802368
 21
68.322998
  0
LINE
  8
0
  6
CONTINUOUS
 10
470.302368
 20
69.537735
 11
470.302368
 21
170.890121
  0
ARC
  8
0
  6
CONTINUOUS
 10
472.802338
 20
46.869419
 40
2.500000
 50
92.000000
 51
179.739227
  0
ARC
  8
0
  6
CONTINUOUS
 10
472.802368
 20
150.425537
 40
2.500000
 50
180.000000
 51
225.000000
  0
ARC
  8
0
  6
CONTINUOUS
 10
478.516907
 20
144.711029
 40
2.500000
 50
-135.000000
 51
-92.000000
  0
LINE
  8
0
  6
CENTER
 10
373.802368
 20
232.425003
 11
373.802368
 21
3.257120
  0
LINE
  8
0
  6
CENTER
 10
433.101135
 20
153.889999
 11
312.382507
 21
153.889999
  0
LINE
  8
0
  6
CENTER
 10
326.302368
 20
39.165440
 11
326.302368
 21
5.300700
  0
LINE
  8
0
  6
CENTER
 10
421.302368
 20
39.165440
 11
421.302368
 21
5.008760
  0
LINE
  8
0
  6
CONTINUOUS
 10
449.802368
 20
13.890000
 11
297.802368
 21
13.890000
  0
LINE
  8
0
  6
CONTINUOUS
 10
449.802368
 20
31.889999
 11
297.802368
 21
31.889999
  0
LINE
  8
0
  6
CONTINUOUS
 10
297.802368
 20
182.195557
 11
297.802368
 21
13.890000
  0
LINE
  8
0
  6
CONTINUOUS
 10
449.802368
 20
177.389999
 11
449.802368
 21
182.195557
  0
LINE
  8
0
  6
CONTINUOUS
 10
400.305786
 20
218.889999
 11
347.298981
 21
218.889999
  0
LINE
  8
0
  6
CONTINUOUS
 10
454.802368
 20
172.889999
 11
461.802368
 21
172.889999
  0
LINE
  8
0
  6
CONTINUOUS
 10
454.802368
 20
44.889999
 11
461.802368
 21
44.889999
  0
LINE
  8
0
  6
CONTINUOUS
 10
301.252380
 20
188.775620
 11
342.748993
 21
217.470062
  0
LINE
  8
0
  6
CONTINUOUS
 10
446.352386
 20
188.775620
 11
404.855774
 21
217.470062
  0
ARC
  8
0
  6
CONTINUOUS
 10
347.298981
 20
210.889999
 40
8.000000
 50
90.000000
 51
124.663300
  0
ARC
  8
0
  6
CONTINUOUS
 10
305.802368
 20
182.195526
 40
8.000000
 50
124.663300
 51
180.000000
  0
ARC
  8
0
  6
CONTINUOUS
 10
400.305786
 20
210.889999
 40
8.000000
 50
55.336300
 51
90.000000
  0
ARC
  8
0
  6
CONTINUOUS
 10
441.802368
 20
182.195602
 40
8.000000
 50
0.000000
 51
55.336201
  0
LINE
  8
0
  6
CONTINUOUS
 10
449.802368
 20
40.389999
 11
449.802368
 21
13.890000
  0
ARC
  8
0
  6
CONTINUOUS
 10
454.802368
 20
177.889999
 40
5.000000
 50
180.000000
 51
270.000000
  0
LINE
  8
0
  6
CONTINUOUS
 10
449.802368
 20
40.389999
 11
449.802368
 21
177.389999
  0
ARC
  8
0
  6
CONTINUOUS
 10
454.802368
 20
39.889980
 40
5.000000
 50
90.000000
 51
180.000000
  0
LINE
  8
0
  6
DASHED
 10
427.802368
 20
31.889999
 11
427.802368
 21
13.890000
  0
LINE
  8
0
  6
DASHED
 10
414.802368
 20
31.889999
 11
414.802368
 21
13.890000
  0
LINE
  8
0
  6
DASHED
 10
332.802368
 20
31.889999
 11
332.802368
 21
13.890000
  0
LINE
  8
0
  6
DASHED
 10
319.802368
 20
31.889999
 11
319.802368
 21
13.890000
  0
CIRCLE
  8
0
  6
CONTINUOUS
 10
373.802368
 20
153.889999
 40
39.000000
  0
ARC
  8
0
  6
CONTINUOUS
 10
373.802368
 20
153.889999
 40
44.000000
 50
12.523100
 51
167.476807
  0
ARC
  8
0
  6
CONTINUOUS
 10
399.302368
 20
94.889999
 40
29.000000
 50
-90.000000
 51
12.523100
  0
ARC
  8
0
  6
CONTINUOUS
 10
348.302368
 20
94.889999
 40
29.000000
 50
167.476807
 51
270.000000
  0
ARC
  8
0
  6
CONTINUOUS
 10
399.302368
 20
94.889999
 40
31.900000
 50
-90.000000
 51
12.523100
  0
ARC
  8
0
  6
CONTINUOUS
 10
348.302368
 20
94.889999
 40
31.900000
 50
167.476807
 51
270.000000
  0
ARC
  8
0
  6
CONTINUOUS
 10
373.802368
 20
153.889999
 40
41.099998
 50
-192.523193
 51
12.523100
  0
LINE
  8
0
  6
CONTINUOUS
 10
430.443390
 20
101.807007
 11
416.755585
 21
163.430695
  0
LINE
  8
0
  6
CONTINUOUS
 10
427.612396
 20
101.178185
 11
413.924591
 21
162.801880
  0
LINE
  8
0
  6
CONTINUOUS
 10
399.302368
 20
62.990002
 11
348.302368
 21
62.990002
  0
LINE
  8
0
  6
CONTINUOUS
 10
348.302368
 20
65.889999
 11
399.302368
 21
65.889999
  0
LINE
  8
0
  6
CONTINUOUS
 10
330.849182
 20
163.430786
 11
317.161377
 21
101.807060
  0
LINE
  8
0
  6
CONTINUOUS
 10
333.680176
 20
162.801956
 11
319.992371
 21
101.178238
  0
ARC
  8
0
  6
CONTINUOUS
 10
270.093567
 20
108.889999
 40
185.208893
 50
-13.998090
 51
13.998090
  0
LINE
  8
0
  6
CONTINUOUS
 10
435.802368
 20
29.823441
 11
435.802368
 21
13.890000
  0
LINE
  8
0
  6
CONTINUOUS
 10
311.802368
 20
29.823441
 11
311.802368
 21
13.890000
  0
LINE
  8
0
  6
CONTINUOUS
 10
350.044983
 20
36.889999
 11
397.559784
 21
36.889999
  0
LINE
  8
0
  6
CONTINUOUS
 10
398.802368
 20
35.954121
 11
398.802368
 21
32.889999
  0
LINE
  8
0
  6
CONTINUOUS
 10
347.923767
 20
36.011318
 11
345.266785
 21
33.354462
  0
LINE
  8
0
  6
CONTINUOUS
 10
399.680969
 20
36.011318
 11
402.337769
 21
33.354500
  0
LINE
  8
0
  6
CONTINUOUS
 10
348.802368
 20
35.954121
 11
348.802368
 21
32.889999
  0
ARC
  8
0
  6
CONTINUOUS
 10
405.873383
 20
36.889999
 40
5.000000
 50
-135.000107
 51
-90.000000
  0
ARC
  8
0
  6
CONTINUOUS
 10
397.559784
 20
33.889999
 40
3.000000
 50
44.999691
 51
90.000000
  0
ARC
  8
0
  6
CONTINUOUS
 10
399.802368
 20
32.889999
 40
1.000000
 50
180.000000
 51
270.000000
  0
ARC
  8
0
  6
CONTINUOUS
 10
341.731384
 20
36.889999
 40
5.000000
 50
-90.000000
 51
-45.000000
  0
ARC
  8
0
  6
CONTINUOUS
 10
350.044983
 20
33.889999
 40
3.000000
 50
90.000000
 51
134.999802
  0
ARC
  8
0
  6
CONTINUOUS
 10
347.802368
 20
32.889999
 40
1.000000
 50
-90.000000
 51
0.000000
  0
LINE
  8
0
  6
CONTINUOUS
 10
361.575378
 20
77.889999
 11
356.634979
 21
77.889999
  0
LINE
  8
0
  6
CONTINUOUS
 10
364.302368
 20
86.165398
 11
364.302368
 21
77.889999
  0
LINE
  8
0
  6
CONTINUOUS
 10
369.052368
 20
89.171249
 11
369.052368
 21
92.139999
  0
LINE
  8
0
  6
CONTINUOUS
 10
378.552368
 20
89.171249
 11
378.552368
 21
92.139999
  0
LINE
  8
0
  6
CONTINUOUS
 10
372.874573
 20
90.395859
 11
372.874573
 21
79.448601
  0
LINE
  8
0
  6
CONTINUOUS
 10
374.655792
 20
90.395859
 11
374.655792
 21
79.448601
  0
LINE
  8
0
  6
CONTINUOUS
 10
384.007385
 20
90.395859
 11
384.007385
 21
79.374382
  0
LINE
  8
0
  6
CONTINUOUS
 10
385.640167
 20
84.551140
 11
385.640167
 21
79.374382
  0
LINE
  8
0
  6
CONTINUOUS
 10
362.048370
 20
90.247421
 11
357.470581
 21
90.247421
  0
LINE
  8
0
  6
CONTINUOUS
 10
357.470581
 20
90.247421
 11
356.397980
 21
88.917419
  0
LINE
  8
0
  6
CONTINUOUS
 10
356.526978
 20
92.139999
 11
354.802368
 21
89.931534
  0
LINE
  8
0
  6
CONTINUOUS
 10
356.397980
 20
80.707840
 11
357.487793
 21
79.559921
  0
LINE
  8
0
  6
CONTINUOUS
 10
354.802368
 20
79.739120
 11
356.634979
 21
77.889999
  0
LINE
  8
0
  6
CONTINUOUS
 10
354.802368
 20
89.931534
 11
354.802368
 21
79.739120
  0
LINE
  8
0
  6
CONTINUOUS
 10
356.397980
 20
88.917419
 11
356.397980
 21
80.707840
  0
LINE
  8
0
  6
CONTINUOUS
 10
362.929382
 20
89.395859
 11
362.030396
 21
90.247421
  0
LINE
  8
0
  6
CONTINUOUS
 10
362.914978
 20
92.139999
 11
364.302368
 21
90.600418
  0
LINE
  8
0
  6
CONTINUOUS
 10
362.929382
 20
89.171249
 11
364.302368
 21
89.171249
  0
LINE
  8
0
  6
CONTINUOUS
 10
356.526978
 20
92.139999
 11
362.914978
 21
92.139999
  0
LINE
  8
0
  6
CONTINUOUS
 10
360.442993
 20
86.165398
 11
364.302368
 21
86.165398
  0
LINE
  8
0
  6
CONTINUOUS
 10
362.929382
 20
84.606796
 11
360.442993
 21
84.606796
  0
LINE
  8
0
  6
CONTINUOUS
 10
359.960571
 20
79.559921
 11
357.487793
 21
79.559921
  0
LINE
  8
0
  6
CONTINUOUS
 10
362.929382
 20
83.122421
 11
362.929382
 21
84.309921
  0
ARC
  8
0
  6
CONTINUOUS
 10
359.960571
 20
82.528664
 40
2.968750
 50
-89.999786
 51
0.000109
  0
LINE
  8
0
  6
CONTINUOUS
 10
362.929382
 20
79.025917
 11
362.929382
 21
77.889999
  0
LINE
  8
0
  6
CONTINUOUS
 10
364.302368
 20
90.600418
 11
364.302368
 21
89.171249
  0
LINE
  8
0
  6
CONTINUOUS
 10
362.929382
 20
84.606796
 11
362.929382
 21
82.528664
  0
LINE
  8
0
  6
CONTINUOUS
 10
360.442993
 20
86.165398
 11
360.442993
 21
84.606796
  0
LINE
  8
0
  6
CONTINUOUS
 10
362.929382
 20
77.889999
 11
364.302368
 21
77.889999
  0
LINE
  8
0
  6
CONTINUOUS
 10
362.929382
 20
79.025917
 11
361.575378
 21
77.889999
  0
LINE
  8
0
  6
CONTINUOUS
 10
374.655792
 20
79.448601
 11
375.249573
 21
79.448601
  0
LINE
  8
0
  6
CONTINUOUS
 10
372.169586
 20
79.448601
 11
372.169586
 21
77.889999
  0
LINE
  8
0
  6
CONTINUOUS
 10
375.249573
 20
79.448601
 11
375.249573
 21
77.889999
  0
LINE
  8
0
  6
CONTINUOUS
 10
377.561371
 20
89.171249
 11
378.552368
 21
89.171249
  0
LINE
  8
0
  6
CONTINUOUS
 10
369.052368
 20
89.171249
 11
370.106995
 21
89.171249
  0
LINE
  8
0
  6
CONTINUOUS
 10
369.052368
 20
92.139999
 11
378.552368
 21
92.139999
  0
LINE
  8
0
  6
CONTINUOUS
 10
372.169586
 20
77.889999
 11
375.249573
 21
77.889999
  0
LINE
  8
0
  6
CONTINUOUS
 10
372.169586
 20
79.448601
 11
372.874573
 21
79.448601
  0
ARC
  8
0
  6
CONTINUOUS
 10
388.998596
 20
88.336281
 40
3.803712
 50
-73.981873
 51
90.003510
  0
ARC
  8
0
  6
CONTINUOUS
 10
388.998596
 20
88.336281
 40
2.320524
 50
-82.585274
 51
62.411850
  0
LINE
  8
0
  6
CONTINUOUS
 10
383.302368
 20
92.139999
 11
388.998596
 21
92.139999
  0
LINE
  8
0
  6
CONTINUOUS
 10
389.298187
 20
86.035156
 11
385.640167
 21
86.035156
  0
LINE
  8
0
  6
CONTINUOUS
 10
383.302368
 20
92.139999
 11
383.302368
 21
90.395859
  0
LINE
  8
0
  6
CONTINUOUS
 10
385.640167
 20
90.395859
 11
385.640167
 21
86.035156
  0
LINE
  8
0
  6
CONTINUOUS
 10
390.048187
 20
84.680260
 11
392.402588
 21
79.374382
  0
LINE
  8
0
  6
CONTINUOUS
 10
388.680969
 20
84.551140
 11
390.908783
 21
79.374382
  0
LINE
  8
0
  6
CONTINUOUS
 10
383.302368
 20
79.374382
 11
384.007385
 21
79.374382
  0
LINE
  8
0
  6
CONTINUOUS
 10
385.640167
 20
79.374382
 11
386.289795
 21
79.374382
  0
LINE
  8
0
  6
CONTINUOUS
 10
386.289795
 20
77.889999
 11
383.302368
 21
77.889999
  0
LINE
  8
0
  6
CONTINUOUS
 10
390.612976
 20
79.374382
 11
390.908783
 21
79.374382
  0
LINE
  8
0
  6
CONTINUOUS
 10
392.402588
 20
79.374382
 11
392.802368
 21
79.374382
  0
LINE
  8
0
  6
CONTINUOUS
 10
390.612976
 20
77.889999
 11
392.802368
 21
77.889999
  0
LINE
  8
0
  6
CONTINUOUS
 10
392.802368
 20
79.374382
 11
392.802368
 21
77.889999
  0
LINE
  8
0
  6
CONTINUOUS
 10
390.612976
 20
79.374382
 11
390.612976
 21
77.889999
  0
LINE
  8
0
  6
CONTINUOUS
 10
386.289795
 20
79.374382
 11
386.289795
 21
77.889999
  0
LINE
  8
0
  6
CONTINUOUS
 10
383.302368
 20
79.374382
 11
383.302368
 21
77.889999
  0
LINE
  8
0
  6
CONTINUOUS
 10
370.617188
 20
90.395859
 11
370.106995
 21
89.171249
  0
LINE
  8
0
  6
CONTINUOUS
 10
377.131195
 20
90.395859
 11
377.561371
 21
89.171249
  0
LINE
  8
0
  6
CONTINUOUS
 10
374.655792
 20
90.395859
 11
377.131195
 21
90.395859
  0
LINE
  8
0
  6
CONTINUOUS
 10
372.874573
 20
90.395859
 11
370.617188
 21
90.395859
  0
LINE
  8
0
  6
CONTINUOUS
 10
385.640167
 20
84.551140
 11
388.680969
 21
84.551140
  0
LINE
  8
0
  6
CONTINUOUS
 10
383.302368
 20
90.395859
 11
384.007385
 21
90.395859
  0
LINE
  8
0
  6
CONTINUOUS
 10
385.640167
 20
90.395859
 11
390.073395
 21
90.392975
  0
LINE
  8
0
  6
CONTINUOUS
 10
362.929382
 20
89.395859
 11
362.929382
 21
89.171249
  0
LINE
  8
0
  6
CONTINUOUS
 10
445.802368
 20
162.667099
 11
445.802368
 21
91.112930
  0
LINE
  8
0
  6
CONTINUOUS
 10
301.802368
 20
162.667099
 11
301.802368
 21
91.112923
  0
ARC
  8
0
  6
CONTINUOUS
 10
373.802368
 20
126.890007
 40
88.000000
 50
228.189804
 51
311.810791
  0
ARC
  8
0
  6
CONTINUOUS
 10
373.802368
 20
126.890007
 40
88.000000
 50
48.217949
 51
131.810501
  0
ARC
  8
0
  6
CONTINUOUS
 10
341.802368
 20
162.667099
 40
40.000000
 50
131.810806
 51
180.000000
  0
ARC
  8
0
  6
CONTINUOUS
 10
405.802368
 20
162.667099
 40
40.000000
 50
0.000000
 51
48.251911
  0
ARC
  8
0
  6
CONTINUOUS
 10
405.802368
 20
91.112915
 40
40.000000
 50
-48.187901
 51
0.000000
  0
ARC
  8
0
  6
CONTINUOUS
 10
341.802368
 20
91.112915
 40
40.000000
 50
180.000000
 51
228.190094
  0
LINE
  8
0
  6
CONTINUOUS
 10
362.802368
 20
158.889999
 11
362.802368
 21
148.889999
  0
LINE
  8
0
  6
CONTINUOUS
 10
354.802368
 20
158.889999
 11
354.802368
 21
148.889999
  0
LINE
  8
0
  6
CONTINUOUS
 10
354.802368
 20
158.889999
 11
362.802368
 21
158.889999
  0
LINE
  8
0
  6
CONTINUOUS
 10
354.802368
 20
148.889999
 11
362.802368
 21
148.889999
  0
ARC
  8
0
  6
CONTINUOUS
 10
373.802368
 20
153.889999
 40
16.000000
 50
-161.790100
 51
161.790100
  0
LINE
  8
0
  6
CONTINUOUS
 10
644.802368
 20
366.947937
 11
635.302368
 21
366.947937
  0
LINE
  8
0
  6
CONTINUOUS
 10
635.302368
 20
382.947937
 11
644.802368
 21
382.947937
  0
LINE
  8
0
  6
CONTINUOUS
 10
644.802368
 20
456.947937
 11
635.302368
 21
456.947937
  0
LINE
  8
0
  6
CONTINUOUS
 10
635.302368
 20
456.947937
 11
635.302368
 21
436.947937
  0
LINE
  8
0
  6
CONTINUOUS
 10
635.302368
 20
440.947937
 11
644.802368
 21
440.947937
  0
LINE
  8
0
  6
CONTINUOUS
 10
635.302368
 20
386.947937
 11
635.302368
 21
366.947937
  0
LINE
  8
0
  6
CONTINUOUS
 10
644.802368
 20
364.947937
 11
644.802368
 21
404.447937
  0
LINE
  8
0
  6
CONTINUOUS
 10
644.802368
 20
382.947937
 11
688.777405
 21
382.947937
  0
LINE
  8
0
  6
CONTINUOUS
 10
644.802368
 20
440.947937
 11
688.777405
 21
440.947937
  0
LINE
  8
0
  6
CONTINUOUS
 10
687.302429
 20
364.947937
 11
644.802368
 21
364.947937
  0
LINE
  8
0
  6
CONTINUOUS
 10
687.302429
 20
458.947937
 11
644.802368
 21
458.947937
  0
ARC
  8
0
  6
CONTINUOUS
 10
687.302368
 20
369.947937
 40
5.000000
 50
-90.000000
 51
0.000000
  0
ARC
  8
0
  6
CONTINUOUS
 10
687.302429
 20
453.947937
 40
5.000000
 50
0.000000
 51
90.000000
  0
LINE
  8
0
  6
CONTINUOUS
 10
692.302368
 20
369.947937
 11
692.302429
 21
453.947937
  0
LINE
  8
0
  6
CONTINUOUS
 10
644.802368
 20
140.889999
 11
635.302368
 21
140.889999
  0
LINE
  8
0
  6
CONTINUOUS
 10
635.302368
 20
130.299301
 11
644.802368
 21
130.299301
  0
LINE
  8
0
  6
CONTINUOUS
 10
644.802368
 20
50.889999
 11
635.302368
 21
50.889999
  0
LINE
  8
0
  6
CONTINUOUS
 10
635.302368
 20
61.480709
 11
644.802368
 21
61.480709
  0
LINE
  8
0
  6
CONTINUOUS
 10
644.802368
 20
142.889999
 11
644.802368
 21
48.889999
  0
LINE
  8
0
  6
CONTINUOUS
 10
644.802368
 20
124.889999
 11
688.777405
 21
124.889999
  0
LINE
  8
0
  6
CONTINUOUS
 10
644.802368
 20
66.889999
 11
688.777405
 21
66.889999
  0
LINE
  8
0
  6
CONTINUOUS
 10
687.302429
 20
142.889999
 11
644.802368
 21
142.889999
  0
LINE
  8
0
  6
CONTINUOUS
 10
687.302429
 20
48.889999
 11
644.802368
 21
48.889999
  0
ARC
  8
0
  6
CONTINUOUS
 10
687.302368
 20
137.889999
 40
5.000000
 50
0.000000
 51
90.000000
  0
ARC
  8
0
  6
CONTINUOUS
 10
687.302429
 20
53.889999
 40
5.000000
 50
-90.000000
 51
0.000000
  0
LINE
  8
0
  6
CONTINUOUS
 10
692.302368
 20
137.889999
 11
692.302429
 21
53.889992
  0
LINE
  8
0
  6
CONTINUOUS
 10
635.302368
 20
50.889999
 11
635.302368
 21
140.889999
  0
LINE
  8
0
  6
CONTINUOUS
 10
645.302368
 20
404.447937
 11
644.302368
 21
404.447937
  0
ARC
  8
0
  6
CONTINUOUS
 10
645.302368
 20
405.447937
 40
1.000000
 50
-90.000000
 51
0.000000
  0
LINE
  8
0
  6
CONTINUOUS
 10
649.802368
 20
407.947937
 11
649.802368
 21
415.947937
  0
LINE
  8
0
  6
CONTINUOUS
 10
649.802368
 20
407.947937
 11
646.302368
 21
406.447937
  0
LINE
  8
0
  6
CONTINUOUS
 10
649.802368
 20
415.947937
 11
646.302368
 21
417.447937
  0
LINE
  8
0
  6
CONTINUOUS
 10
646.302368
 20
405.447937
 11
646.302368
 21
418.447937
  0
LINE
  8
0
  6
CONTINUOUS
 10
645.302368
 20
419.447937
 11
644.302368
 21
419.447937
  0
ARC
  8
0
  6
CONTINUOUS
 10
645.302368
 20
418.447937
 40
1.000000
 50
0.000000
 51
90.000000
  0
LINE
  8
0
  6
CONTINUOUS
 10
644.302368
 20
434.947937
 11
644.302368
 21
388.947937
  0
LINE
  8
0
  6
CONTINUOUS
 10
642.302368
 20
386.947937
 11
644.302368
 21
388.947937
  0
LINE
  8
0
  6
CONTINUOUS
 10
642.302368
 20
386.947937
 11
596.302368
 21
386.947937
  0
LINE
  8
0
  6
CONTINUOUS
 10
601.802368
 20
391.447937
 11
601.802368
 21
386.947937
  0
ARC
  8
0
  6
CONTINUOUS
 10
598.802368
 20
391.447937
 40
3.000000
 50
0.000000
 51
90.000000
  0
LINE
  8
0
  6
CONTINUOUS
 10
598.802368
 20
394.447937
 11
594.302368
 21
394.447937
  0
CIRCLE
  8
0
  6
CONTINUOUS
 10
597.802368
 20
390.447937
 40
2.250000
  0
LINE
  8
0
  6
CONTINUOUS
 10
594.302368
 20
434.947937
 11
594.302368
 21
388.947937
  0
LINE
  8
0
  6
CONTINUOUS
 10
596.302368
 20
386.947937
 11
594.302368
 21
388.947937
  0
LINE
  8
0
  6
CONTINUOUS
 10
596.302368
 20
436.947937
 11
594.302368
 21
434.947937
  0
LINE
  8
0
  6
CONTINUOUS
 10
596.302368
 20
436.947937
 11
642.302368
 21
436.947937
  0
LINE
  8
0
  6
CONTINUOUS
 10
644.302368
 20
434.947937
 11
642.302368
 21
436.947937
  0
LINE
  8
0
  6
CONTINUOUS
 10
639.802368
 20
429.447937
 11
644.302368
 21
429.447937
  0
CIRCLE
  8
0
  6
CONTINUOUS
 10
640.802368
 20
433.447937
 40
2.250000
  0
ARC
  8
0
  6
CONTINUOUS
 10
639.802368
 20
432.447937
 40
3.000000
 50
180.000000
 51
270.000000
  0
LINE
  8
0
  6
CONTINUOUS
 10
636.802368
 20
432.447937
 11
636.802368
 21
436.947937
  0
LINE
  8
0
  6
CENTER
 10
619.302368
 20
444.413727
 11
619.302368
 21
380.281708
  0
LINE
  8
0
  6
CONTINUOUS
 10
641.888184
 20
387.947937
 11
643.302368
 21
389.362152
  0
LINE
  8
0
  6
CONTINUOUS
 10
643.302368
 20
429.447937
 11
643.302368
 21
389.362152
  0
LINE
  8
0
  6
CONTINUOUS
 10
601.802368
 20
387.947937
 11
641.888184
 21
387.947937
  0
LINE
  8
0
  6
CONTINUOUS
 10
595.302368
 20
394.447937
 11
595.302368
 21
434.533722
  0
LINE
  8
0
  6
CONTINUOUS
 10
636.802368
 20
435.947937
 11
596.716614
 21
435.947937
  0
LINE
  8
0
  6
CONTINUOUS
 10
596.716614
 20
435.947937
 11
595.302368
 21
434.533722
  0
LINE
  8
0
  6
CONTINUOUS
 10
644.802368
 20
419.447937
 11
644.802368
 21
458.947937
  0
LINE
  8
0
  6
CONTINUOUS
 10
642.802368
 20
142.389999
 11
596.302368
 21
142.389999
  0
LINE
  8
0
  6
CONTINUOUS
 10
594.302368
 20
172.389999
 11
594.302368
 21
144.389999
  0
LINE
  8
0
  6
CONTINUOUS
 10
644.302368
 20
172.389999
 11
644.302368
 21
144.389999
  0
LINE
  8
0
  6
CONTINUOUS
 10
646.302368
 20
154.389999
 11
594.302368
 21
154.389999
  0
LINE
  8
0
  6
CONTINUOUS
 10
596.302368
 20
142.389999
 11
594.302368
 21
144.389999
  0
LINE
  8
0
  6
CONTINUOUS
 10
644.302368
 20
144.389999
 11
642.302368
 21
142.389999
  0
LINE
  8
0
  6
CONTINUOUS
 10
644.302368
 20
144.389999
 11
594.302368
 21
144.389999
  0
LINE
  8
0
  6
CONTINUOUS
 10
643.302368
 20
173.389999
 11
595.302368
 21
173.389999
  0
LINE
  8
0
  6
CONTINUOUS
 10
595.302368
 20
173.389999
 11
594.302368
 21
172.389999
  0
LINE
  8
0
  6
CONTINUOUS
 10
643.302368
 20
173.389999
 11
644.302368
 21
172.389999
  0
LINE
  8
0
  6
CONTINUOUS
 10
644.302368
 20
172.389999
 11
594.302368
 21
172.389999
  0
LINE
  8
0
  6
CENTER
 10
652.246155
 20
163.889999
 11
640.171143
 21
163.889999
  0
LINE
  8
0
  6
CONTINUOUS
 10
646.302368
 20
170.389999
 11
646.302368
 21
154.389999
  0
LINE
  8
0
  6
CONTINUOUS
 10
645.302368
 20
171.389999
 11
644.302368
 21
171.389999
  0
ARC
  8
0
  6
CONTINUOUS
 10
645.302368
 20
170.389999
 40
1.000000
 50
0.000000
 51
90.000000
  0
LINE
  8
0
  6
CONTINUOUS
 10
649.802368
 20
167.889999
 11
649.802368
 21
159.889999
  0
LINE
  8
0
  6
CONTINUOUS
 10
649.802368
 20
167.889999
 11
646.302368
 21
169.389999
  0
LINE
  8
0
  6
CONTINUOUS
 10
649.802368
 20
159.889999
 11
646.302368
 21
158.389999
  0
LINE
  8
0
  6
CENTER
 10
619.302368
 20
137.696243
 11
619.302368
 21
178.777496
  0
LINE
  8
0
  6
CONTINUOUS
 10
642.802368
 20
142.389999
 11
642.802368
 21
140.889999
  0
LINE
  8
0
  6
CONTINUOUS
 10
596.802368
 20
142.389999
 11
596.802368
 21
140.889999
  0
LINE
  8
0
  6
CONTINUOUS
 10
525.302368
 20
440.947937
 11
525.302368
 21
454.947937
  0
TEXT
  8
0
 10
4.000000
 20
-1.000000
 40
4.000000
 41
1.000000
  1
HLM-32L-1200~1800-S60T
 50
0.000000
  0
ENDSEC
  0
EOF
