  0
SECTION
  2
HEADER
  9
$CLAYER
  8
1
  9
$LTSCALE
 40
3.0
  0
ENDSEC
  0
SECTION
  2
TABLES
  0
TABLE
  2
LTYPE
 70
     4
  0
LTYPE
  2
CONTINUOUS
  3
solid line
 70
    64
 72
    65
 73
     0
 40
0.0
  0
LTYPE
  2
DASHED
  3
__ __ __ __ __ __ __ __ __ __ __ __ __ __ __
 70
    64
 72
    65
 73
     2
 40
0.75
 49
0.5
 49
-0.25
  0
LTYPE
  2
CENTER
  3
____ _ ____ _ ____ _ ____ _ ____ _ ____ _ ____
 70
    64
 72
    65
 73
     4
 40
2.0
 49
1.25
 49
-0.25
 49
0.25
 49
-0.25
  0
LTYPE
  2
PHANTOM
  3
_____ _ _ _____ _ _ _____ _ _ _____ _ _ ____
 70
    64
 72
    65
 73
     6
 40
2.5
 49
1.25
 49
-0.25
 49
0.25
 49
-0.25
 49
0.25
 49
-0.25
  0
ENDTAB
  0
TABLE
  2
LAYER
 70
     1
  0
LAYER
  2
0
 70
    64
 62
     7
  6
CONTINUOUS
  0
ENDTAB
  0
TABLE
  2
STYLE
 70
     1
  0
STYLE
  2
STANDARD
 70
     0
 40
0.000000
 41
1.000000
 50
0.000000
 71
     0
 42
3.000000
  3
txt
  4
BIGFONT
  0
ENDTAB
  0
ENDSEC
  0
SECTION
  2
BLOCKS
  0
ENDSEC
  0
SECTION
  2
ENTITIES
  0
LINE
  8
0
  6
CENTER
 10
375.462372
 20
287.594177
 11
375.462372
 21
508.822510
  0
LINE
  8
0
  6
CONTINUOUS
 10
299.462189
 20
415.656677
 11
300.247650
 21
370.656677
  0
LINE
  8
0
  6
CONTINUOUS
 10
433.912445
 20
340.656677
 11
391.462372
 21
340.656677
  0
LINE
  8
0
  6
CONTINUOUS
 10
309.518799
 20
345.855469
 11
300.247650
 21
370.656677
  0
ARC
  8
0
  6
CONTINUOUS
 10
317.012329
 20
348.656677
 40
8.000000
 50
200.496613
 51
270.000000
  0
LINE
  8
0
  6
CONTINUOUS
 10
299.462189
 20
415.656677
 11
300.247650
 21
460.656677
  0
LINE
  8
0
  6
CONTINUOUS
 10
433.912445
 20
490.656677
 11
375.462372
 21
490.656677
  0
LINE
  8
0
  6
CONTINUOUS
 10
309.518799
 20
485.457886
 11
300.247650
 21
460.656677
  0
ARC
  8
0
  6
CONTINUOUS
 10
317.012329
 20
482.656677
 40
8.000000
 50
90.000000
 51
159.503387
  0
LINE
  8
0
  6
CONTINUOUS
 10
441.405975
 20
345.855469
 11
450.460754
 21
370.077942
  0
ARC
  8
0
  6
CONTINUOUS
 10
433.912445
 20
348.656677
 40
8.000000
 50
270.000000
 51
339.503387
  0
LINE
  8
0
  6
CONTINUOUS
 10
441.405975
 20
485.457886
 11
450.460754
 21
461.235413
  0
ARC
  8
0
  6
CONTINUOUS
 10
433.912445
 20
482.656677
 40
8.000000
 50
20.496618
 51
90.000000
  0
LINE
  8
0
  6
CONTINUOUS
 10
448.125763
 20
370.656677
 11
303.195740
 21
370.656677
  0
LINE
  8
0
  6
CONTINUOUS
 10
303.195740
 20
460.656677
 11
448.125763
 21
460.656677
  0
LINE
  8
0
  6
CONTINUOUS
 10
375.462372
 20
353.656677
 11
340.203583
 21
353.656677
  0
ARC
  8
0
  6
CONTINUOUS
 10
303.195740
 20
373.656677
 40
3.000000
 50
181.000000
 51
270.000000
  0
ARC
  8
0
  6
CONTINUOUS
 10
303.195740
 20
457.656677
 40
3.000000
 50
90.000000
 51
179.000000
  0
LINE
  8
0
  6
CONTINUOUS
 10
346.462372
 20
373.656677
 11
346.462372
 21
457.656677
  0
LINE
  8
0
  6
CONTINUOUS
 10
404.462372
 20
373.656677
 11
404.462372
 21
457.656677
  0
LINE
  8
0
  6
CONTINUOUS
 10
463.462372
 20
351.656677
 11
463.462372
 21
479.656677
  0
LINE
  8
0
  6
CONTINUOUS
 10
460.890045
 20
351.656677
 11
463.462372
 21
351.656677
  0
LINE
  8
0
  6
CONTINUOUS
 10
335.406738
 20
357.245850
 11
334.403564
 21
360.656677
  0
ARC
  8
0
  6
CONTINUOUS
 10
340.203583
 20
358.656677
 40
5.000000
 50
196.389542
 51
270.000000
  0
LINE
  8
0
  6
CONTINUOUS
 10
319.916229
 20
364.264069
 11
319.108521
 21
367.049316
  0
LINE
  8
0
  6
CONTINUOUS
 10
324.718384
 20
360.656677
 11
334.403564
 21
360.656677
  0
LINE
  8
0
  6
CONTINUOUS
 10
375.462372
 20
353.656677
 11
410.721191
 21
353.656677
  0
LINE
  8
0
  6
CONTINUOUS
 10
375.462372
 20
477.656677
 11
340.203583
 21
477.656677
  0
LINE
  8
0
  6
CONTINUOUS
 10
375.462372
 20
477.656677
 11
410.721191
 21
477.656677
  0
LINE
  8
0
  6
CONTINUOUS
 10
356.462372
 20
295.656677
 11
391.462372
 21
295.656677
  0
LINE
  8
0
  6
CONTINUOUS
 10
391.462372
 20
350.656677
 11
391.462372
 21
295.656677
  0
LINE
  8
0
  6
CONTINUOUS
 10
359.462372
 20
350.656677
 11
359.462372
 21
345.656677
  0
LINE
  8
0
  6
CONTINUOUS
 10
392.962372
 20
350.656677
 11
357.962372
 21
350.656677
  0
LINE
  8
0
  6
CONTINUOUS
 10
392.962372
 20
353.656677
 11
392.962372
 21
350.656677
  0
LINE
  8
0
  6
CONTINUOUS
 10
357.962372
 20
353.656677
 11
357.962372
 21
350.656677
  0
LINE
  8
0
  6
CONTINUOUS
 10
356.462372
 20
340.656677
 11
317.012329
 21
340.656677
  0
LINE
  8
0
  6
CONTINUOUS
 10
356.462372
 20
295.656677
 11
356.462372
 21
345.656677
  0
LINE
  8
0
  6
CONTINUOUS
 10
360.263702
 20
345.656677
 11
356.462372
 21
345.656677
  0
LINE
  8
0
  6
CONTINUOUS
 10
360.263702
 20
345.656677
 11
360.263702
 21
295.656677
  0
LINE
  8
0
  6
CONTINUOUS
 10
375.462372
 20
490.656677
 11
317.012329
 21
490.656677
  0
LINE
  8
0
  6
CENTER
 10
337.838715
 20
355.656677
 11
318.901215
 21
355.656677
  0
LINE
  8
0
  6
CENTER
 10
327.962372
 20
364.809021
 11
327.962372
 21
345.309021
  0
ARC
  8
0
  6
CONTINUOUS
 10
327.962372
 20
355.656677
 40
6.500000
 50
-231.240692
 51
50.284863
  0
ARC
  8
0
  6
CONTINUOUS
 10
422.962372
 20
355.656677
 40
6.500000
 50
-230.284866
 51
51.240688
  0
LINE
  8
0
  6
CENTER
 10
422.962372
 20
364.809021
 11
422.962372
 21
345.309021
  0
LINE
  8
0
  6
CENTER
 10
413.086060
 20
355.656677
 11
432.023560
 21
355.656677
  0
LINE
  8
0
  6
CENTER
 10
674.522095
 20
415.656677
 11
288.041351
 21
415.656677
  0
LINE
  8
0
  6
CONTINUOUS
 10
456.060425
 20
355.362579
 11
452.955383
 21
366.950775
  0
ARC
  8
0
  6
CONTINUOUS
 10
448.125763
 20
365.656677
 40
5.000000
 50
15.000000
 51
90.000000
  0
ARC
  8
0
  6
CONTINUOUS
 10
460.890045
 20
356.656677
 40
5.000000
 50
195.000000
 51
270.000000
  0
LINE
  8
0
  6
CONTINUOUS
 10
460.890045
 20
479.656677
 11
463.462372
 21
479.656677
  0
LINE
  8
0
  6
CONTINUOUS
 10
456.060425
 20
475.950775
 11
452.955383
 21
464.362579
  0
ARC
  8
0
  6
CONTINUOUS
 10
460.890045
 20
474.656677
 40
5.000000
 50
90.000000
 51
165.000000
  0
ARC
  8
0
  6
CONTINUOUS
 10
448.125763
 20
465.656677
 40
5.000000
 50
-90.000000
 51
-15.000000
  0
LINE
  8
0
  6
CONTINUOUS
 10
451.462585
 20
415.656677
 11
450.728546
 21
373.604309
  0
LINE
  8
0
  6
CONTINUOUS
 10
451.462585
 20
415.656677
 11
450.728546
 21
457.709045
  0
ARC
  8
0
  6
CONTINUOUS
 10
447.729004
 20
373.656677
 40
3.000000
 50
270.000000
 51
359.000000
  0
ARC
  8
0
  6
CONTINUOUS
 10
447.729004
 20
457.656677
 40
3.000000
 50
1.000000
 51
90.000000
  0
ARC
  8
0
  6
CONTINUOUS
 10
324.718384
 20
365.656677
 40
5.000000
 50
196.172165
 51
270.000000
  0
ARC
  8
0
  6
CONTINUOUS
 10
314.306366
 20
365.656677
 40
5.000000
 50
16.172159
 51
90.000000
  0
LINE
  8
0
  6
CONTINUOUS
 10
318.062378
 20
370.656677
 11
318.059174
 21
370.667755
  0
ARC
  8
0
  6
CONTINUOUS
 10
410.721191
 20
358.656677
 40
5.000000
 50
270.000000
 51
343.610474
  0
LINE
  8
0
  6
CONTINUOUS
 10
415.518005
 20
357.245850
 11
416.521210
 21
360.656677
  0
LINE
  8
0
  6
CONTINUOUS
 10
431.008514
 20
364.264069
 11
431.816254
 21
367.049316
  0
LINE
  8
0
  6
CONTINUOUS
 10
426.206390
 20
360.656677
 11
416.521210
 21
360.656677
  0
ARC
  8
0
  6
CONTINUOUS
 10
426.206390
 20
365.656677
 40
5.000000
 50
270.000000
 51
343.827850
  0
ARC
  8
0
  6
CONTINUOUS
 10
436.618378
 20
365.656677
 40
5.000000
 50
90.000000
 51
163.827835
  0
LINE
  8
0
  6
CONTINUOUS
 10
432.862396
 20
370.656677
 11
432.865601
 21
370.667755
  0
ARC
  8
0
  6
CONTINUOUS
 10
422.962372
 20
475.656677
 40
6.500000
 50
-51.240688
 51
230.284866
  0
LINE
  8
0
  6
CENTER
 10
413.086060
 20
475.656677
 11
432.023560
 21
475.656677
  0
ARC
  8
0
  6
CONTINUOUS
 10
410.721191
 20
472.656677
 40
5.000000
 50
16.389540
 51
90.000000
  0
LINE
  8
0
  6
CONTINUOUS
 10
415.518005
 20
474.067505
 11
416.521210
 21
470.656677
  0
LINE
  8
0
  6
CONTINUOUS
 10
431.008514
 20
467.049316
 11
431.816254
 21
464.264069
  0
LINE
  8
0
  6
CONTINUOUS
 10
426.206390
 20
470.656677
 11
416.521210
 21
470.656677
  0
ARC
  8
0
  6
CONTINUOUS
 10
426.206390
 20
465.656677
 40
5.000000
 50
16.172159
 51
90.000000
  0
ARC
  8
0
  6
CONTINUOUS
 10
436.618378
 20
465.656677
 40
5.000000
 50
196.172165
 51
270.000000
  0
LINE
  8
0
  6
CONTINUOUS
 10
432.862396
 20
460.656677
 11
432.865601
 21
460.645599
  0
LINE
  8
0
  6
CENTER
 10
422.962372
 20
466.504333
 11
422.962372
 21
486.004333
  0
LINE
  8
0
  6
CONTINUOUS
 10
335.406738
 20
474.067505
 11
334.403564
 21
470.656677
  0
ARC
  8
0
  6
CONTINUOUS
 10
340.203583
 20
472.656677
 40
5.000000
 50
90.000000
 51
163.610458
  0
LINE
  8
0
  6
CONTINUOUS
 10
319.916229
 20
467.049316
 11
319.108521
 21
464.264069
  0
LINE
  8
0
  6
CONTINUOUS
 10
324.718384
 20
470.656677
 11
334.403564
 21
470.656677
  0
LINE
  8
0
  6
CENTER
 10
337.838715
 20
475.656677
 11
318.901215
 21
475.656677
  0
LINE
  8
0
  6
CENTER
 10
327.962372
 20
466.504333
 11
327.962372
 21
486.004333
  0
ARC
  8
0
  6
CONTINUOUS
 10
327.962372
 20
475.656677
 40
6.500000
 50
-50.284863
 51
231.240692
  0
ARC
  8
0
  6
CONTINUOUS
 10
324.718384
 20
465.656677
 40
5.000000
 50
90.000000
 51
163.827835
  0
ARC
  8
0
  6
CONTINUOUS
 10
314.306366
 20
465.656677
 40
5.000000
 50
-90.000000
 51
-16.172159
  0
LINE
  8
0
  6
CONTINUOUS
 10
318.062378
 20
460.656677
 11
318.059174
 21
460.645599
  0
LINE
  8
0
  6
CENTER
 10
77.708000
 20
2.478750
 11
77.708000
 21
235.391556
  0
LINE
  8
0
  6
CENTER
 10
-2.089382
 20
112.598747
 11
153.540619
 21
112.598747
  0
LINE
  8
0
  6
CENTER
 10
0.675618
 20
157.598755
 11
211.884995
 21
157.598755
  0
LINE
  8
0
  6
CENTER
 10
137.707993
 20
44.197491
 11
137.707993
 21
6.298370
  0
LINE
  8
0
  6
CENTER
 10
17.708000
 20
44.197491
 11
17.708000
 21
6.298370
  0
LINE
  8
0
  6
CONTINUOUS
 10
2.708000
 20
17.598749
 11
47.708000
 21
17.598749
  0
LINE
  8
0
  6
CONTINUOUS
 10
107.708000
 20
17.598749
 11
152.707993
 21
17.598749
  0
LINE
  8
0
  6
CONTINUOUS
 10
150.207993
 20
35.598751
 11
126.708000
 21
35.598751
  0
LINE
  8
0
  6
CONTINUOUS
 10
5.208000
 20
35.598751
 11
28.708000
 21
35.598751
  0
LINE
  8
0
  6
CONTINUOUS
 10
122.708000
 20
218.865509
 11
122.708000
 21
17.598749
  0
LINE
  8
0
  6
CONTINUOUS
 10
32.708000
 20
205.339951
 11
32.708000
 21
218.865036
  0
LINE
  8
0
  6
CONTINUOUS
 10
152.707993
 20
33.480930
 11
152.707993
 21
17.598749
  0
LINE
  8
0
  6
CONTINUOUS
 10
2.708000
 20
33.480930
 11
2.708000
 21
17.598749
  0
LINE
  8
0
  6
CONTINUOUS
 10
49.208000
 20
19.098749
 11
106.208000
 21
19.098749
  0
LINE
  8
0
  6
CONTINUOUS
 10
119.760399
 20
221.865051
 11
77.708000
 21
222.598755
  0
LINE
  8
0
  6
CONTINUOUS
 10
35.655602
 20
221.864563
 11
77.708000
 21
222.598755
  0
LINE
  8
0
  6
CONTINUOUS
 10
15.708000
 20
122.339943
 11
15.708000
 21
192.857574
  0
LINE
  8
0
  6
CONTINUOUS
 10
139.707993
 20
122.339943
 11
139.707993
 21
192.857574
  0
LINE
  8
0
  6
CONTINUOUS
 10
22.708000
 20
73.354752
 11
22.708000
 21
161.509155
  0
LINE
  8
0
  6
CONTINUOUS
 10
132.707993
 20
73.354767
 11
132.707993
 21
161.509155
  0
LINE
  8
0
  6
DASHED
 10
144.207993
 20
35.598751
 11
144.207993
 21
17.598749
  0
LINE
  8
0
  6
DASHED
 10
131.207993
 20
35.598751
 11
131.207993
 21
17.598749
  0
LINE
  8
0
  6
DASHED
 10
24.208000
 20
35.598751
 11
24.208000
 21
17.598749
  0
LINE
  8
0
  6
DASHED
 10
11.208000
 20
35.598751
 11
11.208000
 21
17.598749
  0
ARC
  8
0
  6
CONTINUOUS
 10
35.708000
 20
218.865036
 40
3.000000
 50
91.000603
 51
180.000000
  0
ARC
  8
0
  6
CONTINUOUS
 10
119.708000
 20
218.865494
 40
3.000000
 50
0.000000
 51
89.000580
  0
LINE
  8
0
  6
CONTINUOUS
 10
29.118799
 20
200.543106
 11
19.297199
 21
197.654373
  0
LINE
  8
0
  6
CONTINUOUS
 10
19.297199
 20
117.543114
 11
19.836599
 21
117.384445
  0
LINE
  8
0
  6
CONTINUOUS
 10
26.315399
 20
68.552612
 11
29.100599
 21
67.744888
  0
LINE
  8
0
  6
CONTINUOUS
 10
4.797000
 20
35.946911
 11
30.201200
 21
40.180950
  0
LINE
  8
0
  6
CONTINUOUS
 10
150.619003
 20
35.946930
 11
125.214798
 21
40.180969
  0
LINE
  8
0
  6
CONTINUOUS
 10
129.100601
 20
68.552612
 11
126.315399
 21
67.744888
  0
LINE
  8
0
  6
CONTINUOUS
 10
136.118805
 20
117.543114
 11
135.579407
 21
117.384438
  0
LINE
  8
0
  6
CONTINUOUS
 10
136.118805
 20
197.654388
 11
126.297203
 21
200.543106
  0
LINE
  8
0
  6
CONTINUOUS
 10
35.282398
 20
190.098755
 11
119.960602
 21
190.098755
  0
ARC
  8
0
  6
CONTINUOUS
 10
20.708000
 20
192.857590
 40
5.000000
 50
106.389900
 51
180.000000
  0
ARC
  8
0
  6
CONTINUOUS
 10
134.707993
 20
192.857544
 40
5.000000
 50
0.000000
 51
73.610527
  0
ARC
  8
0
  6
CONTINUOUS
 10
20.708000
 20
122.339981
 40
5.000000
 50
180.000000
 51
253.610794
  0
ARC
  8
0
  6
CONTINUOUS
 10
134.707993
 20
122.339935
 40
5.000000
 50
-73.610321
 51
0.000000
  0
ARC
  8
0
  6
CONTINUOUS
 10
127.708000
 20
73.354752
 40
5.000000
 50
-73.827698
 51
0.000000
  0
ARC
  8
0
  6
CONTINUOUS
 10
27.708000
 20
73.354790
 40
5.000000
 50
180.000000
 51
253.828201
  0
LINE
  8
0
  6
CONTINUOUS
 10
32.708000
 20
205.339951
 11
32.708000
 21
17.598749
  0
ARC
  8
0
  6
CONTINUOUS
 10
27.708000
 20
205.339935
 40
5.000000
 50
-73.610229
 51
0.000000
  0
ARC
  8
0
  6
CONTINUOUS
 10
18.708000
 20
113.546967
 40
4.000000
 50
0.000000
 51
73.610649
  0
ARC
  8
0
  6
CONTINUOUS
 10
27.708000
 20
62.942730
 40
5.000000
 50
0.000000
 51
73.827919
  0
ARC
  8
0
  6
CONTINUOUS
 10
127.708000
 20
62.942768
 40
5.000000
 50
106.172501
 51
180.000000
  0
ARC
  8
0
  6
CONTINUOUS
 10
136.707993
 20
113.546997
 40
4.000000
 50
106.389999
 51
180.000000
  0
ARC
  8
0
  6
CONTINUOUS
 10
127.708000
 20
205.339966
 40
5.000000
 50
180.000000
 51
253.610794
  0
ARC
  8
0
  6
CONTINUOUS
 10
29.708000
 20
43.140129
 40
3.000000
 50
-80.537483
 51
0.000000
  0
ARC
  8
0
  6
CONTINUOUS
 10
28.708000
 20
39.598709
 40
4.000000
 50
-90.000000
 51
0.000000
  0
ARC
  8
0
  6
CONTINUOUS
 10
5.208000
 20
33.098770
 40
2.500000
 50
90.000000
 51
180.000000
  0
LINE
  8
0
  6
CONTINUOUS
 10
47.708000
 20
17.598749
 11
49.208000
 21
19.098749
  0
LINE
  8
0
  6
CONTINUOUS
 10
107.708000
 20
17.598749
 11
106.208000
 21
19.098749
  0
ARC
  8
0
  6
CONTINUOUS
 10
125.708000
 20
43.140171
 40
3.000000
 50
180.000000
 51
260.537903
  0
ARC
  8
0
  6
CONTINUOUS
 10
126.708000
 20
39.598751
 40
4.000000
 50
180.000000
 51
270.000000
  0
ARC
  8
0
  6
CONTINUOUS
 10
150.207993
 20
33.098751
 40
2.500000
 50
0.000000
 51
90.000000
  0
LINE
  8
0
  6
CONTINUOUS
 10
197.707993
 20
141.598755
 11
197.707993
 21
173.598755
  0
LINE
  8
0
  6
CONTINUOUS
 10
142.707993
 20
173.598755
 11
197.707993
 21
173.598755
  0
LINE
  8
0
  6
CONTINUOUS
 10
142.707993
 20
141.598755
 11
197.707993
 21
141.598755
  0
LINE
  8
0
  6
CONTINUOUS
 10
142.707993
 20
175.098755
 11
142.707993
 21
140.098755
  0
LINE
  8
0
  6
CONTINUOUS
 10
139.707993
 20
175.098755
 11
142.707993
 21
175.098755
  0
LINE
  8
0
  6
CONTINUOUS
 10
139.707993
 20
140.098755
 11
142.707993
 21
140.098755
  0
ARC
  8
0
  6
CONTINUOUS
 10
152.707993
 20
157.598755
 40
5.000000
 50
90.000000
 51
270.000000
  0
LINE
  8
0
  6
CONTINUOUS
 10
152.707993
 20
162.598755
 11
197.707993
 21
162.598755
  0
LINE
  8
0
  6
CONTINUOUS
 10
152.707993
 20
152.598755
 11
197.707993
 21
152.598755
  0
ARC
  8
0
  6
CONTINUOUS
 10
5.208000
 20
33.480949
 40
2.500000
 50
99.462753
 51
180.000000
  0
ARC
  8
0
  6
CONTINUOUS
 10
150.207993
 20
33.480930
 40
2.500000
 50
0.000000
 51
80.537682
  0
LINE
  8
0
  6
CONTINUOUS
 10
463.462372
 20
176.598755
 11
463.462372
 21
48.598751
  0
ARC
  8
0
  6
CONTINUOUS
 10
77.708000
 20
112.598747
 40
64.000000
 50
165.638489
 51
210.753525
  0
ARC
  8
0
  6
CONTINUOUS
 10
77.708000
 20
112.598747
 40
64.000000
 50
-30.753519
 51
14.361512
  0
ARC
  8
0
  6
CONTINUOUS
 10
36.695801
 20
71.586533
 40
8.000000
 50
211.001404
 51
233.216995
  0
ARC
  8
0
  6
CONTINUOUS
 10
30.708000
 20
63.577412
 40
2.000000
 50
30.947910
 51
53.217121
  0
ARC
  8
0
  6
CONTINUOUS
 10
118.720200
 20
71.586533
 40
8.000000
 50
-53.216999
 51
-31.001400
  0
ARC
  8
0
  6
CONTINUOUS
 10
124.708000
 20
63.577412
 40
2.000000
 50
126.782883
 51
149.052094
  0
LINE
  8
0
  6
CENTER
 10
675.085205
 20
99.598747
 11
418.576019
 21
99.598747
  0
LINE
  8
0
  6
CENTER
 10
495.483765
 20
112.598747
 11
418.576019
 21
112.598747
  0
LINE
  8
0
  6
CONTINUOUS
 10
471.962372
 20
477.656677
 11
471.962372
 21
353.656677
  0
LINE
  8
0
  6
CONTINUOUS
 10
517.962402
 20
370.656677
 11
474.398773
 21
369.135406
  0
LINE
  8
0
  6
CONTINUOUS
 10
517.962402
 20
460.656677
 11
474.398773
 21
462.177948
  0
LINE
  8
0
  6
CONTINUOUS
 10
517.962402
 20
366.644684
 11
517.962402
 21
464.668671
  0
LINE
  8
0
  6
CONTINUOUS
 10
469.962372
 20
351.656677
 11
463.462372
 21
351.656677
  0
LINE
  8
0
  6
CONTINUOUS
 10
469.962372
 20
479.656677
 11
463.462372
 21
479.656677
  0
LINE
  8
0
  6
CONTINUOUS
 10
479.105377
 20
391.656677
 11
471.990417
 21
391.656677
  0
LINE
  8
0
  6
CONTINUOUS
 10
478.500244
 20
439.656677
 11
471.990417
 21
439.656677
  0
LINE
  8
0
  6
CONTINUOUS
 10
479.105377
 20
393.861176
 11
479.105377
 21
437.573761
  0
LINE
  8
0
  6
CONTINUOUS
 10
526.962402
 20
372.656677
 11
526.962402
 21
386.656677
  0
LINE
  8
0
  6
CONTINUOUS
 10
636.962402
 20
370.656677
 11
517.962402
 21
370.656677
  0
LINE
  8
0
  6
CONTINUOUS
 10
636.962402
 20
460.656677
 11
517.962402
 21
460.656677
  0
LINE
  8
0
  6
CONTINUOUS
 10
636.962402
 20
370.656677
 11
636.962402
 21
408.790649
  0
LINE
  8
0
  6
CONTINUOUS
 10
636.962402
 20
386.656677
 11
526.962402
 21
386.656677
  0
LINE
  8
0
  6
CONTINUOUS
 10
636.962402
 20
444.656677
 11
526.962402
 21
444.656677
  0
ARC
  8
0
  6
CONTINUOUS
 10
524.962402
 20
372.656647
 40
2.000000
 50
-90.000000
 51
0.000000
  0
ARC
  8
0
  6
CONTINUOUS
 10
524.962402
 20
458.656677
 40
2.000000
 50
0.000000
 51
90.000000
  0
LINE
  8
0
  6
CONTINUOUS
 10
657.462402
 20
450.656677
 11
657.462402
 21
380.656677
  0
LINE
  8
0
  6
CONTINUOUS
 10
652.920959
 20
370.656677
 11
636.962402
 21
370.656677
  0
LINE
  8
0
  6
CONTINUOUS
 10
656.962402
 20
373.656677
 11
656.962402
 21
457.656677
  0
LINE
  8
0
  6
CONTINUOUS
 10
636.962402
 20
386.656677
 11
655.212402
 21
386.656677
  0
LINE
  8
0
  6
CONTINUOUS
 10
656.385010
 20
372.656708
 11
656.962402
 21
373.656677
  0
ARC
  8
0
  6
CONTINUOUS
 10
652.920898
 20
374.656677
 40
4.000000
 50
270.000000
 51
330.000397
  0
LINE
  8
0
  6
CONTINUOUS
 10
652.920959
 20
460.656677
 11
636.962402
 21
460.656677
  0
LINE
  8
0
  6
CONTINUOUS
 10
636.962402
 20
444.656677
 11
655.212402
 21
444.656677
  0
LINE
  8
0
  6
CONTINUOUS
 10
656.385010
 20
458.656677
 11
656.962402
 21
457.656677
  0
ARC
  8
0
  6
CONTINUOUS
 10
652.920898
 20
456.656708
 40
4.000000
 50
29.999599
 51
90.000000
  0
LINE
  8
0
  6
CONTINUOUS
 10
657.462402
 20
380.656677
 11
656.962402
 21
380.156677
  0
LINE
  8
0
  6
CONTINUOUS
 10
657.462402
 20
450.656677
 11
656.962402
 21
451.156677
  0
LINE
  8
0
  6
CONTINUOUS
 10
517.962402
 20
370.656677
 11
517.962402
 21
460.656677
  0
ARC
  8
0
  6
CONTINUOUS
 10
469.962372
 20
353.656677
 40
2.000000
 50
-90.000000
 51
0.000000
  0
ARC
  8
0
  6
CONTINUOUS
 10
469.962372
 20
477.656677
 40
2.000000
 50
0.000000
 51
90.000000
  0
ARC
  8
0
  6
CONTINUOUS
 10
474.486023
 20
366.636932
 40
2.500000
 50
92.000000
 51
179.895706
  0
ARC
  8
0
  6
CONTINUOUS
 10
474.486023
 20
464.676422
 40
2.500000
 50
180.104294
 51
268.000000
  0
LINE
  8
0
  6
CONTINUOUS
 10
471.962372
 20
369.050323
 11
471.990417
 21
369.051300
  0
LINE
  8
0
  6
CONTINUOUS
 10
517.462708
 20
366.127228
 11
471.962372
 21
364.538330
  0
LINE
  8
0
  6
CONTINUOUS
 10
517.962402
 20
366.644684
 11
517.462708
 21
366.127228
  0
LINE
  8
0
  6
CONTINUOUS
 10
517.462708
 20
465.186127
 11
471.962372
 21
466.775024
  0
LINE
  8
0
  6
CONTINUOUS
 10
517.962402
 20
464.668671
 11
517.462708
 21
465.186127
  0
LINE
  8
0
  6
CONTINUOUS
 10
643.462402
 20
421.656677
 11
643.462402
 21
409.656677
  0
LINE
  8
0
  6
CONTINUOUS
 10
636.462402
 20
421.656677
 11
636.462402
 21
409.656677
  0
LINE
  8
0
  6
CONTINUOUS
 10
642.462402
 20
408.656677
 11
637.462402
 21
408.656677
  0
LINE
  8
0
  6
CONTINUOUS
 10
637.462402
 20
422.656677
 11
642.462402
 21
422.656677
  0
ARC
  8
0
  6
CONTINUOUS
 10
637.462402
 20
409.656677
 40
1.000000
 50
180.000000
 51
270.000000
  0
ARC
  8
0
  6
CONTINUOUS
 10
642.462402
 20
409.656677
 40
1.000000
 50
-90.000000
 51
0.000000
  0
ARC
  8
0
  6
CONTINUOUS
 10
642.462402
 20
421.656677
 40
1.000000
 50
0.000000
 51
90.000000
  0
ARC
  8
0
  6
CONTINUOUS
 10
637.462402
 20
421.656677
 40
1.000000
 50
90.000000
 51
180.000000
  0
LINE
  8
0
  6
CONTINUOUS
 10
638.962402
 20
419.156677
 11
638.962402
 21
412.156677
  0
LINE
  8
0
  6
CONTINUOUS
 10
640.962402
 20
419.156677
 11
640.962402
 21
412.156677
  0
ARC
  8
0
  6
CONTINUOUS
 10
639.962402
 20
412.156677
 40
1.000000
 50
-90.000000
 51
0.000000
  0
ARC
  8
0
  6
CONTINUOUS
 10
639.962402
 20
412.156677
 40
1.000000
 50
180.000000
 51
270.000000
  0
ARC
  8
0
  6
CONTINUOUS
 10
639.962402
 20
419.156677
 40
1.000000
 50
0.000000
 51
90.000000
  0
ARC
  8
0
  6
CONTINUOUS
 10
639.962402
 20
419.156677
 40
1.000000
 50
90.000000
 51
180.000000
  0
LINE
  8
0
  6
CONTINUOUS
 10
636.962402
 20
422.522705
 11
636.962402
 21
460.656677
  0
LINE
  8
0
  6
CONTINUOUS
 10
526.962402
 20
142.598755
 11
526.962402
 21
56.598728
  0
LINE
  8
0
  6
CONTINUOUS
 10
636.962402
 20
144.598755
 11
517.962402
 21
144.598755
  0
LINE
  8
0
  6
CONTINUOUS
 10
636.962402
 20
54.598751
 11
517.962402
 21
54.598751
  0
LINE
  8
0
  6
CONTINUOUS
 10
636.962402
 20
144.598755
 11
636.962402
 21
54.598751
  0
LINE
  8
0
  6
CONTINUOUS
 10
636.962402
 20
134.008057
 11
528.000061
 21
134.008057
  0
LINE
  8
0
  6
CONTINUOUS
 10
636.962402
 20
65.189453
 11
528.000061
 21
65.189453
  0
ARC
  8
0
  6
CONTINUOUS
 10
524.962402
 20
142.598770
 40
2.000000
 50
0.000000
 51
90.000000
  0
ARC
  8
0
  6
CONTINUOUS
 10
524.962402
 20
56.598751
 40
2.000000
 50
-90.000000
 51
0.000000
  0
LINE
  8
0
  6
CONTINUOUS
 10
657.462402
 20
64.598747
 11
657.462402
 21
134.598755
  0
LINE
  8
0
  6
CONTINUOUS
 10
652.920959
 20
144.598755
 11
636.962402
 21
144.598755
  0
LINE
  8
0
  6
CONTINUOUS
 10
656.962402
 20
141.598755
 11
656.962402
 21
57.598751
  0
LINE
  8
0
  6
CONTINUOUS
 10
636.962402
 20
134.008057
 11
655.212402
 21
134.008057
  0
LINE
  8
0
  6
CONTINUOUS
 10
656.385010
 20
142.598724
 11
656.962402
 21
141.598755
  0
ARC
  8
0
  6
CONTINUOUS
 10
652.920898
 20
140.598755
 40
4.000000
 50
29.999599
 51
90.000000
  0
LINE
  8
0
  6
CONTINUOUS
 10
652.920959
 20
54.598751
 11
636.962402
 21
54.598751
  0
LINE
  8
0
  6
CONTINUOUS
 10
636.962402
 20
65.189453
 11
655.212402
 21
65.189453
  0
LINE
  8
0
  6
CONTINUOUS
 10
656.385010
 20
56.598751
 11
656.962402
 21
57.598751
  0
ARC
  8
0
  6
CONTINUOUS
 10
652.920898
 20
58.598728
 40
4.000000
 50
270.000000
 51
330.000397
  0
LINE
  8
0
  6
CONTINUOUS
 10
636.462402
 20
146.098755
 11
636.462402
 21
144.598755
  0
LINE
  8
0
  6
CONTINUOUS
 10
643.462402
 20
146.098755
 11
643.462402
 21
144.598755
  0
LINE
  8
0
  6
CONTINUOUS
 10
643.462402
 20
146.098755
 11
636.462402
 21
146.098755
  0
LINE
  8
0
  6
CONTINUOUS
 10
639.062378
 20
159.098755
 11
639.062378
 21
146.098755
  0
LINE
  8
0
  6
CONTINUOUS
 10
640.862366
 20
159.723755
 11
640.862366
 21
146.098755
  0
LINE
  8
0
  6
CONTINUOUS
 10
642.662354
 20
157.661255
 11
642.662354
 21
146.098755
  0
LINE
  8
0
  6
CONTINUOUS
 10
637.262390
 20
158.473755
 11
637.262390
 21
146.098755
  0
LINE
  8
0
  6
CONTINUOUS
 10
640.862366
 20
159.723755
 11
639.062378
 21
159.098755
  0
LINE
  8
0
  6
CONTINUOUS
 10
642.662354
 20
157.661255
 11
640.862366
 21
158.286255
  0
LINE
  8
0
  6
CONTINUOUS
 10
637.262390
 20
158.473755
 11
639.061401
 21
158.026031
  0
LINE
  8
0
  6
CONTINUOUS
 10
657.462402
 20
134.598755
 11
656.962402
 21
135.098755
  0
LINE
  8
0
  6
CONTINUOUS
 10
657.462402
 20
64.598747
 11
656.962402
 21
64.098747
  0
LINE
  8
0
  6
CONTINUOUS
 10
469.962372
 20
176.598846
 11
463.462372
 21
176.598846
  0
LINE
  8
0
  6
CONTINUOUS
 10
469.962372
 20
48.598652
 11
463.462372
 21
48.598652
  0
LINE
  8
0
  6
CONTINUOUS
 10
517.962402
 20
144.598755
 11
471.962372
 21
146.205109
  0
LINE
  8
0
  6
CONTINUOUS
 10
463.462372
 20
52.695568
 11
517.962402
 21
54.598751
  0
ARC
  8
0
  6
CONTINUOUS
 10
469.962372
 20
174.598877
 40
2.000000
 50
0.000000
 51
90.000000
  0
ARC
  8
0
  6
CONTINUOUS
 10
469.962372
 20
50.598652
 40
2.000000
 50
-90.000000
 51
-0.260773
  0
LINE
  8
0
  6
CONTINUOUS
 10
517.962402
 20
144.598755
 11
517.962402
 21
54.598751
  0
LINE
  8
0
  6
CONTINUOUS
 10
472.694611
 20
152.366516
 11
478.409119
 21
146.652008
  0
LINE
  8
0
  6
CONTINUOUS
 10
517.962402
 20
79.092751
 11
473.962372
 21
79.092751
  0
LINE
  8
0
  6
CONTINUOUS
 10
517.962402
 20
64.079750
 11
463.462372
 21
64.079750
  0
LINE
  8
0
  6
CONTINUOUS
 10
471.394409
 20
72.031754
 11
463.462372
 21
72.031754
  0
LINE
  8
0
  6
CONTINUOUS
 10
471.962372
 20
73.246483
 11
471.962372
 21
174.598877
  0
ARC
  8
0
  6
CONTINUOUS
 10
474.462341
 20
50.578171
 40
2.500000
 50
92.000000
 51
179.739227
  0
ARC
  8
0
  6
CONTINUOUS
 10
474.462372
 20
154.134277
 40
2.500000
 50
180.000000
 51
225.000000
  0
ARC
  8
0
  6
CONTINUOUS
 10
480.176880
 20
148.419769
 40
2.500000
 50
-135.000000
 51
-92.000000
  0
LINE
  8
0
  6
CENTER
 10
375.462372
 20
238.381882
 11
375.462372
 21
6.965870
  0
LINE
  8
0
  6
CENTER
 10
434.761139
 20
157.598755
 11
314.042511
 21
157.598755
  0
LINE
  8
0
  6
CENTER
 10
327.962372
 20
42.874191
 11
327.962372
 21
9.009450
  0
LINE
  8
0
  6
CENTER
 10
422.962372
 20
42.874191
 11
422.962372
 21
8.717510
  0
LINE
  8
0
  6
CONTINUOUS
 10
451.462372
 20
17.598749
 11
299.462372
 21
17.598749
  0
LINE
  8
0
  6
CONTINUOUS
 10
451.462372
 20
35.598751
 11
299.462372
 21
35.598751
  0
LINE
  8
0
  6
CONTINUOUS
 10
299.462372
 20
185.904312
 11
299.462372
 21
17.598749
  0
LINE
  8
0
  6
CONTINUOUS
 10
451.462372
 20
181.098755
 11
451.462372
 21
185.904312
  0
LINE
  8
0
  6
CONTINUOUS
 10
401.965790
 20
222.598755
 11
348.958984
 21
222.598755
  0
LINE
  8
0
  6
CONTINUOUS
 10
456.462372
 20
176.598755
 11
463.462372
 21
176.598755
  0
LINE
  8
0
  6
CONTINUOUS
 10
456.462372
 20
48.598751
 11
463.462372
 21
48.598751
  0
LINE
  8
0
  6
CONTINUOUS
 10
302.912384
 20
192.484375
 11
344.408997
 21
221.178802
  0
LINE
  8
0
  6
CONTINUOUS
 10
448.012390
 20
192.484375
 11
406.515778
 21
221.178802
  0
ARC
  8
0
  6
CONTINUOUS
 10
348.958984
 20
214.598755
 40
8.000000
 50
90.000000
 51
124.663300
  0
ARC
  8
0
  6
CONTINUOUS
 10
307.462372
 20
185.904266
 40
8.000000
 50
124.663300
 51
180.000000
  0
ARC
  8
0
  6
CONTINUOUS
 10
401.965790
 20
214.598755
 40
8.000000
 50
55.336300
 51
90.000000
  0
ARC
  8
0
  6
CONTINUOUS
 10
443.462372
 20
185.904343
 40
8.000000
 50
0.000000
 51
55.336201
  0
LINE
  8
0
  6
CONTINUOUS
 10
451.462372
 20
44.098751
 11
451.462372
 21
17.598749
  0
ARC
  8
0
  6
CONTINUOUS
 10
456.462372
 20
181.598755
 40
5.000000
 50
180.000000
 51
270.000000
  0
LINE
  8
0
  6
CONTINUOUS
 10
451.462372
 20
44.098751
 11
451.462372
 21
181.098755
  0
ARC
  8
0
  6
CONTINUOUS
 10
456.462372
 20
43.598728
 40
5.000000
 50
90.000000
 51
180.000000
  0
LINE
  8
0
  6
DASHED
 10
429.462372
 20
35.598751
 11
429.462372
 21
17.598749
  0
LINE
  8
0
  6
DASHED
 10
416.462372
 20
35.598751
 11
416.462372
 21
17.598749
  0
LINE
  8
0
  6
DASHED
 10
334.462372
 20
35.598751
 11
334.462372
 21
17.598749
  0
LINE
  8
0
  6
DASHED
 10
321.462372
 20
35.598751
 11
321.462372
 21
17.598749
  0
CIRCLE
  8
0
  6
CONTINUOUS
 10
375.462372
 20
157.598755
 40
39.000000
  0
ARC
  8
0
  6
CONTINUOUS
 10
375.462372
 20
157.598755
 40
44.000000
 50
12.523100
 51
167.476807
  0
ARC
  8
0
  6
CONTINUOUS
 10
400.962372
 20
98.598747
 40
29.000000
 50
-90.000000
 51
12.523100
  0
ARC
  8
0
  6
CONTINUOUS
 10
349.962372
 20
98.598747
 40
29.000000
 50
167.476807
 51
270.000000
  0
ARC
  8
0
  6
CONTINUOUS
 10
400.962372
 20
98.598747
 40
31.900000
 50
-90.000000
 51
12.523100
  0
ARC
  8
0
  6
CONTINUOUS
 10
349.962372
 20
98.598747
 40
31.900000
 50
167.476807
 51
270.000000
  0
ARC
  8
0
  6
CONTINUOUS
 10
375.462372
 20
157.598755
 40
41.099998
 50
-192.523193
 51
12.523100
  0
LINE
  8
0
  6
CONTINUOUS
 10
432.103394
 20
105.515755
 11
418.415588
 21
167.139450
  0
LINE
  8
0
  6
CONTINUOUS
 10
429.272369
 20
104.886932
 11
415.584595
 21
166.510635
  0
LINE
  8
0
  6
CONTINUOUS
 10
400.962372
 20
66.698753
 11
349.962372
 21
66.698753
  0
LINE
  8
0
  6
CONTINUOUS
 10
349.962372
 20
69.598747
 11
400.962372
 21
69.598747
  0
LINE
  8
0
  6
CONTINUOUS
 10
332.509186
 20
167.139526
 11
318.821381
 21
105.515816
  0
LINE
  8
0
  6
CONTINUOUS
 10
335.340179
 20
166.510712
 11
321.652374
 21
104.886993
  0
ARC
  8
0
  6
CONTINUOUS
 10
271.753571
 20
112.598747
 40
185.208893
 50
-13.998090
 51
13.998090
  0
LINE
  8
0
  6
CONTINUOUS
 10
437.462372
 20
33.532188
 11
437.462372
 21
17.598749
  0
LINE
  8
0
  6
CONTINUOUS
 10
313.462372
 20
33.532188
 11
313.462372
 21
17.598749
  0
LINE
  8
0
  6
CONTINUOUS
 10
351.704987
 20
40.598751
 11
399.219788
 21
40.598751
  0
LINE
  8
0
  6
CONTINUOUS
 10
400.462372
 20
39.662868
 11
400.462372
 21
36.598751
  0
LINE
  8
0
  6
CONTINUOUS
 10
349.583771
 20
39.720070
 11
346.926788
 21
37.063210
  0
LINE
  8
0
  6
CONTINUOUS
 10
401.340973
 20
39.720070
 11
403.997772
 21
37.063251
  0
LINE
  8
0
  6
CONTINUOUS
 10
350.462372
 20
39.662868
 11
350.462372
 21
36.598751
  0
ARC
  8
0
  6
CONTINUOUS
 10
407.533386
 20
40.598751
 40
5.000000
 50
-135.000107
 51
-90.000000
  0
ARC
  8
0
  6
CONTINUOUS
 10
399.219788
 20
37.598751
 40
3.000000
 50
44.999691
 51
90.000000
  0
ARC
  8
0
  6
CONTINUOUS
 10
401.462372
 20
36.598751
 40
1.000000
 50
180.000000
 51
270.000000
  0
ARC
  8
0
  6
CONTINUOUS
 10
343.391388
 20
40.598751
 40
5.000000
 50
-90.000000
 51
-45.000000
  0
ARC
  8
0
  6
CONTINUOUS
 10
351.704987
 20
37.598751
 40
3.000000
 50
90.000000
 51
134.999802
  0
ARC
  8
0
  6
CONTINUOUS
 10
349.462372
 20
36.598751
 40
1.000000
 50
-90.000000
 51
0.000000
  0
LINE
  8
0
  6
CONTINUOUS
 10
363.235382
 20
81.598747
 11
358.294983
 21
81.598747
  0
LINE
  8
0
  6
CONTINUOUS
 10
365.962372
 20
89.874153
 11
365.962372
 21
81.598747
  0
LINE
  8
0
  6
CONTINUOUS
 10
370.712372
 20
92.879997
 11
370.712372
 21
95.848747
  0
LINE
  8
0
  6
CONTINUOUS
 10
380.212372
 20
92.879997
 11
380.212372
 21
95.848747
  0
LINE
  8
0
  6
CONTINUOUS
 10
374.534576
 20
94.104607
 11
374.534576
 21
83.157349
  0
LINE
  8
0
  6
CONTINUOUS
 10
376.315796
 20
94.104607
 11
376.315796
 21
83.157349
  0
LINE
  8
0
  6
CONTINUOUS
 10
385.667389
 20
94.104607
 11
385.667389
 21
83.083130
  0
LINE
  8
0
  6
CONTINUOUS
 10
387.300171
 20
88.259888
 11
387.300171
 21
83.083130
  0
LINE
  8
0
  6
CONTINUOUS
 10
363.708374
 20
93.956169
 11
359.130585
 21
93.956169
  0
LINE
  8
0
  6
CONTINUOUS
 10
359.130585
 20
93.956169
 11
358.057983
 21
92.626167
  0
LINE
  8
0
  6
CONTINUOUS
 10
358.186981
 20
95.848747
 11
356.462372
 21
93.640282
  0
LINE
  8
0
  6
CONTINUOUS
 10
358.057983
 20
84.416588
 11
359.147797
 21
83.268669
  0
LINE
  8
0
  6
CONTINUOUS
 10
356.462372
 20
83.447868
 11
358.294983
 21
81.598747
  0
LINE
  8
0
  6
CONTINUOUS
 10
356.462372
 20
93.640282
 11
356.462372
 21
83.447868
  0
LINE
  8
0
  6
CONTINUOUS
 10
358.057983
 20
92.626167
 11
358.057983
 21
84.416588
  0
LINE
  8
0
  6
CONTINUOUS
 10
364.589386
 20
93.104607
 11
363.690369
 21
93.956169
  0
LINE
  8
0
  6
CONTINUOUS
 10
364.574982
 20
95.848747
 11
365.962372
 21
94.309166
  0
LINE
  8
0
  6
CONTINUOUS
 10
364.589386
 20
92.879997
 11
365.962372
 21
92.879997
  0
LINE
  8
0
  6
CONTINUOUS
 10
358.186981
 20
95.848747
 11
364.574982
 21
95.848747
  0
LINE
  8
0
  6
CONTINUOUS
 10
362.102997
 20
89.874153
 11
365.962372
 21
89.874153
  0
LINE
  8
0
  6
CONTINUOUS
 10
364.589386
 20
88.315552
 11
362.102997
 21
88.315552
  0
LINE
  8
0
  6
CONTINUOUS
 10
361.620575
 20
83.268669
 11
359.147797
 21
83.268669
  0
LINE
  8
0
  6
CONTINUOUS
 10
364.589386
 20
86.831169
 11
364.589386
 21
88.018669
  0
ARC
  8
0
  6
CONTINUOUS
 10
361.620575
 20
86.237411
 40
2.968750
 50
-89.999786
 51
0.000109
  0
LINE
  8
0
  6
CONTINUOUS
 10
364.589386
 20
82.734673
 11
364.589386
 21
81.598747
  0
LINE
  8
0
  6
CONTINUOUS
 10
365.962372
 20
94.309166
 11
365.962372
 21
92.879997
  0
LINE
  8
0
  6
CONTINUOUS
 10
364.589386
 20
88.315552
 11
364.589386
 21
86.237411
  0
LINE
  8
0
  6
CONTINUOUS
 10
362.102997
 20
89.874153
 11
362.102997
 21
88.315552
  0
LINE
  8
0
  6
CONTINUOUS
 10
364.589386
 20
81.598747
 11
365.962372
 21
81.598747
  0
LINE
  8
0
  6
CONTINUOUS
 10
364.589386
 20
82.734673
 11
363.235382
 21
81.598747
  0
LINE
  8
0
  6
CONTINUOUS
 10
376.315796
 20
83.157349
 11
376.909576
 21
83.157349
  0
LINE
  8
0
  6
CONTINUOUS
 10
373.829590
 20
83.157349
 11
373.829590
 21
81.598747
  0
LINE
  8
0
  6
CONTINUOUS
 10
376.909576
 20
83.157349
 11
376.909576
 21
81.598747
  0
LINE
  8
0
  6
CONTINUOUS
 10
379.221375
 20
92.879997
 11
380.212372
 21
92.879997
  0
LINE
  8
0
  6
CONTINUOUS
 10
370.712372
 20
92.879997
 11
371.766968
 21
92.879997
  0
LINE
  8
0
  6
CONTINUOUS
 10
370.712372
 20
95.848747
 11
380.212372
 21
95.848747
  0
LINE
  8
0
  6
CONTINUOUS
 10
373.829590
 20
81.598747
 11
376.909576
 21
81.598747
  0
LINE
  8
0
  6
CONTINUOUS
 10
373.829590
 20
83.157349
 11
374.534576
 21
83.157349
  0
ARC
  8
0
  6
CONTINUOUS
 10
390.658569
 20
92.045029
 40
3.803712
 50
-73.981873
 51
90.003510
  0
ARC
  8
0
  6
CONTINUOUS
 10
390.658569
 20
92.045029
 40
2.320524
 50
-82.585274
 51
62.411850
  0
LINE
  8
0
  6
CONTINUOUS
 10
384.962372
 20
95.848747
 11
390.658569
 21
95.848747
  0
LINE
  8
0
  6
CONTINUOUS
 10
390.958191
 20
89.743912
 11
387.300171
 21
89.743912
  0
LINE
  8
0
  6
CONTINUOUS
 10
384.962372
 20
95.848747
 11
384.962372
 21
94.104607
  0
LINE
  8
0
  6
CONTINUOUS
 10
387.300171
 20
94.104607
 11
387.300171
 21
89.743912
  0
LINE
  8
0
  6
CONTINUOUS
 10
391.708191
 20
88.389008
 11
394.062592
 21
83.083130
  0
LINE
  8
0
  6
CONTINUOUS
 10
390.340973
 20
88.259888
 11
392.568787
 21
83.083130
  0
LINE
  8
0
  6
CONTINUOUS
 10
384.962372
 20
83.083130
 11
385.667389
 21
83.083130
  0
LINE
  8
0
  6
CONTINUOUS
 10
387.300171
 20
83.083130
 11
387.949768
 21
83.083130
  0
LINE
  8
0
  6
CONTINUOUS
 10
387.949768
 20
81.598747
 11
384.962372
 21
81.598747
  0
LINE
  8
0
  6
CONTINUOUS
 10
392.272980
 20
83.083130
 11
392.568787
 21
83.083130
  0
LINE
  8
0
  6
CONTINUOUS
 10
394.062592
 20
83.083130
 11
394.462372
 21
83.083130
  0
LINE
  8
0
  6
CONTINUOUS
 10
392.272980
 20
81.598747
 11
394.462372
 21
81.598747
  0
LINE
  8
0
  6
CONTINUOUS
 10
394.462372
 20
83.083130
 11
394.462372
 21
81.598747
  0
LINE
  8
0
  6
CONTINUOUS
 10
392.272980
 20
83.083130
 11
392.272980
 21
81.598747
  0
LINE
  8
0
  6
CONTINUOUS
 10
387.949768
 20
83.083130
 11
387.949768
 21
81.598747
  0
LINE
  8
0
  6
CONTINUOUS
 10
384.962372
 20
83.083130
 11
384.962372
 21
81.598747
  0
LINE
  8
0
  6
CONTINUOUS
 10
372.277191
 20
94.104607
 11
371.766968
 21
92.879997
  0
LINE
  8
0
  6
CONTINUOUS
 10
378.791168
 20
94.104607
 11
379.221375
 21
92.879997
  0
LINE
  8
0
  6
CONTINUOUS
 10
376.315796
 20
94.104607
 11
378.791168
 21
94.104607
  0
LINE
  8
0
  6
CONTINUOUS
 10
374.534576
 20
94.104607
 11
372.277191
 21
94.104607
  0
LINE
  8
0
  6
CONTINUOUS
 10
387.300171
 20
88.259888
 11
390.340973
 21
88.259888
  0
LINE
  8
0
  6
CONTINUOUS
 10
384.962372
 20
94.104607
 11
385.667389
 21
94.104607
  0
LINE
  8
0
  6
CONTINUOUS
 10
387.300171
 20
94.104607
 11
391.733368
 21
94.101723
  0
LINE
  8
0
  6
CONTINUOUS
 10
364.589386
 20
93.104607
 11
364.589386
 21
92.879997
  0
LINE
  8
0
  6
CONTINUOUS
 10
447.462372
 20
166.375854
 11
447.462372
 21
94.821678
  0
LINE
  8
0
  6
CONTINUOUS
 10
303.462372
 20
166.375854
 11
303.462372
 21
94.821671
  0
ARC
  8
0
  6
CONTINUOUS
 10
375.462372
 20
130.598755
 40
88.000000
 50
228.189804
 51
311.810791
  0
ARC
  8
0
  6
CONTINUOUS
 10
375.462372
 20
130.598755
 40
88.000000
 50
48.217949
 51
131.810501
  0
ARC
  8
0
  6
CONTINUOUS
 10
343.462372
 20
166.375854
 40
40.000000
 50
131.810806
 51
180.000000
  0
ARC
  8
0
  6
CONTINUOUS
 10
407.462372
 20
166.375854
 40
40.000000
 50
0.000000
 51
48.251911
  0
ARC
  8
0
  6
CONTINUOUS
 10
407.462372
 20
94.821663
 40
40.000000
 50
-48.187901
 51
0.000000
  0
ARC
  8
0
  6
CONTINUOUS
 10
343.462372
 20
94.821663
 40
40.000000
 50
180.000000
 51
228.190094
  0
LINE
  8
0
  6
CONTINUOUS
 10
364.462372
 20
162.598755
 11
364.462372
 21
152.598755
  0
LINE
  8
0
  6
CONTINUOUS
 10
356.462372
 20
162.598755
 11
356.462372
 21
152.598755
  0
LINE
  8
0
  6
CONTINUOUS
 10
356.462372
 20
162.598755
 11
364.462372
 21
162.598755
  0
LINE
  8
0
  6
CONTINUOUS
 10
356.462372
 20
152.598755
 11
364.462372
 21
152.598755
  0
ARC
  8
0
  6
CONTINUOUS
 10
375.462372
 20
157.598755
 40
16.000000
 50
-161.790100
 51
161.790100
  0
LINE
  8
0
  6
CONTINUOUS
 10
526.962402
 20
444.656677
 11
526.962402
 21
458.656708
  0
TEXT
  8
0
 10
-2.000000
 20
2.000000
 40
4.000000
 41
1.000000
  1
HLM-32L-1200~1800-T40
 50
0.000000
  0
ENDSEC
  0
EOF
