  0
SECTION
  2
HEADER
  9
$CLAYER
  8
1
  9
$LTSCALE
 40
3.0
  0
ENDSEC
  0
SECTION
  2
TABLES
  0
TABLE
  2
LTYPE
 70
     4
  0
LTYPE
  2
CONTINUOUS
  3
solid line
 70
    64
 72
    65
 73
     0
 40
0.0
  0
LTYPE
  2
DASHED
  3
__ __ __ __ __ __ __ __ __ __ __ __ __ __ __
 70
    64
 72
    65
 73
     2
 40
0.75
 49
0.5
 49
-0.25
  0
LTYPE
  2
CENTER
  3
____ _ ____ _ ____ _ ____ _ ____ _ ____ _ ____
 70
    64
 72
    65
 73
     4
 40
2.0
 49
1.25
 49
-0.25
 49
0.25
 49
-0.25
  0
LTYPE
  2
PHANTOM
  3
_____ _ _ _____ _ _ _____ _ _ _____ _ _ ____
 70
    64
 72
    65
 73
     6
 40
2.5
 49
1.25
 49
-0.25
 49
0.25
 49
-0.25
 49
0.25
 49
-0.25
  0
ENDTAB
  0
TABLE
  2
LAYER
 70
     1
  0
LAYER
  2
0
 70
    64
 62
     7
  6
CONTINUOUS
  0
ENDTAB
  0
TABLE
  2
STYLE
 70
     1
  0
STYLE
  2
STANDARD
 70
     0
 40
0.000000
 41
1.000000
 50
0.000000
 71
     0
 42
3.000000
  3
txt
  4
BIGFONT
  0
ENDTAB
  0
ENDSEC
  0
SECTION
  2
BLOCKS
  0
ENDSEC
  0
SECTION
  2
ENTITIES
  0
LINE
  8
0
  6
CENTER
 10
370.336121
 20
294.429169
 11
370.336121
 21
515.657471
  0
LINE
  8
0
  6
CONTINUOUS
 10
294.335938
 20
422.491669
 11
295.121399
 21
377.491669
  0
LINE
  8
0
  6
CONTINUOUS
 10
428.786194
 20
347.491669
 11
386.336121
 21
347.491669
  0
LINE
  8
0
  6
CONTINUOUS
 10
304.392548
 20
352.690460
 11
295.121399
 21
377.491669
  0
ARC
  8
0
  6
CONTINUOUS
 10
311.886078
 20
355.491669
 40
8.000000
 50
200.496613
 51
270.000000
  0
LINE
  8
0
  6
CONTINUOUS
 10
294.335938
 20
422.491669
 11
295.121399
 21
467.491669
  0
LINE
  8
0
  6
CONTINUOUS
 10
428.786194
 20
497.491669
 11
370.336121
 21
497.491669
  0
LINE
  8
0
  6
CONTINUOUS
 10
304.392548
 20
492.292908
 11
295.121399
 21
467.491669
  0
ARC
  8
0
  6
CONTINUOUS
 10
311.886078
 20
489.491669
 40
8.000000
 50
90.000000
 51
159.503387
  0
LINE
  8
0
  6
CONTINUOUS
 10
436.279724
 20
352.690460
 11
445.334503
 21
376.912964
  0
ARC
  8
0
  6
CONTINUOUS
 10
428.786194
 20
355.491669
 40
8.000000
 50
270.000000
 51
339.503387
  0
LINE
  8
0
  6
CONTINUOUS
 10
436.279724
 20
492.292908
 11
445.334503
 21
468.070404
  0
ARC
  8
0
  6
CONTINUOUS
 10
428.786194
 20
489.491669
 40
8.000000
 50
20.496618
 51
90.000000
  0
LINE
  8
0
  6
CONTINUOUS
 10
442.999512
 20
377.491669
 11
298.069489
 21
377.491669
  0
LINE
  8
0
  6
CONTINUOUS
 10
298.069489
 20
467.491669
 11
442.999512
 21
467.491669
  0
LINE
  8
0
  6
CONTINUOUS
 10
370.336121
 20
360.491669
 11
335.077332
 21
360.491669
  0
ARC
  8
0
  6
CONTINUOUS
 10
298.069489
 20
380.491669
 40
3.000000
 50
181.000000
 51
270.000000
  0
ARC
  8
0
  6
CONTINUOUS
 10
298.069489
 20
464.491669
 40
3.000000
 50
90.000000
 51
179.000000
  0
LINE
  8
0
  6
CONTINUOUS
 10
341.336121
 20
380.491669
 11
341.336121
 21
464.491669
  0
LINE
  8
0
  6
CONTINUOUS
 10
399.336121
 20
380.491669
 11
399.336121
 21
464.491669
  0
LINE
  8
0
  6
CONTINUOUS
 10
458.336121
 20
358.491669
 11
458.336121
 21
486.491669
  0
LINE
  8
0
  6
CONTINUOUS
 10
455.763794
 20
358.491669
 11
458.336121
 21
358.491669
  0
LINE
  8
0
  6
CONTINUOUS
 10
330.280487
 20
364.080841
 11
329.277313
 21
367.491669
  0
ARC
  8
0
  6
CONTINUOUS
 10
335.077332
 20
365.491669
 40
5.000000
 50
196.389542
 51
270.000000
  0
LINE
  8
0
  6
CONTINUOUS
 10
314.789978
 20
371.099060
 11
313.982269
 21
373.884308
  0
LINE
  8
0
  6
CONTINUOUS
 10
319.592133
 20
367.491669
 11
329.277313
 21
367.491669
  0
LINE
  8
0
  6
CONTINUOUS
 10
370.336121
 20
360.491669
 11
405.594940
 21
360.491669
  0
LINE
  8
0
  6
CONTINUOUS
 10
370.336121
 20
484.491669
 11
335.077332
 21
484.491669
  0
LINE
  8
0
  6
CONTINUOUS
 10
370.336121
 20
484.491669
 11
405.594940
 21
484.491669
  0
LINE
  8
0
  6
CONTINUOUS
 10
351.336121
 20
302.491669
 11
386.336121
 21
302.491669
  0
LINE
  8
0
  6
CONTINUOUS
 10
386.336121
 20
357.491669
 11
386.336121
 21
302.491669
  0
LINE
  8
0
  6
CONTINUOUS
 10
354.336121
 20
357.491669
 11
354.336121
 21
352.491669
  0
LINE
  8
0
  6
CONTINUOUS
 10
387.836121
 20
357.491669
 11
352.836121
 21
357.491669
  0
LINE
  8
0
  6
CONTINUOUS
 10
387.836121
 20
360.491669
 11
387.836121
 21
357.491669
  0
LINE
  8
0
  6
CONTINUOUS
 10
352.836121
 20
360.491669
 11
352.836121
 21
357.491669
  0
LINE
  8
0
  6
CONTINUOUS
 10
351.336121
 20
347.491669
 11
311.886078
 21
347.491669
  0
LINE
  8
0
  6
CONTINUOUS
 10
351.336121
 20
302.491669
 11
351.336121
 21
352.491669
  0
LINE
  8
0
  6
CONTINUOUS
 10
355.137451
 20
352.491669
 11
351.336121
 21
352.491669
  0
LINE
  8
0
  6
CONTINUOUS
 10
355.137451
 20
352.491669
 11
355.137451
 21
302.491669
  0
LINE
  8
0
  6
CONTINUOUS
 10
370.336121
 20
497.491669
 11
311.886078
 21
497.491669
  0
LINE
  8
0
  6
CENTER
 10
332.712463
 20
362.491669
 11
313.774963
 21
362.491669
  0
LINE
  8
0
  6
CENTER
 10
322.836121
 20
371.644012
 11
322.836121
 21
352.144012
  0
ARC
  8
0
  6
CONTINUOUS
 10
322.836121
 20
362.491669
 40
6.500000
 50
-231.240692
 51
50.284863
  0
ARC
  8
0
  6
CONTINUOUS
 10
417.836121
 20
362.491669
 40
6.500000
 50
-230.284866
 51
51.240688
  0
LINE
  8
0
  6
CENTER
 10
417.836121
 20
371.644012
 11
417.836121
 21
352.144012
  0
LINE
  8
0
  6
CENTER
 10
407.959808
 20
362.491669
 11
426.897308
 21
362.491669
  0
LINE
  8
0
  6
CENTER
 10
669.395874
 20
422.491669
 11
282.915100
 21
422.491669
  0
LINE
  8
0
  6
CONTINUOUS
 10
450.934174
 20
362.197571
 11
447.829132
 21
373.785767
  0
ARC
  8
0
  6
CONTINUOUS
 10
442.999512
 20
372.491669
 40
5.000000
 50
15.000000
 51
90.000000
  0
ARC
  8
0
  6
CONTINUOUS
 10
455.763794
 20
363.491669
 40
5.000000
 50
195.000000
 51
270.000000
  0
LINE
  8
0
  6
CONTINUOUS
 10
455.763794
 20
486.491669
 11
458.336121
 21
486.491669
  0
LINE
  8
0
  6
CONTINUOUS
 10
450.934174
 20
482.785767
 11
447.829132
 21
471.197571
  0
ARC
  8
0
  6
CONTINUOUS
 10
455.763794
 20
481.491669
 40
5.000000
 50
90.000000
 51
165.000000
  0
ARC
  8
0
  6
CONTINUOUS
 10
442.999512
 20
472.491669
 40
5.000000
 50
-90.000000
 51
-15.000000
  0
LINE
  8
0
  6
CONTINUOUS
 10
446.336334
 20
422.491669
 11
445.602295
 21
380.439331
  0
LINE
  8
0
  6
CONTINUOUS
 10
446.336334
 20
422.491669
 11
445.602295
 21
464.544037
  0
ARC
  8
0
  6
CONTINUOUS
 10
442.602753
 20
380.491669
 40
3.000000
 50
270.000000
 51
359.000000
  0
ARC
  8
0
  6
CONTINUOUS
 10
442.602753
 20
464.491669
 40
3.000000
 50
1.000000
 51
90.000000
  0
ARC
  8
0
  6
CONTINUOUS
 10
319.592133
 20
372.491669
 40
5.000000
 50
196.172165
 51
270.000000
  0
ARC
  8
0
  6
CONTINUOUS
 10
309.180115
 20
372.491669
 40
5.000000
 50
16.172159
 51
90.000000
  0
LINE
  8
0
  6
CONTINUOUS
 10
312.936127
 20
377.491669
 11
312.932922
 21
377.502777
  0
ARC
  8
0
  6
CONTINUOUS
 10
405.594940
 20
365.491669
 40
5.000000
 50
270.000000
 51
343.610474
  0
LINE
  8
0
  6
CONTINUOUS
 10
410.391785
 20
364.080841
 11
411.394958
 21
367.491669
  0
LINE
  8
0
  6
CONTINUOUS
 10
425.882263
 20
371.099060
 11
426.690002
 21
373.884308
  0
LINE
  8
0
  6
CONTINUOUS
 10
421.080139
 20
367.491669
 11
411.394958
 21
367.491669
  0
ARC
  8
0
  6
CONTINUOUS
 10
421.080139
 20
372.491669
 40
5.000000
 50
270.000000
 51
343.827850
  0
ARC
  8
0
  6
CONTINUOUS
 10
431.492126
 20
372.491669
 40
5.000000
 50
90.000000
 51
163.827835
  0
LINE
  8
0
  6
CONTINUOUS
 10
427.736145
 20
377.491669
 11
427.739349
 21
377.502777
  0
ARC
  8
0
  6
CONTINUOUS
 10
417.836121
 20
482.491669
 40
6.500000
 50
-51.240688
 51
230.284866
  0
LINE
  8
0
  6
CENTER
 10
407.959808
 20
482.491669
 11
426.897308
 21
482.491669
  0
ARC
  8
0
  6
CONTINUOUS
 10
405.594940
 20
479.491669
 40
5.000000
 50
16.389540
 51
90.000000
  0
LINE
  8
0
  6
CONTINUOUS
 10
410.391785
 20
480.902496
 11
411.394958
 21
477.491669
  0
LINE
  8
0
  6
CONTINUOUS
 10
425.882263
 20
473.884308
 11
426.690002
 21
471.099060
  0
LINE
  8
0
  6
CONTINUOUS
 10
421.080139
 20
477.491669
 11
411.394958
 21
477.491669
  0
ARC
  8
0
  6
CONTINUOUS
 10
421.080139
 20
472.491669
 40
5.000000
 50
16.172159
 51
90.000000
  0
ARC
  8
0
  6
CONTINUOUS
 10
431.492126
 20
472.491669
 40
5.000000
 50
196.172165
 51
270.000000
  0
LINE
  8
0
  6
CONTINUOUS
 10
427.736145
 20
467.491669
 11
427.739349
 21
467.480591
  0
LINE
  8
0
  6
CENTER
 10
417.836121
 20
473.339325
 11
417.836121
 21
492.839325
  0
LINE
  8
0
  6
CONTINUOUS
 10
330.280487
 20
480.902496
 11
329.277313
 21
477.491669
  0
ARC
  8
0
  6
CONTINUOUS
 10
335.077332
 20
479.491669
 40
5.000000
 50
90.000000
 51
163.610458
  0
LINE
  8
0
  6
CONTINUOUS
 10
314.789978
 20
473.884308
 11
313.982269
 21
471.099060
  0
LINE
  8
0
  6
CONTINUOUS
 10
319.592133
 20
477.491669
 11
329.277313
 21
477.491669
  0
LINE
  8
0
  6
CENTER
 10
332.712463
 20
482.491669
 11
313.774963
 21
482.491669
  0
LINE
  8
0
  6
CENTER
 10
322.836121
 20
473.339325
 11
322.836121
 21
492.839325
  0
ARC
  8
0
  6
CONTINUOUS
 10
322.836121
 20
482.491669
 40
6.500000
 50
-50.284863
 51
231.240692
  0
ARC
  8
0
  6
CONTINUOUS
 10
319.592133
 20
472.491669
 40
5.000000
 50
90.000000
 51
163.827835
  0
ARC
  8
0
  6
CONTINUOUS
 10
309.180115
 20
472.491669
 40
5.000000
 50
-90.000000
 51
-16.172159
  0
LINE
  8
0
  6
CONTINUOUS
 10
312.936127
 20
467.491669
 11
312.932922
 21
467.480591
  0
LINE
  8
0
  6
CENTER
 10
82.834251
 20
9.313750
 11
82.834251
 21
242.226562
  0
LINE
  8
0
  6
CENTER
 10
3.036868
 20
119.433746
 11
158.666870
 21
119.433746
  0
LINE
  8
0
  6
CENTER
 10
5.801868
 20
164.433746
 11
217.011246
 21
164.433746
  0
LINE
  8
0
  6
CENTER
 10
142.834244
 20
51.032490
 11
142.834244
 21
13.133370
  0
LINE
  8
0
  6
CENTER
 10
22.834249
 20
51.032490
 11
22.834249
 21
13.133370
  0
LINE
  8
0
  6
CONTINUOUS
 10
7.834250
 20
24.433750
 11
52.834251
 21
24.433750
  0
LINE
  8
0
  6
CONTINUOUS
 10
112.834251
 20
24.433750
 11
157.834244
 21
24.433750
  0
LINE
  8
0
  6
CONTINUOUS
 10
155.334244
 20
42.433750
 11
131.834244
 21
42.433750
  0
LINE
  8
0
  6
CONTINUOUS
 10
10.334250
 20
42.433750
 11
33.834251
 21
42.433750
  0
LINE
  8
0
  6
CONTINUOUS
 10
127.834251
 20
225.700516
 11
127.834251
 21
24.433750
  0
LINE
  8
0
  6
CONTINUOUS
 10
37.834251
 20
212.174957
 11
37.834251
 21
225.700027
  0
LINE
  8
0
  6
CONTINUOUS
 10
157.834244
 20
40.315929
 11
157.834244
 21
24.433750
  0
LINE
  8
0
  6
CONTINUOUS
 10
7.834250
 20
40.315929
 11
7.834250
 21
24.433750
  0
LINE
  8
0
  6
CONTINUOUS
 10
54.334251
 20
25.933750
 11
111.334251
 21
25.933750
  0
LINE
  8
0
  6
CONTINUOUS
 10
124.886650
 20
228.700043
 11
82.834251
 21
229.433746
  0
LINE
  8
0
  6
CONTINUOUS
 10
40.781849
 20
228.699570
 11
82.834251
 21
229.433746
  0
LINE
  8
0
  6
CONTINUOUS
 10
20.834249
 20
129.174942
 11
20.834249
 21
199.692566
  0
LINE
  8
0
  6
CONTINUOUS
 10
144.834244
 20
129.174942
 11
144.834244
 21
199.692566
  0
LINE
  8
0
  6
CONTINUOUS
 10
27.834249
 20
80.189751
 11
27.834249
 21
168.344147
  0
LINE
  8
0
  6
CONTINUOUS
 10
137.834244
 20
80.189774
 11
137.834244
 21
168.344147
  0
LINE
  8
0
  6
DASHED
 10
149.334244
 20
42.433750
 11
149.334244
 21
24.433750
  0
LINE
  8
0
  6
DASHED
 10
136.334244
 20
42.433750
 11
136.334244
 21
24.433750
  0
LINE
  8
0
  6
DASHED
 10
29.334249
 20
42.433750
 11
29.334249
 21
24.433750
  0
LINE
  8
0
  6
DASHED
 10
16.334249
 20
42.433750
 11
16.334249
 21
24.433750
  0
ARC
  8
0
  6
CONTINUOUS
 10
40.834251
 20
225.700027
 40
3.000000
 50
91.000603
 51
180.000000
  0
ARC
  8
0
  6
CONTINUOUS
 10
124.834251
 20
225.700485
 40
3.000000
 50
0.000000
 51
89.000580
  0
LINE
  8
0
  6
CONTINUOUS
 10
34.245049
 20
207.378113
 11
24.423450
 21
204.489365
  0
LINE
  8
0
  6
CONTINUOUS
 10
24.423450
 20
124.378113
 11
24.962851
 21
124.219444
  0
LINE
  8
0
  6
CONTINUOUS
 10
31.441650
 20
75.387611
 11
34.226849
 21
74.579887
  0
LINE
  8
0
  6
CONTINUOUS
 10
9.923250
 20
42.781910
 11
35.327450
 21
47.015949
  0
LINE
  8
0
  6
CONTINUOUS
 10
155.745255
 20
42.781929
 11
130.341049
 21
47.015968
  0
LINE
  8
0
  6
CONTINUOUS
 10
134.226852
 20
75.387611
 11
131.441650
 21
74.579887
  0
LINE
  8
0
  6
CONTINUOUS
 10
141.245056
 20
124.378113
 11
140.705643
 21
124.219437
  0
LINE
  8
0
  6
CONTINUOUS
 10
141.245056
 20
204.489395
 11
131.423447
 21
207.378113
  0
LINE
  8
0
  6
CONTINUOUS
 10
40.408649
 20
196.933746
 11
125.086853
 21
196.933746
  0
ARC
  8
0
  6
CONTINUOUS
 10
25.834249
 20
199.692596
 40
5.000000
 50
106.389900
 51
180.000000
  0
ARC
  8
0
  6
CONTINUOUS
 10
139.834244
 20
199.692551
 40
5.000000
 50
0.000000
 51
73.610527
  0
ARC
  8
0
  6
CONTINUOUS
 10
25.834249
 20
129.174973
 40
5.000000
 50
180.000000
 51
253.610794
  0
ARC
  8
0
  6
CONTINUOUS
 10
139.834244
 20
129.174927
 40
5.000000
 50
-73.610321
 51
0.000000
  0
ARC
  8
0
  6
CONTINUOUS
 10
132.834244
 20
80.189751
 40
5.000000
 50
-73.827698
 51
0.000000
  0
ARC
  8
0
  6
CONTINUOUS
 10
32.834251
 20
80.189789
 40
5.000000
 50
180.000000
 51
253.828201
  0
LINE
  8
0
  6
CONTINUOUS
 10
37.834251
 20
212.174957
 11
37.834251
 21
24.433750
  0
ARC
  8
0
  6
CONTINUOUS
 10
32.834251
 20
212.174927
 40
5.000000
 50
-73.610229
 51
0.000000
  0
ARC
  8
0
  6
CONTINUOUS
 10
23.834249
 20
120.381966
 40
4.000000
 50
0.000000
 51
73.610649
  0
ARC
  8
0
  6
CONTINUOUS
 10
32.834251
 20
69.777733
 40
5.000000
 50
0.000000
 51
73.827919
  0
ARC
  8
0
  6
CONTINUOUS
 10
132.834244
 20
69.777771
 40
5.000000
 50
106.172501
 51
180.000000
  0
ARC
  8
0
  6
CONTINUOUS
 10
141.834244
 20
120.381996
 40
4.000000
 50
106.389999
 51
180.000000
  0
ARC
  8
0
  6
CONTINUOUS
 10
132.834244
 20
212.174973
 40
5.000000
 50
180.000000
 51
253.610794
  0
ARC
  8
0
  6
CONTINUOUS
 10
34.834251
 20
49.975128
 40
3.000000
 50
-80.537483
 51
0.000000
  0
ARC
  8
0
  6
CONTINUOUS
 10
33.834251
 20
46.433708
 40
4.000000
 50
-90.000000
 51
0.000000
  0
ARC
  8
0
  6
CONTINUOUS
 10
10.334250
 20
39.933769
 40
2.500000
 50
90.000000
 51
180.000000
  0
LINE
  8
0
  6
CONTINUOUS
 10
52.834251
 20
24.433750
 11
54.334251
 21
25.933750
  0
LINE
  8
0
  6
CONTINUOUS
 10
112.834251
 20
24.433750
 11
111.334251
 21
25.933750
  0
ARC
  8
0
  6
CONTINUOUS
 10
130.834244
 20
49.975170
 40
3.000000
 50
180.000000
 51
260.537903
  0
ARC
  8
0
  6
CONTINUOUS
 10
131.834244
 20
46.433750
 40
4.000000
 50
180.000000
 51
270.000000
  0
ARC
  8
0
  6
CONTINUOUS
 10
155.334244
 20
39.933750
 40
2.500000
 50
0.000000
 51
90.000000
  0
LINE
  8
0
  6
CONTINUOUS
 10
202.834244
 20
148.433746
 11
202.834244
 21
180.433746
  0
LINE
  8
0
  6
CONTINUOUS
 10
147.834244
 20
180.433746
 11
202.834244
 21
180.433746
  0
LINE
  8
0
  6
CONTINUOUS
 10
147.834244
 20
148.433746
 11
202.834244
 21
148.433746
  0
LINE
  8
0
  6
CONTINUOUS
 10
147.834244
 20
181.933746
 11
147.834244
 21
146.933746
  0
LINE
  8
0
  6
CONTINUOUS
 10
144.834244
 20
181.933746
 11
147.834244
 21
181.933746
  0
LINE
  8
0
  6
CONTINUOUS
 10
144.834244
 20
146.933746
 11
147.834244
 21
146.933746
  0
ARC
  8
0
  6
CONTINUOUS
 10
157.834244
 20
164.433746
 40
5.000000
 50
90.000000
 51
270.000000
  0
LINE
  8
0
  6
CONTINUOUS
 10
157.834244
 20
169.433746
 11
202.834244
 21
169.433746
  0
LINE
  8
0
  6
CONTINUOUS
 10
157.834244
 20
159.433746
 11
202.834244
 21
159.433746
  0
ARC
  8
0
  6
CONTINUOUS
 10
10.334250
 20
40.315948
 40
2.500000
 50
99.462753
 51
180.000000
  0
ARC
  8
0
  6
CONTINUOUS
 10
155.334244
 20
40.315929
 40
2.500000
 50
0.000000
 51
80.537682
  0
LINE
  8
0
  6
CONTINUOUS
 10
458.336121
 20
183.433746
 11
458.336121
 21
55.433750
  0
ARC
  8
0
  6
CONTINUOUS
 10
82.834251
 20
119.433746
 40
64.000000
 50
165.638489
 51
210.753525
  0
ARC
  8
0
  6
CONTINUOUS
 10
82.834251
 20
119.433746
 40
64.000000
 50
-30.753519
 51
14.361512
  0
ARC
  8
0
  6
CONTINUOUS
 10
41.822048
 20
78.421532
 40
8.000000
 50
211.001404
 51
233.216995
  0
ARC
  8
0
  6
CONTINUOUS
 10
35.834251
 20
70.412407
 40
2.000000
 50
30.947910
 51
53.217121
  0
ARC
  8
0
  6
CONTINUOUS
 10
123.846451
 20
78.421532
 40
8.000000
 50
-53.216999
 51
-31.001400
  0
ARC
  8
0
  6
CONTINUOUS
 10
129.834244
 20
70.412407
 40
2.000000
 50
126.782883
 51
149.052094
  0
LINE
  8
0
  6
CENTER
 10
669.958984
 20
106.433746
 11
413.449768
 21
106.433746
  0
LINE
  8
0
  6
CENTER
 10
550.644714
 20
119.433746
 11
413.449768
 21
119.433746
  0
LINE
  8
0
  6
CONTINUOUS
 10
466.836121
 20
484.491669
 11
466.836121
 21
360.491669
  0
LINE
  8
0
  6
CONTINUOUS
 10
512.836121
 20
377.491669
 11
469.272522
 21
375.970398
  0
LINE
  8
0
  6
CONTINUOUS
 10
512.836121
 20
467.491669
 11
469.272522
 21
469.012970
  0
LINE
  8
0
  6
CONTINUOUS
 10
512.836121
 20
373.479675
 11
512.836121
 21
471.503693
  0
LINE
  8
0
  6
CONTINUOUS
 10
464.836121
 20
358.491669
 11
458.336121
 21
358.491669
  0
LINE
  8
0
  6
CONTINUOUS
 10
464.836121
 20
486.491669
 11
458.336121
 21
486.491669
  0
LINE
  8
0
  6
CONTINUOUS
 10
473.979126
 20
398.491669
 11
466.864166
 21
398.491669
  0
LINE
  8
0
  6
CONTINUOUS
 10
473.373993
 20
446.491669
 11
466.864166
 21
446.491669
  0
LINE
  8
0
  6
CONTINUOUS
 10
473.979126
 20
400.696198
 11
473.979126
 21
444.408752
  0
LINE
  8
0
  6
CONTINUOUS
 10
521.836121
 20
379.491669
 11
521.836121
 21
393.491669
  0
LINE
  8
0
  6
CONTINUOUS
 10
631.836121
 20
377.491669
 11
512.836121
 21
377.491669
  0
LINE
  8
0
  6
CONTINUOUS
 10
631.836121
 20
467.491669
 11
512.836121
 21
467.491669
  0
LINE
  8
0
  6
CONTINUOUS
 10
631.836121
 20
377.491669
 11
631.836121
 21
397.491699
  0
LINE
  8
0
  6
CONTINUOUS
 10
631.836121
 20
393.491669
 11
521.836121
 21
393.491669
  0
LINE
  8
0
  6
CONTINUOUS
 10
631.836121
 20
451.491669
 11
521.836121
 21
451.491669
  0
ARC
  8
0
  6
CONTINUOUS
 10
519.836121
 20
379.491669
 40
2.000000
 50
-90.000000
 51
0.000000
  0
ARC
  8
0
  6
CONTINUOUS
 10
519.836121
 20
465.491669
 40
2.000000
 50
0.000000
 51
90.000000
  0
LINE
  8
0
  6
CONTINUOUS
 10
652.336121
 20
457.491669
 11
652.336121
 21
387.491669
  0
LINE
  8
0
  6
CONTINUOUS
 10
647.794678
 20
377.491669
 11
631.836121
 21
377.491669
  0
LINE
  8
0
  6
CONTINUOUS
 10
651.836121
 20
380.491669
 11
651.836121
 21
464.491669
  0
LINE
  8
0
  6
CONTINUOUS
 10
631.836121
 20
393.491669
 11
650.086121
 21
393.491669
  0
LINE
  8
0
  6
CONTINUOUS
 10
651.258789
 20
379.491699
 11
651.836121
 21
380.491669
  0
ARC
  8
0
  6
CONTINUOUS
 10
647.794678
 20
381.491669
 40
4.000000
 50
270.000000
 51
330.000397
  0
LINE
  8
0
  6
CONTINUOUS
 10
647.794678
 20
467.491669
 11
631.836121
 21
467.491669
  0
LINE
  8
0
  6
CONTINUOUS
 10
631.836121
 20
451.491669
 11
650.086121
 21
451.491669
  0
LINE
  8
0
  6
CONTINUOUS
 10
651.258789
 20
465.491669
 11
651.836121
 21
464.491669
  0
ARC
  8
0
  6
CONTINUOUS
 10
647.794678
 20
463.491699
 40
4.000000
 50
29.999599
 51
90.000000
  0
LINE
  8
0
  6
CONTINUOUS
 10
652.336121
 20
387.491669
 11
651.836121
 21
386.991669
  0
LINE
  8
0
  6
CONTINUOUS
 10
652.336121
 20
457.491669
 11
651.836121
 21
457.991669
  0
LINE
  8
0
  6
CONTINUOUS
 10
512.836121
 20
377.491669
 11
512.836121
 21
467.491669
  0
ARC
  8
0
  6
CONTINUOUS
 10
464.836121
 20
360.491669
 40
2.000000
 50
-90.000000
 51
0.000000
  0
ARC
  8
0
  6
CONTINUOUS
 10
464.836121
 20
484.491669
 40
2.000000
 50
0.000000
 51
90.000000
  0
ARC
  8
0
  6
CONTINUOUS
 10
469.359772
 20
373.471924
 40
2.500000
 50
92.000000
 51
179.895706
  0
ARC
  8
0
  6
CONTINUOUS
 10
469.359772
 20
471.511444
 40
2.500000
 50
180.104294
 51
268.000000
  0
LINE
  8
0
  6
CONTINUOUS
 10
466.836121
 20
375.885315
 11
466.864166
 21
375.886292
  0
LINE
  8
0
  6
CONTINUOUS
 10
512.336426
 20
372.962219
 11
466.836121
 21
371.373322
  0
LINE
  8
0
  6
CONTINUOUS
 10
512.836121
 20
373.479675
 11
512.336426
 21
372.962219
  0
LINE
  8
0
  6
CONTINUOUS
 10
512.336426
 20
472.021118
 11
466.836121
 21
473.610046
  0
LINE
  8
0
  6
CONTINUOUS
 10
512.836121
 20
471.503693
 11
512.336426
 21
472.021118
  0
LINE
  8
0
  6
CONTINUOUS
 10
631.836121
 20
447.491699
 11
631.836121
 21
467.491669
  0
LINE
  8
0
  6
CONTINUOUS
 10
521.836121
 20
149.433746
 11
521.836121
 21
63.433731
  0
LINE
  8
0
  6
CONTINUOUS
 10
631.836121
 20
151.433746
 11
512.836121
 21
151.433746
  0
LINE
  8
0
  6
CONTINUOUS
 10
631.836121
 20
61.433750
 11
512.836121
 21
61.433750
  0
LINE
  8
0
  6
CONTINUOUS
 10
631.836121
 20
151.433746
 11
631.836121
 21
61.433750
  0
LINE
  8
0
  6
CONTINUOUS
 10
631.836121
 20
140.843048
 11
522.873840
 21
140.843048
  0
LINE
  8
0
  6
CONTINUOUS
 10
631.836121
 20
72.024452
 11
522.873840
 21
72.024452
  0
ARC
  8
0
  6
CONTINUOUS
 10
519.836121
 20
149.433777
 40
2.000000
 50
0.000000
 51
90.000000
  0
ARC
  8
0
  6
CONTINUOUS
 10
519.836121
 20
63.433750
 40
2.000000
 50
-90.000000
 51
0.000000
  0
LINE
  8
0
  6
CONTINUOUS
 10
652.336121
 20
71.433746
 11
652.336121
 21
141.433746
  0
LINE
  8
0
  6
CONTINUOUS
 10
647.794678
 20
151.433746
 11
631.836121
 21
151.433746
  0
LINE
  8
0
  6
CONTINUOUS
 10
651.836121
 20
148.433746
 11
651.836121
 21
64.433746
  0
LINE
  8
0
  6
CONTINUOUS
 10
631.836121
 20
140.843048
 11
650.086121
 21
140.843048
  0
LINE
  8
0
  6
CONTINUOUS
 10
651.258789
 20
149.433731
 11
651.836121
 21
148.433746
  0
ARC
  8
0
  6
CONTINUOUS
 10
647.794678
 20
147.433746
 40
4.000000
 50
29.999599
 51
90.000000
  0
LINE
  8
0
  6
CONTINUOUS
 10
647.794678
 20
61.433750
 11
631.836121
 21
61.433750
  0
LINE
  8
0
  6
CONTINUOUS
 10
631.836121
 20
72.024452
 11
650.086121
 21
72.024452
  0
LINE
  8
0
  6
CONTINUOUS
 10
651.258789
 20
63.433750
 11
651.836121
 21
64.433746
  0
ARC
  8
0
  6
CONTINUOUS
 10
647.794678
 20
65.433731
 40
4.000000
 50
270.000000
 51
330.000397
  0
LINE
  8
0
  6
CONTINUOUS
 10
652.336121
 20
141.433746
 11
651.836121
 21
141.933746
  0
LINE
  8
0
  6
CONTINUOUS
 10
652.336121
 20
71.433746
 11
651.836121
 21
70.933746
  0
LINE
  8
0
  6
CONTINUOUS
 10
464.836121
 20
183.433853
 11
458.336121
 21
183.433853
  0
LINE
  8
0
  6
CONTINUOUS
 10
464.836121
 20
55.433651
 11
458.336121
 21
55.433651
  0
LINE
  8
0
  6
CONTINUOUS
 10
512.836121
 20
151.433746
 11
466.836121
 21
153.040100
  0
LINE
  8
0
  6
CONTINUOUS
 10
458.336121
 20
59.530567
 11
512.836121
 21
61.433750
  0
ARC
  8
0
  6
CONTINUOUS
 10
464.836121
 20
181.433868
 40
2.000000
 50
0.000000
 51
90.000000
  0
ARC
  8
0
  6
CONTINUOUS
 10
464.836121
 20
57.433651
 40
2.000000
 50
-90.000000
 51
-0.260773
  0
LINE
  8
0
  6
CONTINUOUS
 10
512.836121
 20
151.433746
 11
512.836121
 21
61.433750
  0
LINE
  8
0
  6
CONTINUOUS
 10
467.568359
 20
159.201523
 11
473.282867
 21
153.487000
  0
LINE
  8
0
  6
CONTINUOUS
 10
512.836121
 20
85.927750
 11
468.836121
 21
85.927750
  0
LINE
  8
0
  6
CONTINUOUS
 10
512.836121
 20
70.914749
 11
458.336121
 21
70.914749
  0
LINE
  8
0
  6
CONTINUOUS
 10
466.268158
 20
78.866753
 11
458.336121
 21
78.866753
  0
LINE
  8
0
  6
CONTINUOUS
 10
466.836121
 20
80.081482
 11
466.836121
 21
181.433868
  0
ARC
  8
0
  6
CONTINUOUS
 10
469.336090
 20
57.413170
 40
2.500000
 50
92.000000
 51
179.739227
  0
ARC
  8
0
  6
CONTINUOUS
 10
469.336121
 20
160.969284
 40
2.500000
 50
180.000000
 51
225.000000
  0
ARC
  8
0
  6
CONTINUOUS
 10
475.050659
 20
155.254776
 40
2.500000
 50
-135.000000
 51
-92.000000
  0
LINE
  8
0
  6
CENTER
 10
370.336121
 20
245.216873
 11
370.336121
 21
13.800870
  0
LINE
  8
0
  6
CENTER
 10
429.634888
 20
164.433746
 11
308.916260
 21
164.433746
  0
LINE
  8
0
  6
CENTER
 10
322.836121
 20
49.709190
 11
322.836121
 21
15.844450
  0
LINE
  8
0
  6
CENTER
 10
417.836121
 20
49.709190
 11
417.836121
 21
15.552510
  0
LINE
  8
0
  6
CONTINUOUS
 10
446.336121
 20
24.433750
 11
294.336121
 21
24.433750
  0
LINE
  8
0
  6
CONTINUOUS
 10
446.336121
 20
42.433750
 11
294.336121
 21
42.433750
  0
LINE
  8
0
  6
CONTINUOUS
 10
294.336121
 20
192.739304
 11
294.336121
 21
24.433750
  0
LINE
  8
0
  6
CONTINUOUS
 10
446.336121
 20
187.933746
 11
446.336121
 21
192.739304
  0
LINE
  8
0
  6
CONTINUOUS
 10
396.839539
 20
229.433746
 11
343.832733
 21
229.433746
  0
LINE
  8
0
  6
CONTINUOUS
 10
451.336121
 20
183.433746
 11
458.336121
 21
183.433746
  0
LINE
  8
0
  6
CONTINUOUS
 10
451.336121
 20
55.433750
 11
458.336121
 21
55.433750
  0
LINE
  8
0
  6
CONTINUOUS
 10
297.786133
 20
199.319366
 11
339.282745
 21
228.013809
  0
LINE
  8
0
  6
CONTINUOUS
 10
442.886139
 20
199.319366
 11
401.389526
 21
228.013809
  0
ARC
  8
0
  6
CONTINUOUS
 10
343.832733
 20
221.433746
 40
8.000000
 50
90.000000
 51
124.663300
  0
ARC
  8
0
  6
CONTINUOUS
 10
302.336121
 20
192.739273
 40
8.000000
 50
124.663300
 51
180.000000
  0
ARC
  8
0
  6
CONTINUOUS
 10
396.839539
 20
221.433746
 40
8.000000
 50
55.336300
 51
90.000000
  0
ARC
  8
0
  6
CONTINUOUS
 10
438.336121
 20
192.739349
 40
8.000000
 50
0.000000
 51
55.336201
  0
LINE
  8
0
  6
CONTINUOUS
 10
446.336121
 20
50.933750
 11
446.336121
 21
24.433750
  0
ARC
  8
0
  6
CONTINUOUS
 10
451.336121
 20
188.433746
 40
5.000000
 50
180.000000
 51
270.000000
  0
LINE
  8
0
  6
CONTINUOUS
 10
446.336121
 20
50.933750
 11
446.336121
 21
187.933746
  0
ARC
  8
0
  6
CONTINUOUS
 10
451.336121
 20
50.433731
 40
5.000000
 50
90.000000
 51
180.000000
  0
LINE
  8
0
  6
DASHED
 10
424.336121
 20
42.433750
 11
424.336121
 21
24.433750
  0
LINE
  8
0
  6
DASHED
 10
411.336121
 20
42.433750
 11
411.336121
 21
24.433750
  0
LINE
  8
0
  6
DASHED
 10
329.336121
 20
42.433750
 11
329.336121
 21
24.433750
  0
LINE
  8
0
  6
DASHED
 10
316.336121
 20
42.433750
 11
316.336121
 21
24.433750
  0
CIRCLE
  8
0
  6
CONTINUOUS
 10
370.336121
 20
164.433746
 40
39.000000
  0
ARC
  8
0
  6
CONTINUOUS
 10
370.336121
 20
164.433746
 40
44.000000
 50
12.523100
 51
167.476807
  0
ARC
  8
0
  6
CONTINUOUS
 10
395.836121
 20
105.433746
 40
29.000000
 50
-90.000000
 51
12.523100
  0
ARC
  8
0
  6
CONTINUOUS
 10
344.836121
 20
105.433746
 40
29.000000
 50
167.476807
 51
270.000000
  0
ARC
  8
0
  6
CONTINUOUS
 10
395.836121
 20
105.433746
 40
31.900000
 50
-90.000000
 51
12.523100
  0
ARC
  8
0
  6
CONTINUOUS
 10
344.836121
 20
105.433746
 40
31.900000
 50
167.476807
 51
270.000000
  0
ARC
  8
0
  6
CONTINUOUS
 10
370.336121
 20
164.433746
 40
41.099998
 50
-192.523193
 51
12.523100
  0
LINE
  8
0
  6
CONTINUOUS
 10
426.977142
 20
112.350754
 11
413.289337
 21
173.974457
  0
LINE
  8
0
  6
CONTINUOUS
 10
424.146118
 20
111.721939
 11
410.458344
 21
173.345627
  0
LINE
  8
0
  6
CONTINUOUS
 10
395.836121
 20
73.533752
 11
344.836121
 21
73.533752
  0
LINE
  8
0
  6
CONTINUOUS
 10
344.836121
 20
76.433746
 11
395.836121
 21
76.433746
  0
LINE
  8
0
  6
CONTINUOUS
 10
327.382935
 20
173.974533
 11
313.695129
 21
112.350815
  0
LINE
  8
0
  6
CONTINUOUS
 10
330.213928
 20
173.345703
 11
316.526123
 21
111.721992
  0
ARC
  8
0
  6
CONTINUOUS
 10
266.627319
 20
119.433746
 40
185.208893
 50
-13.998090
 51
13.998090
  0
LINE
  8
0
  6
CONTINUOUS
 10
432.336121
 20
40.367191
 11
432.336121
 21
24.433750
  0
LINE
  8
0
  6
CONTINUOUS
 10
308.336121
 20
40.367191
 11
308.336121
 21
24.433750
  0
LINE
  8
0
  6
CONTINUOUS
 10
346.578735
 20
47.433750
 11
394.093536
 21
47.433750
  0
LINE
  8
0
  6
CONTINUOUS
 10
395.336121
 20
46.497871
 11
395.336121
 21
43.433750
  0
LINE
  8
0
  6
CONTINUOUS
 10
344.457520
 20
46.555069
 11
341.800537
 21
43.898209
  0
LINE
  8
0
  6
CONTINUOUS
 10
396.214722
 20
46.555069
 11
398.871521
 21
43.898251
  0
LINE
  8
0
  6
CONTINUOUS
 10
345.336121
 20
46.497871
 11
345.336121
 21
43.433750
  0
ARC
  8
0
  6
CONTINUOUS
 10
402.407135
 20
47.433750
 40
5.000000
 50
-135.000107
 51
-90.000000
  0
ARC
  8
0
  6
CONTINUOUS
 10
394.093536
 20
44.433750
 40
3.000000
 50
44.999691
 51
90.000000
  0
ARC
  8
0
  6
CONTINUOUS
 10
396.336121
 20
43.433750
 40
1.000000
 50
180.000000
 51
270.000000
  0
ARC
  8
0
  6
CONTINUOUS
 10
338.265137
 20
47.433750
 40
5.000000
 50
-90.000000
 51
-45.000000
  0
ARC
  8
0
  6
CONTINUOUS
 10
346.578735
 20
44.433750
 40
3.000000
 50
90.000000
 51
134.999802
  0
ARC
  8
0
  6
CONTINUOUS
 10
344.336121
 20
43.433750
 40
1.000000
 50
-90.000000
 51
0.000000
  0
LINE
  8
0
  6
CONTINUOUS
 10
358.109131
 20
88.433746
 11
353.168732
 21
88.433746
  0
LINE
  8
0
  6
CONTINUOUS
 10
360.836121
 20
96.709152
 11
360.836121
 21
88.433746
  0
LINE
  8
0
  6
CONTINUOUS
 10
365.586121
 20
99.714996
 11
365.586121
 21
102.683746
  0
LINE
  8
0
  6
CONTINUOUS
 10
375.086121
 20
99.714996
 11
375.086121
 21
102.683746
  0
LINE
  8
0
  6
CONTINUOUS
 10
369.408325
 20
100.939613
 11
369.408325
 21
89.992348
  0
LINE
  8
0
  6
CONTINUOUS
 10
371.189545
 20
100.939613
 11
371.189545
 21
89.992348
  0
LINE
  8
0
  6
CONTINUOUS
 10
380.541138
 20
100.939613
 11
380.541138
 21
89.918129
  0
LINE
  8
0
  6
CONTINUOUS
 10
382.173920
 20
95.094887
 11
382.173920
 21
89.918129
  0
LINE
  8
0
  6
CONTINUOUS
 10
358.582123
 20
100.791168
 11
354.004333
 21
100.791168
  0
LINE
  8
0
  6
CONTINUOUS
 10
354.004333
 20
100.791168
 11
352.931732
 21
99.461166
  0
LINE
  8
0
  6
CONTINUOUS
 10
353.060730
 20
102.683746
 11
351.336121
 21
100.475281
  0
LINE
  8
0
  6
CONTINUOUS
 10
352.931732
 20
91.251587
 11
354.021545
 21
90.103668
  0
LINE
  8
0
  6
CONTINUOUS
 10
351.336121
 20
90.282867
 11
353.168732
 21
88.433746
  0
LINE
  8
0
  6
CONTINUOUS
 10
351.336121
 20
100.475281
 11
351.336121
 21
90.282867
  0
LINE
  8
0
  6
CONTINUOUS
 10
352.931732
 20
99.461166
 11
352.931732
 21
91.251587
  0
LINE
  8
0
  6
CONTINUOUS
 10
359.463135
 20
99.939613
 11
358.564117
 21
100.791168
  0
LINE
  8
0
  6
CONTINUOUS
 10
359.448730
 20
102.683746
 11
360.836121
 21
101.144165
  0
LINE
  8
0
  6
CONTINUOUS
 10
359.463135
 20
99.714996
 11
360.836121
 21
99.714996
  0
LINE
  8
0
  6
CONTINUOUS
 10
353.060730
 20
102.683746
 11
359.448730
 21
102.683746
  0
LINE
  8
0
  6
CONTINUOUS
 10
356.976746
 20
96.709152
 11
360.836121
 21
96.709152
  0
LINE
  8
0
  6
CONTINUOUS
 10
359.463135
 20
95.150551
 11
356.976746
 21
95.150551
  0
LINE
  8
0
  6
CONTINUOUS
 10
356.494324
 20
90.103668
 11
354.021545
 21
90.103668
  0
LINE
  8
0
  6
CONTINUOUS
 10
359.463135
 20
93.666168
 11
359.463135
 21
94.853668
  0
ARC
  8
0
  6
CONTINUOUS
 10
356.494324
 20
93.072411
 40
2.968750
 50
-89.999786
 51
0.000109
  0
LINE
  8
0
  6
CONTINUOUS
 10
359.463135
 20
89.569672
 11
359.463135
 21
88.433746
  0
LINE
  8
0
  6
CONTINUOUS
 10
360.836121
 20
101.144165
 11
360.836121
 21
99.714996
  0
LINE
  8
0
  6
CONTINUOUS
 10
359.463135
 20
95.150551
 11
359.463135
 21
93.072411
  0
LINE
  8
0
  6
CONTINUOUS
 10
356.976746
 20
96.709152
 11
356.976746
 21
95.150551
  0
LINE
  8
0
  6
CONTINUOUS
 10
359.463135
 20
88.433746
 11
360.836121
 21
88.433746
  0
LINE
  8
0
  6
CONTINUOUS
 10
359.463135
 20
89.569672
 11
358.109131
 21
88.433746
  0
LINE
  8
0
  6
CONTINUOUS
 10
371.189545
 20
89.992348
 11
371.783325
 21
89.992348
  0
LINE
  8
0
  6
CONTINUOUS
 10
368.703339
 20
89.992348
 11
368.703339
 21
88.433746
  0
LINE
  8
0
  6
CONTINUOUS
 10
371.783325
 20
89.992348
 11
371.783325
 21
88.433746
  0
LINE
  8
0
  6
CONTINUOUS
 10
374.095123
 20
99.714996
 11
375.086121
 21
99.714996
  0
LINE
  8
0
  6
CONTINUOUS
 10
365.586121
 20
99.714996
 11
366.640747
 21
99.714996
  0
LINE
  8
0
  6
CONTINUOUS
 10
365.586121
 20
102.683746
 11
375.086121
 21
102.683746
  0
LINE
  8
0
  6
CONTINUOUS
 10
368.703339
 20
88.433746
 11
371.783325
 21
88.433746
  0
LINE
  8
0
  6
CONTINUOUS
 10
368.703339
 20
89.992348
 11
369.408325
 21
89.992348
  0
ARC
  8
0
  6
CONTINUOUS
 10
385.532318
 20
98.880028
 40
3.803712
 50
-73.981873
 51
90.003510
  0
ARC
  8
0
  6
CONTINUOUS
 10
385.532318
 20
98.880028
 40
2.320524
 50
-82.585274
 51
62.411850
  0
LINE
  8
0
  6
CONTINUOUS
 10
379.836121
 20
102.683746
 11
385.532318
 21
102.683746
  0
LINE
  8
0
  6
CONTINUOUS
 10
385.831940
 20
96.578911
 11
382.173920
 21
96.578911
  0
LINE
  8
0
  6
CONTINUOUS
 10
379.836121
 20
102.683746
 11
379.836121
 21
100.939613
  0
LINE
  8
0
  6
CONTINUOUS
 10
382.173920
 20
100.939613
 11
382.173920
 21
96.578911
  0
LINE
  8
0
  6
CONTINUOUS
 10
386.581940
 20
95.224007
 11
388.936340
 21
89.918129
  0
LINE
  8
0
  6
CONTINUOUS
 10
385.214722
 20
95.094887
 11
387.442535
 21
89.918129
  0
LINE
  8
0
  6
CONTINUOUS
 10
379.836121
 20
89.918129
 11
380.541138
 21
89.918129
  0
LINE
  8
0
  6
CONTINUOUS
 10
382.173920
 20
89.918129
 11
382.823517
 21
89.918129
  0
LINE
  8
0
  6
CONTINUOUS
 10
382.823517
 20
88.433746
 11
379.836121
 21
88.433746
  0
LINE
  8
0
  6
CONTINUOUS
 10
387.146729
 20
89.918129
 11
387.442535
 21
89.918129
  0
LINE
  8
0
  6
CONTINUOUS
 10
388.936340
 20
89.918129
 11
389.336121
 21
89.918129
  0
LINE
  8
0
  6
CONTINUOUS
 10
387.146729
 20
88.433746
 11
389.336121
 21
88.433746
  0
LINE
  8
0
  6
CONTINUOUS
 10
389.336121
 20
89.918129
 11
389.336121
 21
88.433746
  0
LINE
  8
0
  6
CONTINUOUS
 10
387.146729
 20
89.918129
 11
387.146729
 21
88.433746
  0
LINE
  8
0
  6
CONTINUOUS
 10
382.823517
 20
89.918129
 11
382.823517
 21
88.433746
  0
LINE
  8
0
  6
CONTINUOUS
 10
379.836121
 20
89.918129
 11
379.836121
 21
88.433746
  0
LINE
  8
0
  6
CONTINUOUS
 10
367.150940
 20
100.939613
 11
366.640747
 21
99.714996
  0
LINE
  8
0
  6
CONTINUOUS
 10
373.664917
 20
100.939613
 11
374.095123
 21
99.714996
  0
LINE
  8
0
  6
CONTINUOUS
 10
371.189545
 20
100.939613
 11
373.664917
 21
100.939613
  0
LINE
  8
0
  6
CONTINUOUS
 10
369.408325
 20
100.939613
 11
367.150940
 21
100.939613
  0
LINE
  8
0
  6
CONTINUOUS
 10
382.173920
 20
95.094887
 11
385.214722
 21
95.094887
  0
LINE
  8
0
  6
CONTINUOUS
 10
379.836121
 20
100.939613
 11
380.541138
 21
100.939613
  0
LINE
  8
0
  6
CONTINUOUS
 10
382.173920
 20
100.939613
 11
386.607147
 21
100.936722
  0
LINE
  8
0
  6
CONTINUOUS
 10
359.463135
 20
99.939613
 11
359.463135
 21
99.714996
  0
LINE
  8
0
  6
CONTINUOUS
 10
442.336121
 20
173.210846
 11
442.336121
 21
101.656677
  0
LINE
  8
0
  6
CONTINUOUS
 10
298.336121
 20
173.210846
 11
298.336121
 21
101.656677
  0
ARC
  8
0
  6
CONTINUOUS
 10
370.336121
 20
137.433762
 40
88.000000
 50
228.189804
 51
311.810791
  0
ARC
  8
0
  6
CONTINUOUS
 10
370.336121
 20
137.433762
 40
88.000000
 50
48.217949
 51
131.810501
  0
ARC
  8
0
  6
CONTINUOUS
 10
338.336121
 20
173.210846
 40
40.000000
 50
131.810806
 51
180.000000
  0
ARC
  8
0
  6
CONTINUOUS
 10
402.336121
 20
173.210846
 40
40.000000
 50
0.000000
 51
48.251911
  0
ARC
  8
0
  6
CONTINUOUS
 10
402.336121
 20
101.656670
 40
40.000000
 50
-48.187901
 51
0.000000
  0
ARC
  8
0
  6
CONTINUOUS
 10
338.336121
 20
101.656670
 40
40.000000
 50
180.000000
 51
228.190094
  0
LINE
  8
0
  6
CONTINUOUS
 10
359.336121
 20
169.433746
 11
359.336121
 21
159.433746
  0
LINE
  8
0
  6
CONTINUOUS
 10
351.336121
 20
169.433746
 11
351.336121
 21
159.433746
  0
LINE
  8
0
  6
CONTINUOUS
 10
351.336121
 20
169.433746
 11
359.336121
 21
169.433746
  0
LINE
  8
0
  6
CONTINUOUS
 10
351.336121
 20
159.433746
 11
359.336121
 21
159.433746
  0
ARC
  8
0
  6
CONTINUOUS
 10
370.336121
 20
164.433746
 40
16.000000
 50
-161.790100
 51
161.790100
  0
LINE
  8
0
  6
CONTINUOUS
 10
641.836121
 20
414.991699
 11
640.836121
 21
414.991699
  0
ARC
  8
0
  6
CONTINUOUS
 10
641.836121
 20
415.991699
 40
1.000000
 50
-90.000000
 51
0.000000
  0
LINE
  8
0
  6
CONTINUOUS
 10
646.336121
 20
418.491699
 11
646.336121
 21
426.491699
  0
LINE
  8
0
  6
CONTINUOUS
 10
646.336121
 20
418.491699
 11
642.836121
 21
416.991699
  0
LINE
  8
0
  6
CONTINUOUS
 10
646.336121
 20
426.491699
 11
642.836121
 21
427.991699
  0
LINE
  8
0
  6
CONTINUOUS
 10
642.836121
 20
415.991699
 11
642.836121
 21
428.991699
  0
LINE
  8
0
  6
CONTINUOUS
 10
641.836121
 20
429.991699
 11
640.836121
 21
429.991699
  0
ARC
  8
0
  6
CONTINUOUS
 10
641.836121
 20
428.991699
 40
1.000000
 50
0.000000
 51
90.000000
  0
LINE
  8
0
  6
CONTINUOUS
 10
640.836121
 20
445.491699
 11
640.836121
 21
399.491699
  0
LINE
  8
0
  6
CONTINUOUS
 10
638.836121
 20
397.491699
 11
640.836121
 21
399.491699
  0
LINE
  8
0
  6
CONTINUOUS
 10
638.836121
 20
397.491699
 11
592.836121
 21
397.491699
  0
LINE
  8
0
  6
CONTINUOUS
 10
598.336121
 20
401.991699
 11
598.336121
 21
397.491699
  0
ARC
  8
0
  6
CONTINUOUS
 10
595.336121
 20
401.991699
 40
3.000000
 50
0.000000
 51
90.000000
  0
LINE
  8
0
  6
CONTINUOUS
 10
595.336121
 20
404.991699
 11
590.836121
 21
404.991699
  0
CIRCLE
  8
0
  6
CONTINUOUS
 10
594.336121
 20
400.991699
 40
2.250000
  0
LINE
  8
0
  6
CONTINUOUS
 10
590.836121
 20
445.491699
 11
590.836121
 21
399.491699
  0
LINE
  8
0
  6
CONTINUOUS
 10
592.836121
 20
397.491699
 11
590.836121
 21
399.491699
  0
LINE
  8
0
  6
CONTINUOUS
 10
592.836121
 20
447.491699
 11
590.836121
 21
445.491699
  0
LINE
  8
0
  6
CONTINUOUS
 10
592.836121
 20
447.491699
 11
638.836121
 21
447.491699
  0
LINE
  8
0
  6
CONTINUOUS
 10
640.836121
 20
445.491699
 11
638.836121
 21
447.491699
  0
LINE
  8
0
  6
CONTINUOUS
 10
636.336121
 20
439.991699
 11
640.836121
 21
439.991699
  0
CIRCLE
  8
0
  6
CONTINUOUS
 10
637.336121
 20
443.991699
 40
2.250000
  0
ARC
  8
0
  6
CONTINUOUS
 10
636.336121
 20
442.991699
 40
3.000000
 50
180.000000
 51
270.000000
  0
LINE
  8
0
  6
CONTINUOUS
 10
633.336121
 20
442.991699
 11
633.336121
 21
447.491699
  0
LINE
  8
0
  6
CENTER
 10
615.836121
 20
454.957489
 11
615.836121
 21
390.825439
  0
LINE
  8
0
  6
CONTINUOUS
 10
638.421936
 20
398.491669
 11
639.836121
 21
399.905884
  0
LINE
  8
0
  6
CONTINUOUS
 10
639.836121
 20
439.991669
 11
639.836121
 21
399.905884
  0
LINE
  8
0
  6
CONTINUOUS
 10
598.336121
 20
398.491669
 11
638.421936
 21
398.491669
  0
LINE
  8
0
  6
CONTINUOUS
 10
591.836121
 20
404.991669
 11
591.836121
 21
445.077454
  0
LINE
  8
0
  6
CONTINUOUS
 10
633.336121
 20
446.491669
 11
593.250366
 21
446.491669
  0
LINE
  8
0
  6
CONTINUOUS
 10
593.250366
 20
446.491669
 11
591.836121
 21
445.077454
  0
LINE
  8
0
  6
CONTINUOUS
 10
639.336121
 20
152.933746
 11
592.836121
 21
152.933746
  0
LINE
  8
0
  6
CONTINUOUS
 10
590.836121
 20
182.933746
 11
590.836121
 21
154.933746
  0
LINE
  8
0
  6
CONTINUOUS
 10
640.836121
 20
182.933746
 11
640.836121
 21
154.933746
  0
LINE
  8
0
  6
CONTINUOUS
 10
642.836121
 20
164.933746
 11
590.836121
 21
164.933746
  0
LINE
  8
0
  6
CONTINUOUS
 10
592.836121
 20
152.933746
 11
590.836121
 21
154.933746
  0
LINE
  8
0
  6
CONTINUOUS
 10
640.836121
 20
154.933746
 11
638.836121
 21
152.933746
  0
LINE
  8
0
  6
CONTINUOUS
 10
640.836121
 20
154.933746
 11
590.836121
 21
154.933746
  0
LINE
  8
0
  6
CONTINUOUS
 10
639.836121
 20
183.933746
 11
591.836121
 21
183.933746
  0
LINE
  8
0
  6
CONTINUOUS
 10
591.836121
 20
183.933746
 11
590.836121
 21
182.933746
  0
LINE
  8
0
  6
CONTINUOUS
 10
639.836121
 20
183.933746
 11
640.836121
 21
182.933746
  0
LINE
  8
0
  6
CONTINUOUS
 10
640.836121
 20
182.933746
 11
590.836121
 21
182.933746
  0
LINE
  8
0
  6
CENTER
 10
648.779907
 20
174.433746
 11
636.704895
 21
174.433746
  0
LINE
  8
0
  6
CONTINUOUS
 10
642.836121
 20
180.933746
 11
642.836121
 21
164.933746
  0
LINE
  8
0
  6
CONTINUOUS
 10
641.836121
 20
181.933746
 11
640.836121
 21
181.933746
  0
ARC
  8
0
  6
CONTINUOUS
 10
641.836121
 20
180.933746
 40
1.000000
 50
0.000000
 51
90.000000
  0
LINE
  8
0
  6
CONTINUOUS
 10
646.336121
 20
178.433746
 11
646.336121
 21
170.433746
  0
LINE
  8
0
  6
CONTINUOUS
 10
646.336121
 20
178.433746
 11
642.836121
 21
179.933746
  0
LINE
  8
0
  6
CONTINUOUS
 10
646.336121
 20
170.433746
 11
642.836121
 21
168.933746
  0
LINE
  8
0
  6
CENTER
 10
615.836121
 20
148.240005
 11
615.836121
 21
189.321243
  0
LINE
  8
0
  6
CONTINUOUS
 10
639.336121
 20
152.933746
 11
639.336121
 21
151.433746
  0
LINE
  8
0
  6
CONTINUOUS
 10
593.336121
 20
152.933746
 11
593.336121
 21
151.433746
  0
LINE
  8
0
  6
CONTINUOUS
 10
521.836121
 20
451.491669
 11
521.836121
 21
465.491699
  0
TEXT
  8
0
 10
3.000000
 20
9.000000
 40
4.000000
 41
1.000000
  1
HLM-32L-1200~1800-T40WT
 50
0.000000
  0
ENDSEC
  0
EOF
