  0
SECTION
  2
HEADER
  9
$CLAYER
  8
1
  9
$LTSCALE
 40
3.0
  0
ENDSEC
  0
SECTION
  2
TABLES
  0
TABLE
  2
LTYPE
 70
     4
  0
LTYPE
  2
CONTINUOUS
  3
solid line
 70
    64
 72
    65
 73
     0
 40
0.0
  0
LTYPE
  2
DASHED
  3
__ __ __ __ __ __ __ __ __ __ __ __ __ __ __
 70
    64
 72
    65
 73
     2
 40
0.75
 49
0.5
 49
-0.25
  0
LTYPE
  2
CENTER
  3
____ _ ____ _ ____ _ ____ _ ____ _ ____ _ ____
 70
    64
 72
    65
 73
     4
 40
2.0
 49
1.25
 49
-0.25
 49
0.25
 49
-0.25
  0
LTYPE
  2
PHANTOM
  3
_____ _ _ _____ _ _ _____ _ _ _____ _ _ ____
 70
    64
 72
    65
 73
     6
 40
2.5
 49
1.25
 49
-0.25
 49
0.25
 49
-0.25
 49
0.25
 49
-0.25
  0
ENDTAB
  0
TABLE
  2
LAYER
 70
     1
  0
LAYER
  2
0
 70
    64
 62
     7
  6
CONTINUOUS
  0
ENDTAB
  0
TABLE
  2
STYLE
 70
     1
  0
STYLE
  2
STANDARD
 70
     0
 40
0.000000
 41
1.000000
 50
0.000000
 71
     0
 42
3.000000
  3
txt
  4
BIGFONT
  0
ENDTAB
  0
ENDSEC
  0
SECTION
  2
BLOCKS
  0
ENDSEC
  0
SECTION
  2
ENTITIES
  0
LINE
  8
0
  6
CENTER
 10
380.588623
 20
280.759186
 11
380.588623
 21
501.987488
  0
LINE
  8
0
  6
CONTINUOUS
 10
304.588440
 20
408.821686
 11
305.373901
 21
363.821686
  0
LINE
  8
0
  6
CONTINUOUS
 10
439.038696
 20
333.821686
 11
396.588623
 21
333.821686
  0
LINE
  8
0
  6
CONTINUOUS
 10
314.645050
 20
339.020447
 11
305.373901
 21
363.821686
  0
ARC
  8
0
  6
CONTINUOUS
 10
322.138580
 20
341.821686
 40
8.000000
 50
200.496613
 51
270.000000
  0
LINE
  8
0
  6
CONTINUOUS
 10
304.588440
 20
408.821686
 11
305.373901
 21
453.821686
  0
LINE
  8
0
  6
CONTINUOUS
 10
439.038696
 20
483.821686
 11
380.588623
 21
483.821686
  0
LINE
  8
0
  6
CONTINUOUS
 10
314.645050
 20
478.622894
 11
305.373901
 21
453.821686
  0
ARC
  8
0
  6
CONTINUOUS
 10
322.138580
 20
475.821686
 40
8.000000
 50
90.000000
 51
159.503387
  0
LINE
  8
0
  6
CONTINUOUS
 10
446.532227
 20
339.020447
 11
455.587006
 21
363.242950
  0
ARC
  8
0
  6
CONTINUOUS
 10
439.038696
 20
341.821686
 40
8.000000
 50
270.000000
 51
339.503387
  0
LINE
  8
0
  6
CONTINUOUS
 10
446.532227
 20
478.622894
 11
455.587006
 21
454.400391
  0
ARC
  8
0
  6
CONTINUOUS
 10
439.038696
 20
475.821686
 40
8.000000
 50
20.496618
 51
90.000000
  0
LINE
  8
0
  6
CONTINUOUS
 10
453.251984
 20
363.821686
 11
308.321991
 21
363.821686
  0
LINE
  8
0
  6
CONTINUOUS
 10
308.321991
 20
453.821686
 11
453.251984
 21
453.821686
  0
LINE
  8
0
  6
CONTINUOUS
 10
380.588623
 20
346.821686
 11
345.329834
 21
346.821686
  0
ARC
  8
0
  6
CONTINUOUS
 10
308.321991
 20
366.821686
 40
3.000000
 50
181.000000
 51
270.000000
  0
ARC
  8
0
  6
CONTINUOUS
 10
308.321991
 20
450.821686
 40
3.000000
 50
90.000000
 51
179.000000
  0
LINE
  8
0
  6
CONTINUOUS
 10
351.588623
 20
366.821686
 11
351.588623
 21
450.821686
  0
LINE
  8
0
  6
CONTINUOUS
 10
409.588623
 20
366.821686
 11
409.588623
 21
450.821686
  0
LINE
  8
0
  6
CONTINUOUS
 10
468.588623
 20
344.821686
 11
468.588623
 21
472.821686
  0
LINE
  8
0
  6
CONTINUOUS
 10
466.016296
 20
344.821686
 11
468.588623
 21
344.821686
  0
LINE
  8
0
  6
CONTINUOUS
 10
340.532990
 20
350.410858
 11
339.529816
 21
353.821686
  0
ARC
  8
0
  6
CONTINUOUS
 10
345.329834
 20
351.821686
 40
5.000000
 50
196.389542
 51
270.000000
  0
LINE
  8
0
  6
CONTINUOUS
 10
325.042480
 20
357.429047
 11
324.234772
 21
360.214294
  0
LINE
  8
0
  6
CONTINUOUS
 10
329.844635
 20
353.821686
 11
339.529816
 21
353.821686
  0
LINE
  8
0
  6
CONTINUOUS
 10
380.588623
 20
346.821686
 11
415.847443
 21
346.821686
  0
LINE
  8
0
  6
CONTINUOUS
 10
380.588623
 20
470.821686
 11
345.329834
 21
470.821686
  0
LINE
  8
0
  6
CONTINUOUS
 10
380.588623
 20
470.821686
 11
415.847443
 21
470.821686
  0
LINE
  8
0
  6
CONTINUOUS
 10
361.588623
 20
288.821686
 11
396.588623
 21
288.821686
  0
LINE
  8
0
  6
CONTINUOUS
 10
396.588623
 20
343.821686
 11
396.588623
 21
288.821686
  0
LINE
  8
0
  6
CONTINUOUS
 10
364.588623
 20
343.821686
 11
364.588623
 21
338.821686
  0
LINE
  8
0
  6
CONTINUOUS
 10
398.088623
 20
343.821686
 11
363.088623
 21
343.821686
  0
LINE
  8
0
  6
CONTINUOUS
 10
398.088623
 20
346.821686
 11
398.088623
 21
343.821686
  0
LINE
  8
0
  6
CONTINUOUS
 10
363.088623
 20
346.821686
 11
363.088623
 21
343.821686
  0
LINE
  8
0
  6
CONTINUOUS
 10
361.588623
 20
333.821686
 11
322.138580
 21
333.821686
  0
LINE
  8
0
  6
CONTINUOUS
 10
361.588623
 20
288.821686
 11
361.588623
 21
338.821686
  0
LINE
  8
0
  6
CONTINUOUS
 10
365.389954
 20
338.821686
 11
361.588623
 21
338.821686
  0
LINE
  8
0
  6
CONTINUOUS
 10
365.389954
 20
338.821686
 11
365.389954
 21
288.821686
  0
LINE
  8
0
  6
CONTINUOUS
 10
380.588623
 20
483.821686
 11
322.138580
 21
483.821686
  0
LINE
  8
0
  6
CENTER
 10
342.964966
 20
348.821686
 11
324.027466
 21
348.821686
  0
LINE
  8
0
  6
CENTER
 10
333.088623
 20
357.974030
 11
333.088623
 21
338.474030
  0
ARC
  8
0
  6
CONTINUOUS
 10
333.088623
 20
348.821686
 40
6.500000
 50
-231.240692
 51
50.284863
  0
ARC
  8
0
  6
CONTINUOUS
 10
428.088623
 20
348.821686
 40
6.500000
 50
-230.284866
 51
51.240688
  0
LINE
  8
0
  6
CENTER
 10
428.088623
 20
357.974030
 11
428.088623
 21
338.474030
  0
LINE
  8
0
  6
CENTER
 10
418.212311
 20
348.821686
 11
437.149811
 21
348.821686
  0
LINE
  8
0
  6
CENTER
 10
679.648376
 20
408.821686
 11
293.167603
 21
408.821686
  0
LINE
  8
0
  6
CONTINUOUS
 10
461.186676
 20
348.527588
 11
458.081635
 21
360.115784
  0
ARC
  8
0
  6
CONTINUOUS
 10
453.251984
 20
358.821686
 40
5.000000
 50
15.000000
 51
90.000000
  0
ARC
  8
0
  6
CONTINUOUS
 10
466.016296
 20
349.821686
 40
5.000000
 50
195.000000
 51
270.000000
  0
LINE
  8
0
  6
CONTINUOUS
 10
466.016296
 20
472.821686
 11
468.588623
 21
472.821686
  0
LINE
  8
0
  6
CONTINUOUS
 10
461.186676
 20
469.115784
 11
458.081635
 21
457.527588
  0
ARC
  8
0
  6
CONTINUOUS
 10
466.016296
 20
467.821686
 40
5.000000
 50
90.000000
 51
165.000000
  0
ARC
  8
0
  6
CONTINUOUS
 10
453.251984
 20
458.821686
 40
5.000000
 50
-90.000000
 51
-15.000000
  0
LINE
  8
0
  6
CONTINUOUS
 10
456.588837
 20
408.821686
 11
455.854797
 21
366.769318
  0
LINE
  8
0
  6
CONTINUOUS
 10
456.588837
 20
408.821686
 11
455.854797
 21
450.874023
  0
ARC
  8
0
  6
CONTINUOUS
 10
452.855255
 20
366.821686
 40
3.000000
 50
270.000000
 51
359.000000
  0
ARC
  8
0
  6
CONTINUOUS
 10
452.855255
 20
450.821686
 40
3.000000
 50
1.000000
 51
90.000000
  0
ARC
  8
0
  6
CONTINUOUS
 10
329.844635
 20
358.821686
 40
5.000000
 50
196.172165
 51
270.000000
  0
ARC
  8
0
  6
CONTINUOUS
 10
319.432617
 20
358.821686
 40
5.000000
 50
16.172159
 51
90.000000
  0
LINE
  8
0
  6
CONTINUOUS
 10
323.188629
 20
363.821686
 11
323.185425
 21
363.832764
  0
ARC
  8
0
  6
CONTINUOUS
 10
415.847443
 20
351.821686
 40
5.000000
 50
270.000000
 51
343.610474
  0
LINE
  8
0
  6
CONTINUOUS
 10
420.644257
 20
350.410858
 11
421.647461
 21
353.821686
  0
LINE
  8
0
  6
CONTINUOUS
 10
436.134766
 20
357.429047
 11
436.942505
 21
360.214294
  0
LINE
  8
0
  6
CONTINUOUS
 10
431.332611
 20
353.821686
 11
421.647461
 21
353.821686
  0
ARC
  8
0
  6
CONTINUOUS
 10
431.332611
 20
358.821686
 40
5.000000
 50
270.000000
 51
343.827850
  0
ARC
  8
0
  6
CONTINUOUS
 10
441.744629
 20
358.821686
 40
5.000000
 50
90.000000
 51
163.827835
  0
LINE
  8
0
  6
CONTINUOUS
 10
437.988617
 20
363.821686
 11
437.991852
 21
363.832764
  0
ARC
  8
0
  6
CONTINUOUS
 10
428.088623
 20
468.821686
 40
6.500000
 50
-51.240688
 51
230.284866
  0
LINE
  8
0
  6
CENTER
 10
418.212311
 20
468.821686
 11
437.149811
 21
468.821686
  0
ARC
  8
0
  6
CONTINUOUS
 10
415.847443
 20
465.821686
 40
5.000000
 50
16.389540
 51
90.000000
  0
LINE
  8
0
  6
CONTINUOUS
 10
420.644257
 20
467.232513
 11
421.647461
 21
463.821686
  0
LINE
  8
0
  6
CONTINUOUS
 10
436.134766
 20
460.214294
 11
436.942505
 21
457.429047
  0
LINE
  8
0
  6
CONTINUOUS
 10
431.332611
 20
463.821686
 11
421.647461
 21
463.821686
  0
ARC
  8
0
  6
CONTINUOUS
 10
431.332611
 20
458.821686
 40
5.000000
 50
16.172159
 51
90.000000
  0
ARC
  8
0
  6
CONTINUOUS
 10
441.744629
 20
458.821686
 40
5.000000
 50
196.172165
 51
270.000000
  0
LINE
  8
0
  6
CONTINUOUS
 10
437.988617
 20
453.821686
 11
437.991852
 21
453.810577
  0
LINE
  8
0
  6
CENTER
 10
428.088623
 20
459.669342
 11
428.088623
 21
479.169342
  0
LINE
  8
0
  6
CONTINUOUS
 10
340.532990
 20
467.232513
 11
339.529816
 21
463.821686
  0
ARC
  8
0
  6
CONTINUOUS
 10
345.329834
 20
465.821686
 40
5.000000
 50
90.000000
 51
163.610458
  0
LINE
  8
0
  6
CONTINUOUS
 10
325.042480
 20
460.214294
 11
324.234772
 21
457.429047
  0
LINE
  8
0
  6
CONTINUOUS
 10
329.844635
 20
463.821686
 11
339.529816
 21
463.821686
  0
LINE
  8
0
  6
CENTER
 10
342.964966
 20
468.821686
 11
324.027466
 21
468.821686
  0
LINE
  8
0
  6
CENTER
 10
333.088623
 20
459.669342
 11
333.088623
 21
479.169342
  0
ARC
  8
0
  6
CONTINUOUS
 10
333.088623
 20
468.821686
 40
6.500000
 50
-50.284863
 51
231.240692
  0
ARC
  8
0
  6
CONTINUOUS
 10
329.844635
 20
458.821686
 40
5.000000
 50
90.000000
 51
163.827835
  0
ARC
  8
0
  6
CONTINUOUS
 10
319.432617
 20
458.821686
 40
5.000000
 50
-90.000000
 51
-16.172159
  0
LINE
  8
0
  6
CONTINUOUS
 10
323.188629
 20
453.821686
 11
323.185425
 21
453.810577
  0
LINE
  8
0
  6
CENTER
 10
86.251747
 20
-4.356250
 11
86.251747
 21
228.556564
  0
LINE
  8
0
  6
CENTER
 10
6.454368
 20
105.763748
 11
162.084366
 21
105.763748
  0
LINE
  8
0
  6
CENTER
 10
9.219368
 20
150.763748
 11
220.428757
 21
150.763748
  0
LINE
  8
0
  6
CENTER
 10
146.251755
 20
37.362492
 11
146.251755
 21
-0.536630
  0
LINE
  8
0
  6
CENTER
 10
26.251751
 20
37.362492
 11
26.251751
 21
-0.536630
  0
LINE
  8
0
  6
CONTINUOUS
 10
11.251750
 20
10.763750
 11
56.251751
 21
10.763750
  0
LINE
  8
0
  6
CONTINUOUS
 10
116.251747
 20
10.763750
 11
161.251755
 21
10.763750
  0
LINE
  8
0
  6
CONTINUOUS
 10
158.751755
 20
28.763750
 11
135.251755
 21
28.763750
  0
LINE
  8
0
  6
CONTINUOUS
 10
13.751750
 20
28.763750
 11
37.251751
 21
28.763750
  0
LINE
  8
0
  6
CONTINUOUS
 10
131.251755
 20
212.030518
 11
131.251755
 21
10.763750
  0
LINE
  8
0
  6
CONTINUOUS
 10
41.251751
 20
198.504944
 11
41.251751
 21
212.030029
  0
LINE
  8
0
  6
CONTINUOUS
 10
161.251755
 20
26.645929
 11
161.251755
 21
10.763750
  0
LINE
  8
0
  6
CONTINUOUS
 10
11.251750
 20
26.645929
 11
11.251750
 21
10.763750
  0
LINE
  8
0
  6
CONTINUOUS
 10
57.751751
 20
12.263750
 11
114.751747
 21
12.263750
  0
LINE
  8
0
  6
CONTINUOUS
 10
128.304153
 20
215.030045
 11
86.251747
 21
215.763748
  0
LINE
  8
0
  6
CONTINUOUS
 10
44.199348
 20
215.029572
 11
86.251747
 21
215.763748
  0
LINE
  8
0
  6
CONTINUOUS
 10
24.251751
 20
115.504944
 11
24.251751
 21
186.022568
  0
LINE
  8
0
  6
CONTINUOUS
 10
148.251755
 20
115.504944
 11
148.251755
 21
186.022568
  0
LINE
  8
0
  6
CONTINUOUS
 10
31.251751
 20
66.519753
 11
31.251751
 21
154.674149
  0
LINE
  8
0
  6
CONTINUOUS
 10
141.251755
 20
66.519768
 11
141.251755
 21
154.674149
  0
LINE
  8
0
  6
DASHED
 10
152.751755
 20
28.763750
 11
152.751755
 21
10.763750
  0
LINE
  8
0
  6
DASHED
 10
139.751755
 20
28.763750
 11
139.751755
 21
10.763750
  0
LINE
  8
0
  6
DASHED
 10
32.751751
 20
28.763750
 11
32.751751
 21
10.763750
  0
LINE
  8
0
  6
DASHED
 10
19.751751
 20
28.763750
 11
19.751751
 21
10.763750
  0
ARC
  8
0
  6
CONTINUOUS
 10
44.251751
 20
212.030029
 40
3.000000
 50
91.000603
 51
180.000000
  0
ARC
  8
0
  6
CONTINUOUS
 10
128.251755
 20
212.030487
 40
3.000000
 50
0.000000
 51
89.000580
  0
LINE
  8
0
  6
CONTINUOUS
 10
37.662552
 20
193.708115
 11
27.840950
 21
190.819366
  0
LINE
  8
0
  6
CONTINUOUS
 10
27.840950
 20
110.708115
 11
28.380350
 21
110.549446
  0
LINE
  8
0
  6
CONTINUOUS
 10
34.859150
 20
61.717609
 11
37.644348
 21
60.909889
  0
LINE
  8
0
  6
CONTINUOUS
 10
13.340750
 20
29.111910
 11
38.744949
 21
33.345951
  0
LINE
  8
0
  6
CONTINUOUS
 10
159.162750
 20
29.111931
 11
133.758545
 21
33.345970
  0
LINE
  8
0
  6
CONTINUOUS
 10
137.644348
 20
61.717609
 11
134.859146
 21
60.909889
  0
LINE
  8
0
  6
CONTINUOUS
 10
144.662552
 20
110.708115
 11
144.123154
 21
110.549438
  0
LINE
  8
0
  6
CONTINUOUS
 10
144.662552
 20
190.819397
 11
134.840942
 21
193.708115
  0
LINE
  8
0
  6
CONTINUOUS
 10
43.826149
 20
183.263748
 11
128.504349
 21
183.263748
  0
ARC
  8
0
  6
CONTINUOUS
 10
29.251751
 20
186.022583
 40
5.000000
 50
106.389900
 51
180.000000
  0
ARC
  8
0
  6
CONTINUOUS
 10
143.251755
 20
186.022552
 40
5.000000
 50
0.000000
 51
73.610527
  0
ARC
  8
0
  6
CONTINUOUS
 10
29.251751
 20
115.504974
 40
5.000000
 50
180.000000
 51
253.610794
  0
ARC
  8
0
  6
CONTINUOUS
 10
143.251755
 20
115.504936
 40
5.000000
 50
-73.610321
 51
0.000000
  0
ARC
  8
0
  6
CONTINUOUS
 10
136.251755
 20
66.519753
 40
5.000000
 50
-73.827698
 51
0.000000
  0
ARC
  8
0
  6
CONTINUOUS
 10
36.251751
 20
66.519791
 40
5.000000
 50
180.000000
 51
253.828201
  0
LINE
  8
0
  6
CONTINUOUS
 10
41.251751
 20
198.504944
 11
41.251751
 21
10.763750
  0
ARC
  8
0
  6
CONTINUOUS
 10
36.251751
 20
198.504929
 40
5.000000
 50
-73.610229
 51
0.000000
  0
ARC
  8
0
  6
CONTINUOUS
 10
27.251751
 20
106.711967
 40
4.000000
 50
0.000000
 51
73.610649
  0
ARC
  8
0
  6
CONTINUOUS
 10
36.251751
 20
56.107731
 40
5.000000
 50
0.000000
 51
73.827919
  0
ARC
  8
0
  6
CONTINUOUS
 10
136.251755
 20
56.107769
 40
5.000000
 50
106.172501
 51
180.000000
  0
ARC
  8
0
  6
CONTINUOUS
 10
145.251755
 20
106.711998
 40
4.000000
 50
106.389999
 51
180.000000
  0
ARC
  8
0
  6
CONTINUOUS
 10
136.251755
 20
198.504974
 40
5.000000
 50
180.000000
 51
253.610794
  0
ARC
  8
0
  6
CONTINUOUS
 10
38.251751
 20
36.305130
 40
3.000000
 50
-80.537483
 51
0.000000
  0
ARC
  8
0
  6
CONTINUOUS
 10
37.251751
 20
32.763710
 40
4.000000
 50
-90.000000
 51
0.000000
  0
ARC
  8
0
  6
CONTINUOUS
 10
13.751750
 20
26.263769
 40
2.500000
 50
90.000000
 51
180.000000
  0
LINE
  8
0
  6
CONTINUOUS
 10
56.251751
 20
10.763750
 11
57.751751
 21
12.263750
  0
LINE
  8
0
  6
CONTINUOUS
 10
116.251747
 20
10.763750
 11
114.751747
 21
12.263750
  0
ARC
  8
0
  6
CONTINUOUS
 10
134.251755
 20
36.305168
 40
3.000000
 50
180.000000
 51
260.537903
  0
ARC
  8
0
  6
CONTINUOUS
 10
135.251755
 20
32.763748
 40
4.000000
 50
180.000000
 51
270.000000
  0
ARC
  8
0
  6
CONTINUOUS
 10
158.751755
 20
26.263750
 40
2.500000
 50
0.000000
 51
90.000000
  0
LINE
  8
0
  6
CONTINUOUS
 10
206.251755
 20
134.763748
 11
206.251755
 21
166.763748
  0
LINE
  8
0
  6
CONTINUOUS
 10
151.251755
 20
166.763748
 11
206.251755
 21
166.763748
  0
LINE
  8
0
  6
CONTINUOUS
 10
151.251755
 20
134.763748
 11
206.251755
 21
134.763748
  0
LINE
  8
0
  6
CONTINUOUS
 10
151.251755
 20
168.263748
 11
151.251755
 21
133.263748
  0
LINE
  8
0
  6
CONTINUOUS
 10
148.251755
 20
168.263748
 11
151.251755
 21
168.263748
  0
LINE
  8
0
  6
CONTINUOUS
 10
148.251755
 20
133.263748
 11
151.251755
 21
133.263748
  0
ARC
  8
0
  6
CONTINUOUS
 10
161.251755
 20
150.763748
 40
5.000000
 50
90.000000
 51
270.000000
  0
LINE
  8
0
  6
CONTINUOUS
 10
161.251755
 20
155.763748
 11
206.251755
 21
155.763748
  0
LINE
  8
0
  6
CONTINUOUS
 10
161.251755
 20
145.763748
 11
206.251755
 21
145.763748
  0
ARC
  8
0
  6
CONTINUOUS
 10
13.751750
 20
26.645950
 40
2.500000
 50
99.462753
 51
180.000000
  0
ARC
  8
0
  6
CONTINUOUS
 10
158.751755
 20
26.645929
 40
2.500000
 50
0.000000
 51
80.537682
  0
LINE
  8
0
  6
CONTINUOUS
 10
468.588623
 20
169.763748
 11
468.588623
 21
41.763748
  0
ARC
  8
0
  6
CONTINUOUS
 10
86.251747
 20
105.763748
 40
64.000000
 50
165.638489
 51
210.753525
  0
ARC
  8
0
  6
CONTINUOUS
 10
86.251747
 20
105.763748
 40
64.000000
 50
-30.753519
 51
14.361512
  0
ARC
  8
0
  6
CONTINUOUS
 10
45.239552
 20
64.751534
 40
8.000000
 50
211.001404
 51
233.216995
  0
ARC
  8
0
  6
CONTINUOUS
 10
39.251751
 20
56.742409
 40
2.000000
 50
30.947910
 51
53.217121
  0
ARC
  8
0
  6
CONTINUOUS
 10
127.263947
 20
64.751534
 40
8.000000
 50
-53.216999
 51
-31.001400
  0
ARC
  8
0
  6
CONTINUOUS
 10
133.251755
 20
56.742409
 40
2.000000
 50
126.782883
 51
149.052094
  0
LINE
  8
0
  6
CENTER
 10
680.211487
 20
92.763748
 11
423.702271
 21
92.763748
  0
LINE
  8
0
  6
CENTER
 10
560.897217
 20
105.763748
 11
423.702271
 21
105.763748
  0
LINE
  8
0
  6
CONTINUOUS
 10
477.088623
 20
470.821686
 11
477.088623
 21
346.821686
  0
LINE
  8
0
  6
CONTINUOUS
 10
523.088623
 20
363.821686
 11
479.525024
 21
362.300415
  0
LINE
  8
0
  6
CONTINUOUS
 10
523.088623
 20
453.821686
 11
479.525024
 21
455.342957
  0
LINE
  8
0
  6
CONTINUOUS
 10
523.088623
 20
359.809692
 11
523.088623
 21
457.833679
  0
LINE
  8
0
  6
CONTINUOUS
 10
475.088623
 20
344.821686
 11
468.588623
 21
344.821686
  0
LINE
  8
0
  6
CONTINUOUS
 10
475.088623
 20
472.821686
 11
468.588623
 21
472.821686
  0
LINE
  8
0
  6
CONTINUOUS
 10
484.231628
 20
384.821686
 11
477.116669
 21
384.821686
  0
LINE
  8
0
  6
CONTINUOUS
 10
483.626495
 20
432.821686
 11
477.116669
 21
432.821686
  0
LINE
  8
0
  6
CONTINUOUS
 10
484.231628
 20
387.026184
 11
484.231628
 21
430.738770
  0
LINE
  8
0
  6
CONTINUOUS
 10
532.088623
 20
365.821686
 11
532.088623
 21
379.821686
  0
LINE
  8
0
  6
CONTINUOUS
 10
642.088623
 20
363.821686
 11
523.088623
 21
363.821686
  0
LINE
  8
0
  6
CONTINUOUS
 10
642.088623
 20
453.821686
 11
523.088623
 21
453.821686
  0
LINE
  8
0
  6
CONTINUOUS
 10
642.088623
 20
363.821686
 11
642.088623
 21
383.821686
  0
LINE
  8
0
  6
CONTINUOUS
 10
642.088623
 20
379.821686
 11
532.088623
 21
379.821686
  0
LINE
  8
0
  6
CONTINUOUS
 10
642.088623
 20
437.821686
 11
532.088623
 21
437.821686
  0
ARC
  8
0
  6
CONTINUOUS
 10
530.088623
 20
365.821655
 40
2.000000
 50
-90.000000
 51
0.000000
  0
ARC
  8
0
  6
CONTINUOUS
 10
530.088623
 20
451.821686
 40
2.000000
 50
0.000000
 51
90.000000
  0
LINE
  8
0
  6
CONTINUOUS
 10
662.588623
 20
443.821686
 11
662.588623
 21
373.821686
  0
LINE
  8
0
  6
CONTINUOUS
 10
658.047180
 20
363.821686
 11
642.088623
 21
363.821686
  0
LINE
  8
0
  6
CONTINUOUS
 10
662.088623
 20
366.821686
 11
662.088623
 21
450.821686
  0
LINE
  8
0
  6
CONTINUOUS
 10
642.088623
 20
379.821686
 11
660.338623
 21
379.821686
  0
LINE
  8
0
  6
CONTINUOUS
 10
661.511292
 20
365.821686
 11
662.088623
 21
366.821686
  0
ARC
  8
0
  6
CONTINUOUS
 10
658.047180
 20
367.821686
 40
4.000000
 50
270.000000
 51
330.000397
  0
LINE
  8
0
  6
CONTINUOUS
 10
658.047180
 20
453.821686
 11
642.088623
 21
453.821686
  0
LINE
  8
0
  6
CONTINUOUS
 10
642.088623
 20
437.821686
 11
660.338623
 21
437.821686
  0
LINE
  8
0
  6
CONTINUOUS
 10
661.511292
 20
451.821686
 11
662.088623
 21
450.821686
  0
ARC
  8
0
  6
CONTINUOUS
 10
658.047180
 20
449.821686
 40
4.000000
 50
29.999599
 51
90.000000
  0
LINE
  8
0
  6
CONTINUOUS
 10
662.588623
 20
373.821686
 11
662.088623
 21
373.321686
  0
LINE
  8
0
  6
CONTINUOUS
 10
662.588623
 20
443.821686
 11
662.088623
 21
444.321686
  0
LINE
  8
0
  6
CONTINUOUS
 10
523.088623
 20
363.821686
 11
523.088623
 21
453.821686
  0
ARC
  8
0
  6
CONTINUOUS
 10
475.088623
 20
346.821686
 40
2.000000
 50
-90.000000
 51
0.000000
  0
ARC
  8
0
  6
CONTINUOUS
 10
475.088623
 20
470.821686
 40
2.000000
 50
0.000000
 51
90.000000
  0
ARC
  8
0
  6
CONTINUOUS
 10
479.612274
 20
359.801941
 40
2.500000
 50
92.000000
 51
179.895706
  0
ARC
  8
0
  6
CONTINUOUS
 10
479.612274
 20
457.841431
 40
2.500000
 50
180.104294
 51
268.000000
  0
LINE
  8
0
  6
CONTINUOUS
 10
477.088623
 20
362.215332
 11
477.116669
 21
362.216309
  0
LINE
  8
0
  6
CONTINUOUS
 10
522.588928
 20
359.292236
 11
477.088623
 21
357.703339
  0
LINE
  8
0
  6
CONTINUOUS
 10
523.088623
 20
359.809692
 11
522.588928
 21
359.292236
  0
LINE
  8
0
  6
CONTINUOUS
 10
522.588928
 20
458.351135
 11
477.088623
 21
459.940033
  0
LINE
  8
0
  6
CONTINUOUS
 10
523.088623
 20
457.833679
 11
522.588928
 21
458.351135
  0
LINE
  8
0
  6
CONTINUOUS
 10
642.088623
 20
433.821686
 11
642.088623
 21
453.821686
  0
LINE
  8
0
  6
CONTINUOUS
 10
532.088623
 20
135.763748
 11
532.088623
 21
49.763729
  0
LINE
  8
0
  6
CONTINUOUS
 10
642.088623
 20
137.763748
 11
523.088623
 21
137.763748
  0
LINE
  8
0
  6
CONTINUOUS
 10
642.088623
 20
47.763748
 11
523.088623
 21
47.763748
  0
LINE
  8
0
  6
CONTINUOUS
 10
642.088623
 20
137.763748
 11
642.088623
 21
47.763748
  0
LINE
  8
0
  6
CONTINUOUS
 10
642.088623
 20
127.173050
 11
533.126282
 21
127.173050
  0
LINE
  8
0
  6
CONTINUOUS
 10
642.088623
 20
58.354450
 11
533.126282
 21
58.354450
  0
ARC
  8
0
  6
CONTINUOUS
 10
530.088623
 20
135.763763
 40
2.000000
 50
0.000000
 51
90.000000
  0
ARC
  8
0
  6
CONTINUOUS
 10
530.088623
 20
49.763748
 40
2.000000
 50
-90.000000
 51
0.000000
  0
LINE
  8
0
  6
CONTINUOUS
 10
662.588623
 20
57.763748
 11
662.588623
 21
127.763748
  0
LINE
  8
0
  6
CONTINUOUS
 10
658.047180
 20
137.763748
 11
642.088623
 21
137.763748
  0
LINE
  8
0
  6
CONTINUOUS
 10
662.088623
 20
134.763748
 11
662.088623
 21
50.763748
  0
LINE
  8
0
  6
CONTINUOUS
 10
642.088623
 20
127.173050
 11
660.338623
 21
127.173050
  0
LINE
  8
0
  6
CONTINUOUS
 10
661.511292
 20
135.763733
 11
662.088623
 21
134.763748
  0
ARC
  8
0
  6
CONTINUOUS
 10
658.047180
 20
133.763748
 40
4.000000
 50
29.999599
 51
90.000000
  0
LINE
  8
0
  6
CONTINUOUS
 10
658.047180
 20
47.763748
 11
642.088623
 21
47.763748
  0
LINE
  8
0
  6
CONTINUOUS
 10
642.088623
 20
58.354450
 11
660.338623
 21
58.354450
  0
LINE
  8
0
  6
CONTINUOUS
 10
661.511292
 20
49.763748
 11
662.088623
 21
50.763748
  0
ARC
  8
0
  6
CONTINUOUS
 10
658.047180
 20
51.763729
 40
4.000000
 50
270.000000
 51
330.000397
  0
LINE
  8
0
  6
CONTINUOUS
 10
662.588623
 20
127.763748
 11
662.088623
 21
128.263748
  0
LINE
  8
0
  6
CONTINUOUS
 10
662.588623
 20
57.763748
 11
662.088623
 21
57.263748
  0
LINE
  8
0
  6
CONTINUOUS
 10
475.088623
 20
169.763855
 11
468.588623
 21
169.763855
  0
LINE
  8
0
  6
CONTINUOUS
 10
475.088623
 20
41.763653
 11
468.588623
 21
41.763653
  0
LINE
  8
0
  6
CONTINUOUS
 10
523.088623
 20
137.763748
 11
477.088623
 21
139.370102
  0
LINE
  8
0
  6
CONTINUOUS
 10
468.588623
 20
45.860569
 11
523.088623
 21
47.763748
  0
ARC
  8
0
  6
CONTINUOUS
 10
475.088623
 20
167.763870
 40
2.000000
 50
0.000000
 51
90.000000
  0
ARC
  8
0
  6
CONTINUOUS
 10
475.088623
 20
43.763653
 40
2.000000
 50
-90.000000
 51
-0.260773
  0
LINE
  8
0
  6
CONTINUOUS
 10
523.088623
 20
137.763748
 11
523.088623
 21
47.763748
  0
LINE
  8
0
  6
CONTINUOUS
 10
477.820862
 20
145.531509
 11
483.535370
 21
139.817001
  0
LINE
  8
0
  6
CONTINUOUS
 10
523.088623
 20
72.257751
 11
479.088623
 21
72.257751
  0
LINE
  8
0
  6
CONTINUOUS
 10
523.088623
 20
57.244751
 11
468.588623
 21
57.244751
  0
LINE
  8
0
  6
CONTINUOUS
 10
476.520660
 20
65.196747
 11
468.588623
 21
65.196747
  0
LINE
  8
0
  6
CONTINUOUS
 10
477.088623
 20
66.411484
 11
477.088623
 21
167.763870
  0
ARC
  8
0
  6
CONTINUOUS
 10
479.588593
 20
43.743172
 40
2.500000
 50
92.000000
 51
179.739227
  0
ARC
  8
0
  6
CONTINUOUS
 10
479.588623
 20
147.299286
 40
2.500000
 50
180.000000
 51
225.000000
  0
ARC
  8
0
  6
CONTINUOUS
 10
485.303131
 20
141.584778
 40
2.500000
 50
-135.000000
 51
-92.000000
  0
LINE
  8
0
  6
CENTER
 10
380.588623
 20
231.546875
 11
380.588623
 21
0.130870
  0
LINE
  8
0
  6
CENTER
 10
439.887390
 20
150.763748
 11
319.168762
 21
150.763748
  0
LINE
  8
0
  6
CENTER
 10
333.088623
 20
36.039188
 11
333.088623
 21
2.174450
  0
LINE
  8
0
  6
CENTER
 10
428.088623
 20
36.039188
 11
428.088623
 21
1.882510
  0
LINE
  8
0
  6
CONTINUOUS
 10
456.588623
 20
10.763750
 11
304.588623
 21
10.763750
  0
LINE
  8
0
  6
CONTINUOUS
 10
456.588623
 20
28.763750
 11
304.588623
 21
28.763750
  0
LINE
  8
0
  6
CONTINUOUS
 10
304.588623
 20
179.069305
 11
304.588623
 21
10.763750
  0
LINE
  8
0
  6
CONTINUOUS
 10
456.588623
 20
174.263748
 11
456.588623
 21
179.069305
  0
LINE
  8
0
  6
CONTINUOUS
 10
407.092041
 20
215.763748
 11
354.085236
 21
215.763748
  0
LINE
  8
0
  6
CONTINUOUS
 10
461.588623
 20
169.763748
 11
468.588623
 21
169.763748
  0
LINE
  8
0
  6
CONTINUOUS
 10
461.588623
 20
41.763748
 11
468.588623
 21
41.763748
  0
LINE
  8
0
  6
CONTINUOUS
 10
308.038635
 20
185.649368
 11
349.535217
 21
214.343811
  0
LINE
  8
0
  6
CONTINUOUS
 10
453.138641
 20
185.649368
 11
411.642029
 21
214.343811
  0
ARC
  8
0
  6
CONTINUOUS
 10
354.085236
 20
207.763748
 40
8.000000
 50
90.000000
 51
124.663300
  0
ARC
  8
0
  6
CONTINUOUS
 10
312.588623
 20
179.069275
 40
8.000000
 50
124.663300
 51
180.000000
  0
ARC
  8
0
  6
CONTINUOUS
 10
407.092041
 20
207.763748
 40
8.000000
 50
55.336300
 51
90.000000
  0
ARC
  8
0
  6
CONTINUOUS
 10
448.588623
 20
179.069351
 40
8.000000
 50
0.000000
 51
55.336201
  0
LINE
  8
0
  6
CONTINUOUS
 10
456.588623
 20
37.263748
 11
456.588623
 21
10.763750
  0
ARC
  8
0
  6
CONTINUOUS
 10
461.588623
 20
174.763748
 40
5.000000
 50
180.000000
 51
270.000000
  0
LINE
  8
0
  6
CONTINUOUS
 10
456.588623
 20
37.263748
 11
456.588623
 21
174.263748
  0
ARC
  8
0
  6
CONTINUOUS
 10
461.588623
 20
36.763729
 40
5.000000
 50
90.000000
 51
180.000000
  0
LINE
  8
0
  6
DASHED
 10
434.588623
 20
28.763750
 11
434.588623
 21
10.763750
  0
LINE
  8
0
  6
DASHED
 10
421.588623
 20
28.763750
 11
421.588623
 21
10.763750
  0
LINE
  8
0
  6
DASHED
 10
339.588623
 20
28.763750
 11
339.588623
 21
10.763750
  0
LINE
  8
0
  6
DASHED
 10
326.588623
 20
28.763750
 11
326.588623
 21
10.763750
  0
CIRCLE
  8
0
  6
CONTINUOUS
 10
380.588623
 20
150.763748
 40
39.000000
  0
ARC
  8
0
  6
CONTINUOUS
 10
380.588623
 20
150.763748
 40
44.000000
 50
12.523100
 51
167.476807
  0
ARC
  8
0
  6
CONTINUOUS
 10
406.088623
 20
91.763748
 40
29.000000
 50
-90.000000
 51
12.523100
  0
ARC
  8
0
  6
CONTINUOUS
 10
355.088623
 20
91.763748
 40
29.000000
 50
167.476807
 51
270.000000
  0
ARC
  8
0
  6
CONTINUOUS
 10
406.088623
 20
91.763748
 40
31.900000
 50
-90.000000
 51
12.523100
  0
ARC
  8
0
  6
CONTINUOUS
 10
355.088623
 20
91.763748
 40
31.900000
 50
167.476807
 51
270.000000
  0
ARC
  8
0
  6
CONTINUOUS
 10
380.588623
 20
150.763748
 40
41.099998
 50
-192.523193
 51
12.523100
  0
LINE
  8
0
  6
CONTINUOUS
 10
437.229645
 20
98.680756
 11
423.541840
 21
160.304443
  0
LINE
  8
0
  6
CONTINUOUS
 10
434.398621
 20
98.051933
 11
420.710846
 21
159.675629
  0
LINE
  8
0
  6
CONTINUOUS
 10
406.088623
 20
59.863750
 11
355.088623
 21
59.863750
  0
LINE
  8
0
  6
CONTINUOUS
 10
355.088623
 20
62.763748
 11
406.088623
 21
62.763748
  0
LINE
  8
0
  6
CONTINUOUS
 10
337.635437
 20
160.304535
 11
323.947632
 21
98.680817
  0
LINE
  8
0
  6
CONTINUOUS
 10
340.466431
 20
159.675705
 11
326.778625
 21
98.051987
  0
ARC
  8
0
  6
CONTINUOUS
 10
276.879822
 20
105.763748
 40
185.208893
 50
-13.998090
 51
13.998090
  0
LINE
  8
0
  6
CONTINUOUS
 10
442.588623
 20
26.697189
 11
442.588623
 21
10.763750
  0
LINE
  8
0
  6
CONTINUOUS
 10
318.588623
 20
26.697189
 11
318.588623
 21
10.763750
  0
LINE
  8
0
  6
CONTINUOUS
 10
356.831238
 20
33.763748
 11
404.346039
 21
33.763748
  0
LINE
  8
0
  6
CONTINUOUS
 10
405.588623
 20
32.827869
 11
405.588623
 21
29.763750
  0
LINE
  8
0
  6
CONTINUOUS
 10
354.710022
 20
32.885071
 11
352.053040
 21
30.228210
  0
LINE
  8
0
  6
CONTINUOUS
 10
406.467224
 20
32.885071
 11
409.124023
 21
30.228251
  0
LINE
  8
0
  6
CONTINUOUS
 10
355.588623
 20
32.827869
 11
355.588623
 21
29.763750
  0
ARC
  8
0
  6
CONTINUOUS
 10
412.659637
 20
33.763748
 40
5.000000
 50
-135.000107
 51
-90.000000
  0
ARC
  8
0
  6
CONTINUOUS
 10
404.346039
 20
30.763750
 40
3.000000
 50
44.999691
 51
90.000000
  0
ARC
  8
0
  6
CONTINUOUS
 10
406.588623
 20
29.763750
 40
1.000000
 50
180.000000
 51
270.000000
  0
ARC
  8
0
  6
CONTINUOUS
 10
348.517639
 20
33.763748
 40
5.000000
 50
-90.000000
 51
-45.000000
  0
ARC
  8
0
  6
CONTINUOUS
 10
356.831238
 20
30.763750
 40
3.000000
 50
90.000000
 51
134.999802
  0
ARC
  8
0
  6
CONTINUOUS
 10
354.588623
 20
29.763750
 40
1.000000
 50
-90.000000
 51
0.000000
  0
LINE
  8
0
  6
CONTINUOUS
 10
368.361633
 20
74.763748
 11
363.421234
 21
74.763748
  0
LINE
  8
0
  6
CONTINUOUS
 10
371.088623
 20
83.039146
 11
371.088623
 21
74.763748
  0
LINE
  8
0
  6
CONTINUOUS
 10
375.838623
 20
86.044998
 11
375.838623
 21
89.013748
  0
LINE
  8
0
  6
CONTINUOUS
 10
385.338623
 20
86.044998
 11
385.338623
 21
89.013748
  0
LINE
  8
0
  6
CONTINUOUS
 10
379.660828
 20
87.269608
 11
379.660828
 21
76.322350
  0
LINE
  8
0
  6
CONTINUOUS
 10
381.442047
 20
87.269608
 11
381.442047
 21
76.322350
  0
LINE
  8
0
  6
CONTINUOUS
 10
390.793640
 20
87.269608
 11
390.793640
 21
76.248131
  0
LINE
  8
0
  6
CONTINUOUS
 10
392.426422
 20
81.424889
 11
392.426422
 21
76.248131
  0
LINE
  8
0
  6
CONTINUOUS
 10
368.834625
 20
87.121170
 11
364.256836
 21
87.121170
  0
LINE
  8
0
  6
CONTINUOUS
 10
364.256836
 20
87.121170
 11
363.184235
 21
85.791168
  0
LINE
  8
0
  6
CONTINUOUS
 10
363.313232
 20
89.013748
 11
361.588623
 21
86.805283
  0
LINE
  8
0
  6
CONTINUOUS
 10
363.184235
 20
77.581589
 11
364.274017
 21
76.433670
  0
LINE
  8
0
  6
CONTINUOUS
 10
361.588623
 20
76.612869
 11
363.421234
 21
74.763748
  0
LINE
  8
0
  6
CONTINUOUS
 10
361.588623
 20
86.805283
 11
361.588623
 21
76.612869
  0
LINE
  8
0
  6
CONTINUOUS
 10
363.184235
 20
85.791168
 11
363.184235
 21
77.581589
  0
LINE
  8
0
  6
CONTINUOUS
 10
369.715637
 20
86.269608
 11
368.816620
 21
87.121170
  0
LINE
  8
0
  6
CONTINUOUS
 10
369.701233
 20
89.013748
 11
371.088623
 21
87.474167
  0
LINE
  8
0
  6
CONTINUOUS
 10
369.715637
 20
86.044998
 11
371.088623
 21
86.044998
  0
LINE
  8
0
  6
CONTINUOUS
 10
363.313232
 20
89.013748
 11
369.701233
 21
89.013748
  0
LINE
  8
0
  6
CONTINUOUS
 10
367.229218
 20
83.039146
 11
371.088623
 21
83.039146
  0
LINE
  8
0
  6
CONTINUOUS
 10
369.715637
 20
81.480553
 11
367.229218
 21
81.480553
  0
LINE
  8
0
  6
CONTINUOUS
 10
366.746826
 20
76.433670
 11
364.274017
 21
76.433670
  0
LINE
  8
0
  6
CONTINUOUS
 10
369.715637
 20
79.996170
 11
369.715637
 21
81.183670
  0
ARC
  8
0
  6
CONTINUOUS
 10
366.746826
 20
79.402412
 40
2.968750
 50
-89.999786
 51
0.000109
  0
LINE
  8
0
  6
CONTINUOUS
 10
369.715637
 20
75.899673
 11
369.715637
 21
74.763748
  0
LINE
  8
0
  6
CONTINUOUS
 10
371.088623
 20
87.474167
 11
371.088623
 21
86.044998
  0
LINE
  8
0
  6
CONTINUOUS
 10
369.715637
 20
81.480553
 11
369.715637
 21
79.402412
  0
LINE
  8
0
  6
CONTINUOUS
 10
367.229218
 20
83.039146
 11
367.229218
 21
81.480553
  0
LINE
  8
0
  6
CONTINUOUS
 10
369.715637
 20
74.763748
 11
371.088623
 21
74.763748
  0
LINE
  8
0
  6
CONTINUOUS
 10
369.715637
 20
75.899673
 11
368.361633
 21
74.763748
  0
LINE
  8
0
  6
CONTINUOUS
 10
381.442047
 20
76.322350
 11
382.035828
 21
76.322350
  0
LINE
  8
0
  6
CONTINUOUS
 10
378.955841
 20
76.322350
 11
378.955841
 21
74.763748
  0
LINE
  8
0
  6
CONTINUOUS
 10
382.035828
 20
76.322350
 11
382.035828
 21
74.763748
  0
LINE
  8
0
  6
CONTINUOUS
 10
384.347626
 20
86.044998
 11
385.338623
 21
86.044998
  0
LINE
  8
0
  6
CONTINUOUS
 10
375.838623
 20
86.044998
 11
376.893219
 21
86.044998
  0
LINE
  8
0
  6
CONTINUOUS
 10
375.838623
 20
89.013748
 11
385.338623
 21
89.013748
  0
LINE
  8
0
  6
CONTINUOUS
 10
378.955841
 20
74.763748
 11
382.035828
 21
74.763748
  0
LINE
  8
0
  6
CONTINUOUS
 10
378.955841
 20
76.322350
 11
379.660828
 21
76.322350
  0
ARC
  8
0
  6
CONTINUOUS
 10
395.784821
 20
85.210030
 40
3.803712
 50
-73.981873
 51
90.003510
  0
ARC
  8
0
  6
CONTINUOUS
 10
395.784821
 20
85.210030
 40
2.320524
 50
-82.585274
 51
62.411850
  0
LINE
  8
0
  6
CONTINUOUS
 10
390.088623
 20
89.013748
 11
395.784821
 21
89.013748
  0
LINE
  8
0
  6
CONTINUOUS
 10
396.084442
 20
82.908913
 11
392.426422
 21
82.908913
  0
LINE
  8
0
  6
CONTINUOUS
 10
390.088623
 20
89.013748
 11
390.088623
 21
87.269608
  0
LINE
  8
0
  6
CONTINUOUS
 10
392.426422
 20
87.269608
 11
392.426422
 21
82.908913
  0
LINE
  8
0
  6
CONTINUOUS
 10
396.834442
 20
81.554008
 11
399.188843
 21
76.248131
  0
LINE
  8
0
  6
CONTINUOUS
 10
395.467224
 20
81.424889
 11
397.695038
 21
76.248131
  0
LINE
  8
0
  6
CONTINUOUS
 10
390.088623
 20
76.248131
 11
390.793640
 21
76.248131
  0
LINE
  8
0
  6
CONTINUOUS
 10
392.426422
 20
76.248131
 11
393.076019
 21
76.248131
  0
LINE
  8
0
  6
CONTINUOUS
 10
393.076019
 20
74.763748
 11
390.088623
 21
74.763748
  0
LINE
  8
0
  6
CONTINUOUS
 10
397.399231
 20
76.248131
 11
397.695038
 21
76.248131
  0
LINE
  8
0
  6
CONTINUOUS
 10
399.188843
 20
76.248131
 11
399.588623
 21
76.248131
  0
LINE
  8
0
  6
CONTINUOUS
 10
397.399231
 20
74.763748
 11
399.588623
 21
74.763748
  0
LINE
  8
0
  6
CONTINUOUS
 10
399.588623
 20
76.248131
 11
399.588623
 21
74.763748
  0
LINE
  8
0
  6
CONTINUOUS
 10
397.399231
 20
76.248131
 11
397.399231
 21
74.763748
  0
LINE
  8
0
  6
CONTINUOUS
 10
393.076019
 20
76.248131
 11
393.076019
 21
74.763748
  0
LINE
  8
0
  6
CONTINUOUS
 10
390.088623
 20
76.248131
 11
390.088623
 21
74.763748
  0
LINE
  8
0
  6
CONTINUOUS
 10
377.403442
 20
87.269608
 11
376.893219
 21
86.044998
  0
LINE
  8
0
  6
CONTINUOUS
 10
383.917419
 20
87.269608
 11
384.347626
 21
86.044998
  0
LINE
  8
0
  6
CONTINUOUS
 10
381.442047
 20
87.269608
 11
383.917419
 21
87.269608
  0
LINE
  8
0
  6
CONTINUOUS
 10
379.660828
 20
87.269608
 11
377.403442
 21
87.269608
  0
LINE
  8
0
  6
CONTINUOUS
 10
392.426422
 20
81.424889
 11
395.467224
 21
81.424889
  0
LINE
  8
0
  6
CONTINUOUS
 10
390.088623
 20
87.269608
 11
390.793640
 21
87.269608
  0
LINE
  8
0
  6
CONTINUOUS
 10
392.426422
 20
87.269608
 11
396.859619
 21
87.266724
  0
LINE
  8
0
  6
CONTINUOUS
 10
369.715637
 20
86.269608
 11
369.715637
 21
86.044998
  0
LINE
  8
0
  6
CONTINUOUS
 10
452.588623
 20
159.540848
 11
452.588623
 21
87.986679
  0
LINE
  8
0
  6
CONTINUOUS
 10
308.588623
 20
159.540848
 11
308.588623
 21
87.986671
  0
ARC
  8
0
  6
CONTINUOUS
 10
380.588623
 20
123.763756
 40
88.000000
 50
228.189804
 51
311.810791
  0
ARC
  8
0
  6
CONTINUOUS
 10
380.588623
 20
123.763756
 40
88.000000
 50
48.217949
 51
131.810501
  0
ARC
  8
0
  6
CONTINUOUS
 10
348.588623
 20
159.540848
 40
40.000000
 50
131.810806
 51
180.000000
  0
ARC
  8
0
  6
CONTINUOUS
 10
412.588623
 20
159.540848
 40
40.000000
 50
0.000000
 51
48.251911
  0
ARC
  8
0
  6
CONTINUOUS
 10
412.588623
 20
87.986664
 40
40.000000
 50
-48.187901
 51
0.000000
  0
ARC
  8
0
  6
CONTINUOUS
 10
348.588623
 20
87.986664
 40
40.000000
 50
180.000000
 51
228.190094
  0
LINE
  8
0
  6
CONTINUOUS
 10
369.588623
 20
155.763748
 11
369.588623
 21
145.763748
  0
LINE
  8
0
  6
CONTINUOUS
 10
361.588623
 20
155.763748
 11
361.588623
 21
145.763748
  0
LINE
  8
0
  6
CONTINUOUS
 10
361.588623
 20
155.763748
 11
369.588623
 21
155.763748
  0
LINE
  8
0
  6
CONTINUOUS
 10
361.588623
 20
145.763748
 11
369.588623
 21
145.763748
  0
ARC
  8
0
  6
CONTINUOUS
 10
380.588623
 20
150.763748
 40
16.000000
 50
-161.790100
 51
161.790100
  0
LINE
  8
0
  6
CONTINUOUS
 10
651.088623
 20
431.821686
 11
651.088623
 21
385.821686
  0
LINE
  8
0
  6
CONTINUOUS
 10
649.088623
 20
383.821686
 11
651.088623
 21
385.821686
  0
LINE
  8
0
  6
CONTINUOUS
 10
649.088623
 20
383.821686
 11
603.088623
 21
383.821686
  0
LINE
  8
0
  6
CONTINUOUS
 10
608.588623
 20
388.321686
 11
608.588623
 21
383.821686
  0
ARC
  8
0
  6
CONTINUOUS
 10
605.588623
 20
388.321686
 40
3.000000
 50
0.000000
 51
90.000000
  0
LINE
  8
0
  6
CONTINUOUS
 10
605.588623
 20
391.321686
 11
601.088623
 21
391.321686
  0
CIRCLE
  8
0
  6
CONTINUOUS
 10
604.588623
 20
387.321686
 40
2.250000
  0
LINE
  8
0
  6
CONTINUOUS
 10
601.088623
 20
431.821686
 11
601.088623
 21
385.821686
  0
LINE
  8
0
  6
CONTINUOUS
 10
603.088623
 20
383.821686
 11
601.088623
 21
385.821686
  0
LINE
  8
0
  6
CONTINUOUS
 10
603.088623
 20
433.821686
 11
601.088623
 21
431.821686
  0
LINE
  8
0
  6
CONTINUOUS
 10
603.088623
 20
433.821686
 11
649.088623
 21
433.821686
  0
LINE
  8
0
  6
CONTINUOUS
 10
651.088623
 20
431.821686
 11
649.088623
 21
433.821686
  0
LINE
  8
0
  6
CONTINUOUS
 10
646.588623
 20
426.321686
 11
651.088623
 21
426.321686
  0
CIRCLE
  8
0
  6
CONTINUOUS
 10
647.588623
 20
430.321686
 40
2.250000
  0
ARC
  8
0
  6
CONTINUOUS
 10
646.588623
 20
429.321686
 40
3.000000
 50
180.000000
 51
270.000000
  0
LINE
  8
0
  6
CONTINUOUS
 10
643.588623
 20
429.321686
 11
643.588623
 21
433.821686
  0
LINE
  8
0
  6
CENTER
 10
626.088623
 20
441.287476
 11
626.088623
 21
377.155457
  0
LINE
  8
0
  6
CONTINUOUS
 10
650.088623
 20
426.321686
 11
650.088623
 21
391.321686
  0
LINE
  8
0
  6
CONTINUOUS
 10
608.588623
 20
384.821686
 11
643.588623
 21
384.821686
  0
LINE
  8
0
  6
CONTINUOUS
 10
602.088623
 20
391.321686
 11
602.088623
 21
426.321686
  0
LINE
  8
0
  6
CONTINUOUS
 10
643.588623
 20
432.821686
 11
608.588623
 21
432.821686
  0
LINE
  8
0
  6
CONTINUOUS
 10
646.588623
 20
391.321686
 11
651.088623
 21
391.321686
  0
ARC
  8
0
  6
CONTINUOUS
 10
646.588623
 20
388.321686
 40
3.000000
 50
90.000000
 51
180.000000
  0
LINE
  8
0
  6
CONTINUOUS
 10
643.588623
 20
388.321686
 11
643.588623
 21
383.821686
  0
CIRCLE
  8
0
  6
CONTINUOUS
 10
647.588623
 20
387.321686
 40
2.250000
  0
LINE
  8
0
  6
CONTINUOUS
 10
605.588623
 20
426.321686
 11
601.088623
 21
426.321686
  0
ARC
  8
0
  6
CONTINUOUS
 10
605.588623
 20
429.321686
 40
3.000000
 50
-90.000000
 51
0.000000
  0
LINE
  8
0
  6
CONTINUOUS
 10
608.588623
 20
429.321686
 11
608.588623
 21
433.821655
  0
CIRCLE
  8
0
  6
CONTINUOUS
 10
604.588623
 20
430.321686
 40
2.250000
  0
LINE
  8
0
  6
CONTINUOUS
 10
649.588623
 20
139.263748
 11
603.088623
 21
139.263748
  0
LINE
  8
0
  6
CONTINUOUS
 10
601.088623
 20
183.263748
 11
601.088623
 21
141.263748
  0
LINE
  8
0
  6
CONTINUOUS
 10
651.088623
 20
183.263748
 11
651.088623
 21
141.263748
  0
LINE
  8
0
  6
CONTINUOUS
 10
651.088623
 20
151.263748
 11
601.088623
 21
151.263748
  0
LINE
  8
0
  6
CONTINUOUS
 10
603.088623
 20
139.263748
 11
601.088623
 21
141.263748
  0
LINE
  8
0
  6
CONTINUOUS
 10
651.088623
 20
141.263748
 11
649.088623
 21
139.263748
  0
LINE
  8
0
  6
CONTINUOUS
 10
651.088623
 20
141.263748
 11
601.088623
 21
141.263748
  0
LINE
  8
0
  6
CONTINUOUS
 10
651.088623
 20
152.263748
 11
601.088623
 21
152.263748
  0
LINE
  8
0
  6
CONTINUOUS
 10
650.088623
 20
184.263748
 11
602.088623
 21
184.263748
  0
LINE
  8
0
  6
CONTINUOUS
 10
602.088623
 20
184.263748
 11
601.088623
 21
183.263748
  0
LINE
  8
0
  6
CONTINUOUS
 10
650.088623
 20
184.263748
 11
651.088623
 21
183.263748
  0
LINE
  8
0
  6
CONTINUOUS
 10
651.088623
 20
183.263748
 11
601.088623
 21
183.263748
  0
LINE
  8
0
  6
CENTER
 10
626.088623
 20
132.874237
 11
626.088623
 21
189.574234
  0
LINE
  8
0
  6
CENTER
 10
653.463623
 20
167.263748
 11
648.838623
 21
167.263748
  0
LINE
  8
0
  6
CONTINUOUS
 10
649.588623
 20
139.263748
 11
649.588623
 21
137.763748
  0
LINE
  8
0
  6
CONTINUOUS
 10
603.588623
 20
139.263748
 11
603.588623
 21
137.763748
  0
LINE
  8
0
  6
CONTINUOUS
 10
651.963623
 20
177.763748
 11
649.963623
 21
177.763748
  0
LINE
  8
0
  6
CONTINUOUS
 10
651.963623
 20
156.763748
 11
649.963623
 21
156.763748
  0
LINE
  8
0
  6
CONTINUOUS
 10
532.088623
 20
437.821686
 11
532.088623
 21
451.821686
  0
TEXT
  8
0
 10
6.000000
 20
-4.000000
 40
4.000000
 41
1.000000
  1
HLM-32L-1200~1800-T60WK
 50
0.000000
  0
ENDSEC
  0
EOF
