  0
SECTION
  2
HEADER
  9
$CLAYER
  8
1
  9
$LTSCALE
 40
3.0
  0
ENDSEC
  0
SECTION
  2
TABLES
  0
TABLE
  2
LTYPE
 70
     4
  0
LTYPE
  2
CONTINUOUS
  3
solid line
 70
    64
 72
    65
 73
     0
 40
0.0
  0
LTYPE
  2
DASHED
  3
__ __ __ __ __ __ __ __ __ __ __ __ __ __ __
 70
    64
 72
    65
 73
     2
 40
0.75
 49
0.5
 49
-0.25
  0
LTYPE
  2
CENTER
  3
____ _ ____ _ ____ _ ____ _ ____ _ ____ _ ____
 70
    64
 72
    65
 73
     4
 40
2.0
 49
1.25
 49
-0.25
 49
0.25
 49
-0.25
  0
LTYPE
  2
PHANTOM
  3
_____ _ _ _____ _ _ _____ _ _ _____ _ _ ____
 70
    64
 72
    65
 73
     6
 40
2.5
 49
1.25
 49
-0.25
 49
0.25
 49
-0.25
 49
0.25
 49
-0.25
  0
ENDTAB
  0
TABLE
  2
LAYER
 70
     1
  0
LAYER
  2
0
 70
    64
 62
     7
  6
CONTINUOUS
  0
ENDTAB
  0
TABLE
  2
STYLE
 70
     1
  0
STYLE
  2
STANDARD
 70
     0
 40
0.000000
 41
1.000000
 50
0.000000
 71
     0
 42
3.000000
  3
txt
  4
BIGFONT
  0
ENDTAB
  0
ENDSEC
  0
SECTION
  2
BLOCKS
  0
ENDSEC
  0
SECTION
  2
ENTITIES
  0
LINE
  8
0
  6
CENTER
 10
366.918640
 20
285.885437
 11
366.918640
 21
507.113739
  0
LINE
  8
0
  6
CONTINUOUS
 10
290.918427
 20
413.947937
 11
291.703918
 21
368.947937
  0
LINE
  8
0
  6
CONTINUOUS
 10
425.368683
 20
338.947937
 11
382.918640
 21
338.947937
  0
LINE
  8
0
  6
CONTINUOUS
 10
300.975037
 20
344.146698
 11
291.703918
 21
368.947937
  0
ARC
  8
0
  6
CONTINUOUS
 10
308.468567
 20
346.947937
 40
8.000000
 50
200.496613
 51
270.000000
  0
LINE
  8
0
  6
CONTINUOUS
 10
290.918427
 20
413.947937
 11
291.703918
 21
458.947937
  0
LINE
  8
0
  6
CONTINUOUS
 10
425.368683
 20
488.947937
 11
366.918640
 21
488.947937
  0
LINE
  8
0
  6
CONTINUOUS
 10
300.975037
 20
483.749146
 11
291.703918
 21
458.947937
  0
ARC
  8
0
  6
CONTINUOUS
 10
308.468567
 20
480.947937
 40
8.000000
 50
90.000000
 51
159.503387
  0
LINE
  8
0
  6
CONTINUOUS
 10
432.862213
 20
344.146698
 11
441.917023
 21
368.369202
  0
ARC
  8
0
  6
CONTINUOUS
 10
425.368683
 20
346.947937
 40
8.000000
 50
270.000000
 51
339.503387
  0
LINE
  8
0
  6
CONTINUOUS
 10
432.862213
 20
483.749146
 11
441.917023
 21
459.526642
  0
ARC
  8
0
  6
CONTINUOUS
 10
425.368683
 20
480.947937
 40
8.000000
 50
20.496618
 51
90.000000
  0
LINE
  8
0
  6
CONTINUOUS
 10
439.582001
 20
368.947937
 11
294.652008
 21
368.947937
  0
LINE
  8
0
  6
CONTINUOUS
 10
294.652008
 20
458.947937
 11
439.582001
 21
458.947937
  0
LINE
  8
0
  6
CONTINUOUS
 10
366.918640
 20
351.947937
 11
331.659821
 21
351.947937
  0
ARC
  8
0
  6
CONTINUOUS
 10
294.652008
 20
371.947937
 40
3.000000
 50
181.000000
 51
270.000000
  0
ARC
  8
0
  6
CONTINUOUS
 10
294.652008
 20
455.947937
 40
3.000000
 50
90.000000
 51
179.000000
  0
LINE
  8
0
  6
CONTINUOUS
 10
337.918640
 20
371.947937
 11
337.918640
 21
455.947937
  0
LINE
  8
0
  6
CONTINUOUS
 10
395.918640
 20
371.947937
 11
395.918640
 21
455.947937
  0
LINE
  8
0
  6
CONTINUOUS
 10
454.918640
 20
349.947937
 11
454.918640
 21
477.947937
  0
LINE
  8
0
  6
CONTINUOUS
 10
452.346313
 20
349.947937
 11
454.918640
 21
349.947937
  0
LINE
  8
0
  6
CONTINUOUS
 10
326.863007
 20
355.537109
 11
325.859802
 21
358.947937
  0
ARC
  8
0
  6
CONTINUOUS
 10
331.659821
 20
356.947937
 40
5.000000
 50
196.389542
 51
270.000000
  0
LINE
  8
0
  6
CONTINUOUS
 10
311.372498
 20
362.555298
 11
310.564758
 21
365.340546
  0
LINE
  8
0
  6
CONTINUOUS
 10
316.174652
 20
358.947937
 11
325.859802
 21
358.947937
  0
LINE
  8
0
  6
CONTINUOUS
 10
366.918640
 20
351.947937
 11
402.177429
 21
351.947937
  0
LINE
  8
0
  6
CONTINUOUS
 10
366.918640
 20
475.947937
 11
331.659821
 21
475.947937
  0
LINE
  8
0
  6
CONTINUOUS
 10
366.918640
 20
475.947937
 11
402.177429
 21
475.947937
  0
LINE
  8
0
  6
CONTINUOUS
 10
347.918640
 20
293.947937
 11
382.918640
 21
293.947937
  0
LINE
  8
0
  6
CONTINUOUS
 10
382.918640
 20
348.947937
 11
382.918640
 21
293.947937
  0
LINE
  8
0
  6
CONTINUOUS
 10
350.918640
 20
348.947937
 11
350.918640
 21
343.947937
  0
LINE
  8
0
  6
CONTINUOUS
 10
384.418640
 20
348.947937
 11
349.418640
 21
348.947937
  0
LINE
  8
0
  6
CONTINUOUS
 10
384.418640
 20
351.947937
 11
384.418640
 21
348.947937
  0
LINE
  8
0
  6
CONTINUOUS
 10
349.418640
 20
351.947937
 11
349.418640
 21
348.947937
  0
LINE
  8
0
  6
CONTINUOUS
 10
347.918640
 20
338.947937
 11
308.468567
 21
338.947937
  0
LINE
  8
0
  6
CONTINUOUS
 10
347.918640
 20
293.947937
 11
347.918640
 21
343.947937
  0
LINE
  8
0
  6
CONTINUOUS
 10
351.719940
 20
343.947937
 11
347.918640
 21
343.947937
  0
LINE
  8
0
  6
CONTINUOUS
 10
351.719940
 20
343.947937
 11
351.719940
 21
293.947937
  0
LINE
  8
0
  6
CONTINUOUS
 10
366.918640
 20
488.947937
 11
308.468567
 21
488.947937
  0
LINE
  8
0
  6
CENTER
 10
329.294952
 20
353.947937
 11
310.357452
 21
353.947937
  0
LINE
  8
0
  6
CENTER
 10
319.418640
 20
363.100281
 11
319.418640
 21
343.600281
  0
ARC
  8
0
  6
CONTINUOUS
 10
319.418640
 20
353.947937
 40
6.500000
 50
-231.240692
 51
50.284863
  0
ARC
  8
0
  6
CONTINUOUS
 10
414.418640
 20
353.947937
 40
6.500000
 50
-230.284866
 51
51.240688
  0
LINE
  8
0
  6
CENTER
 10
414.418640
 20
363.100281
 11
414.418640
 21
343.600281
  0
LINE
  8
0
  6
CENTER
 10
404.542297
 20
353.947937
 11
423.479797
 21
353.947937
  0
LINE
  8
0
  6
CENTER
 10
710.840027
 20
413.947937
 11
279.497620
 21
413.947937
  0
LINE
  8
0
  6
CONTINUOUS
 10
447.516663
 20
353.653839
 11
444.411621
 21
365.242035
  0
ARC
  8
0
  6
CONTINUOUS
 10
439.582001
 20
363.947937
 40
5.000000
 50
15.000000
 51
90.000000
  0
ARC
  8
0
  6
CONTINUOUS
 10
452.346313
 20
354.947937
 40
5.000000
 50
195.000000
 51
270.000000
  0
LINE
  8
0
  6
CONTINUOUS
 10
452.346313
 20
477.947937
 11
454.918640
 21
477.947937
  0
LINE
  8
0
  6
CONTINUOUS
 10
447.516663
 20
474.242035
 11
444.411621
 21
462.653839
  0
ARC
  8
0
  6
CONTINUOUS
 10
452.346313
 20
472.947937
 40
5.000000
 50
90.000000
 51
165.000000
  0
ARC
  8
0
  6
CONTINUOUS
 10
439.582001
 20
463.947937
 40
5.000000
 50
-90.000000
 51
-15.000000
  0
LINE
  8
0
  6
CONTINUOUS
 10
442.918823
 20
413.947937
 11
442.184814
 21
371.895569
  0
LINE
  8
0
  6
CONTINUOUS
 10
442.918823
 20
413.947937
 11
442.184814
 21
456.000275
  0
ARC
  8
0
  6
CONTINUOUS
 10
439.185272
 20
371.947937
 40
3.000000
 50
270.000000
 51
359.000000
  0
ARC
  8
0
  6
CONTINUOUS
 10
439.185272
 20
455.947937
 40
3.000000
 50
1.000000
 51
90.000000
  0
ARC
  8
0
  6
CONTINUOUS
 10
316.174652
 20
363.947937
 40
5.000000
 50
196.172165
 51
270.000000
  0
ARC
  8
0
  6
CONTINUOUS
 10
305.762634
 20
363.947937
 40
5.000000
 50
16.172159
 51
90.000000
  0
LINE
  8
0
  6
CONTINUOUS
 10
309.518646
 20
368.947937
 11
309.515411
 21
368.959015
  0
ARC
  8
0
  6
CONTINUOUS
 10
402.177429
 20
356.947937
 40
5.000000
 50
270.000000
 51
343.610474
  0
LINE
  8
0
  6
CONTINUOUS
 10
406.974274
 20
355.537109
 11
407.977448
 21
358.947937
  0
LINE
  8
0
  6
CONTINUOUS
 10
422.464783
 20
362.555298
 11
423.272491
 21
365.340546
  0
LINE
  8
0
  6
CONTINUOUS
 10
417.662628
 20
358.947937
 11
407.977448
 21
358.947937
  0
ARC
  8
0
  6
CONTINUOUS
 10
417.662628
 20
363.947937
 40
5.000000
 50
270.000000
 51
343.827850
  0
ARC
  8
0
  6
CONTINUOUS
 10
428.074646
 20
363.947937
 40
5.000000
 50
90.000000
 51
163.827835
  0
LINE
  8
0
  6
CONTINUOUS
 10
424.318634
 20
368.947937
 11
424.321838
 21
368.959015
  0
ARC
  8
0
  6
CONTINUOUS
 10
414.418640
 20
473.947937
 40
6.500000
 50
-51.240688
 51
230.284866
  0
LINE
  8
0
  6
CENTER
 10
404.542297
 20
473.947937
 11
423.479797
 21
473.947937
  0
ARC
  8
0
  6
CONTINUOUS
 10
402.177429
 20
470.947937
 40
5.000000
 50
16.389540
 51
90.000000
  0
LINE
  8
0
  6
CONTINUOUS
 10
406.974274
 20
472.358765
 11
407.977448
 21
468.947937
  0
LINE
  8
0
  6
CONTINUOUS
 10
422.464783
 20
465.340546
 11
423.272491
 21
462.555298
  0
LINE
  8
0
  6
CONTINUOUS
 10
417.662628
 20
468.947937
 11
407.977448
 21
468.947937
  0
ARC
  8
0
  6
CONTINUOUS
 10
417.662628
 20
463.947937
 40
5.000000
 50
16.172159
 51
90.000000
  0
ARC
  8
0
  6
CONTINUOUS
 10
428.074646
 20
463.947937
 40
5.000000
 50
196.172165
 51
270.000000
  0
LINE
  8
0
  6
CONTINUOUS
 10
424.318634
 20
458.947937
 11
424.321838
 21
458.936829
  0
LINE
  8
0
  6
CENTER
 10
414.418640
 20
464.795593
 11
414.418640
 21
484.295593
  0
LINE
  8
0
  6
CONTINUOUS
 10
326.863007
 20
472.358765
 11
325.859802
 21
468.947937
  0
ARC
  8
0
  6
CONTINUOUS
 10
331.659821
 20
470.947937
 40
5.000000
 50
90.000000
 51
163.610458
  0
LINE
  8
0
  6
CONTINUOUS
 10
311.372498
 20
465.340546
 11
310.564758
 21
462.555298
  0
LINE
  8
0
  6
CONTINUOUS
 10
316.174652
 20
468.947937
 11
325.859802
 21
468.947937
  0
LINE
  8
0
  6
CENTER
 10
329.294952
 20
473.947937
 11
310.357452
 21
473.947937
  0
LINE
  8
0
  6
CENTER
 10
319.418640
 20
464.795593
 11
319.418640
 21
484.295593
  0
ARC
  8
0
  6
CONTINUOUS
 10
319.418640
 20
473.947937
 40
6.500000
 50
-50.284863
 51
231.240692
  0
ARC
  8
0
  6
CONTINUOUS
 10
316.174652
 20
463.947937
 40
5.000000
 50
90.000000
 51
163.827835
  0
ARC
  8
0
  6
CONTINUOUS
 10
305.762634
 20
463.947937
 40
5.000000
 50
-90.000000
 51
-16.172159
  0
LINE
  8
0
  6
CONTINUOUS
 10
309.518646
 20
458.947937
 11
309.515411
 21
458.936829
  0
LINE
  8
0
  6
CENTER
 10
79.416748
 20
0.770000
 11
79.416748
 21
252.615585
  0
LINE
  8
0
  6
CENTER
 10
-0.380632
 20
110.889999
 11
155.249374
 21
110.889999
  0
LINE
  8
0
  6
CENTER
 10
2.384368
 20
155.889999
 11
213.593750
 21
155.889999
  0
LINE
  8
0
  6
CENTER
 10
139.416748
 20
42.488739
 11
139.416748
 21
4.589620
  0
LINE
  8
0
  6
CENTER
 10
19.416750
 20
42.488739
 11
19.416750
 21
4.589620
  0
LINE
  8
0
  6
CONTINUOUS
 10
4.416750
 20
15.890000
 11
49.416752
 21
15.890000
  0
LINE
  8
0
  6
CONTINUOUS
 10
109.416748
 20
15.890000
 11
154.416748
 21
15.890000
  0
LINE
  8
0
  6
CONTINUOUS
 10
151.916748
 20
33.889999
 11
128.416748
 21
33.889999
  0
LINE
  8
0
  6
CONTINUOUS
 10
6.916750
 20
33.889999
 11
30.416750
 21
33.889999
  0
LINE
  8
0
  6
CONTINUOUS
 10
124.416748
 20
217.156754
 11
124.416748
 21
15.890000
  0
LINE
  8
0
  6
CONTINUOUS
 10
34.416752
 20
203.631195
 11
34.416752
 21
217.156281
  0
LINE
  8
0
  6
CONTINUOUS
 10
154.416748
 20
31.772181
 11
154.416748
 21
15.890000
  0
LINE
  8
0
  6
CONTINUOUS
 10
4.416750
 20
31.772181
 11
4.416750
 21
15.890000
  0
LINE
  8
0
  6
CONTINUOUS
 10
50.916752
 20
17.389999
 11
107.916748
 21
17.389999
  0
LINE
  8
0
  6
CONTINUOUS
 10
121.469147
 20
220.156296
 11
79.416748
 21
220.889999
  0
LINE
  8
0
  6
CONTINUOUS
 10
37.364349
 20
220.155823
 11
79.416748
 21
220.889999
  0
LINE
  8
0
  6
CONTINUOUS
 10
17.416750
 20
120.631195
 11
17.416750
 21
191.148819
  0
LINE
  8
0
  6
CONTINUOUS
 10
141.416748
 20
120.631195
 11
141.416748
 21
191.148819
  0
LINE
  8
0
  6
CONTINUOUS
 10
24.416750
 20
71.646004
 11
24.416750
 21
159.800400
  0
LINE
  8
0
  6
CONTINUOUS
 10
134.416748
 20
71.646019
 11
134.416748
 21
159.800400
  0
LINE
  8
0
  6
DASHED
 10
145.916748
 20
33.889999
 11
145.916748
 21
15.890000
  0
LINE
  8
0
  6
DASHED
 10
132.916748
 20
33.889999
 11
132.916748
 21
15.890000
  0
LINE
  8
0
  6
DASHED
 10
25.916750
 20
33.889999
 11
25.916750
 21
15.890000
  0
LINE
  8
0
  6
DASHED
 10
12.916750
 20
33.889999
 11
12.916750
 21
15.890000
  0
ARC
  8
0
  6
CONTINUOUS
 10
37.416752
 20
217.156281
 40
3.000000
 50
91.000603
 51
180.000000
  0
ARC
  8
0
  6
CONTINUOUS
 10
121.416748
 20
217.156738
 40
3.000000
 50
0.000000
 51
89.000580
  0
LINE
  8
0
  6
CONTINUOUS
 10
30.827551
 20
198.834366
 11
21.005951
 21
195.945618
  0
LINE
  8
0
  6
CONTINUOUS
 10
21.005951
 20
115.834366
 11
21.545349
 21
115.675697
  0
LINE
  8
0
  6
CONTINUOUS
 10
28.024151
 20
66.843857
 11
30.809349
 21
66.036140
  0
LINE
  8
0
  6
CONTINUOUS
 10
6.505750
 20
34.238159
 11
31.909950
 21
38.472198
  0
LINE
  8
0
  6
CONTINUOUS
 10
152.327744
 20
34.238178
 11
126.923553
 21
38.472221
  0
LINE
  8
0
  6
CONTINUOUS
 10
130.809357
 20
66.843857
 11
128.024155
 21
66.036140
  0
LINE
  8
0
  6
CONTINUOUS
 10
137.827545
 20
115.834366
 11
137.288147
 21
115.675690
  0
LINE
  8
0
  6
CONTINUOUS
 10
137.827545
 20
195.945633
 11
128.005951
 21
198.834366
  0
LINE
  8
0
  6
CONTINUOUS
 10
36.991150
 20
188.389999
 11
121.669350
 21
188.389999
  0
ARC
  8
0
  6
CONTINUOUS
 10
22.416750
 20
191.148834
 40
5.000000
 50
106.389900
 51
180.000000
  0
ARC
  8
0
  6
CONTINUOUS
 10
136.416748
 20
191.148804
 40
5.000000
 50
0.000000
 51
73.610527
  0
ARC
  8
0
  6
CONTINUOUS
 10
22.416750
 20
120.631226
 40
5.000000
 50
180.000000
 51
253.610794
  0
ARC
  8
0
  6
CONTINUOUS
 10
136.416748
 20
120.631187
 40
5.000000
 50
-73.610321
 51
0.000000
  0
ARC
  8
0
  6
CONTINUOUS
 10
129.416748
 20
71.646004
 40
5.000000
 50
-73.827698
 51
0.000000
  0
ARC
  8
0
  6
CONTINUOUS
 10
29.416750
 20
71.646042
 40
5.000000
 50
180.000000
 51
253.828201
  0
LINE
  8
0
  6
CONTINUOUS
 10
34.416752
 20
203.631195
 11
34.416752
 21
15.890000
  0
ARC
  8
0
  6
CONTINUOUS
 10
29.416750
 20
203.631180
 40
5.000000
 50
-73.610229
 51
0.000000
  0
ARC
  8
0
  6
CONTINUOUS
 10
20.416750
 20
111.838219
 40
4.000000
 50
0.000000
 51
73.610649
  0
ARC
  8
0
  6
CONTINUOUS
 10
29.416750
 20
61.233978
 40
5.000000
 50
0.000000
 51
73.827919
  0
ARC
  8
0
  6
CONTINUOUS
 10
129.416748
 20
61.234020
 40
5.000000
 50
106.172501
 51
180.000000
  0
ARC
  8
0
  6
CONTINUOUS
 10
138.416748
 20
111.838249
 40
4.000000
 50
106.389999
 51
180.000000
  0
ARC
  8
0
  6
CONTINUOUS
 10
129.416748
 20
203.631226
 40
5.000000
 50
180.000000
 51
253.610794
  0
ARC
  8
0
  6
CONTINUOUS
 10
31.416750
 20
41.431381
 40
3.000000
 50
-80.537483
 51
0.000000
  0
ARC
  8
0
  6
CONTINUOUS
 10
30.416750
 20
37.889961
 40
4.000000
 50
-90.000000
 51
0.000000
  0
ARC
  8
0
  6
CONTINUOUS
 10
6.916750
 20
31.390020
 40
2.500000
 50
90.000000
 51
180.000000
  0
LINE
  8
0
  6
CONTINUOUS
 10
49.416752
 20
15.890000
 11
50.916752
 21
17.389999
  0
LINE
  8
0
  6
CONTINUOUS
 10
109.416748
 20
15.890000
 11
107.916748
 21
17.389999
  0
ARC
  8
0
  6
CONTINUOUS
 10
127.416748
 20
41.431419
 40
3.000000
 50
180.000000
 51
260.537903
  0
ARC
  8
0
  6
CONTINUOUS
 10
128.416748
 20
37.889999
 40
4.000000
 50
180.000000
 51
270.000000
  0
ARC
  8
0
  6
CONTINUOUS
 10
151.916748
 20
31.389999
 40
2.500000
 50
0.000000
 51
90.000000
  0
LINE
  8
0
  6
CONTINUOUS
 10
199.416748
 20
139.889999
 11
199.416748
 21
171.889999
  0
LINE
  8
0
  6
CONTINUOUS
 10
144.416748
 20
171.889999
 11
199.416748
 21
171.889999
  0
LINE
  8
0
  6
CONTINUOUS
 10
144.416748
 20
139.889999
 11
199.416748
 21
139.889999
  0
LINE
  8
0
  6
CONTINUOUS
 10
144.416748
 20
173.389999
 11
144.416748
 21
138.389999
  0
LINE
  8
0
  6
CONTINUOUS
 10
141.416748
 20
173.389999
 11
144.416748
 21
173.389999
  0
LINE
  8
0
  6
CONTINUOUS
 10
141.416748
 20
138.389999
 11
144.416748
 21
138.389999
  0
ARC
  8
0
  6
CONTINUOUS
 10
154.416748
 20
155.889999
 40
5.000000
 50
90.000000
 51
270.000000
  0
LINE
  8
0
  6
CONTINUOUS
 10
154.416748
 20
160.889999
 11
199.416748
 21
160.889999
  0
LINE
  8
0
  6
CONTINUOUS
 10
154.416748
 20
150.889999
 11
199.416748
 21
150.889999
  0
ARC
  8
0
  6
CONTINUOUS
 10
6.916750
 20
31.772200
 40
2.500000
 50
99.462753
 51
180.000000
  0
ARC
  8
0
  6
CONTINUOUS
 10
151.916748
 20
31.772181
 40
2.500000
 50
0.000000
 51
80.537682
  0
LINE
  8
0
  6
CONTINUOUS
 10
454.918640
 20
174.889999
 11
454.918640
 21
46.889999
  0
ARC
  8
0
  6
CONTINUOUS
 10
79.416748
 20
110.889999
 40
64.000000
 50
165.638489
 51
210.753525
  0
ARC
  8
0
  6
CONTINUOUS
 10
79.416748
 20
110.889999
 40
64.000000
 50
-30.753519
 51
14.361512
  0
ARC
  8
0
  6
CONTINUOUS
 10
38.404549
 20
69.877777
 40
8.000000
 50
211.001404
 51
233.216995
  0
ARC
  8
0
  6
CONTINUOUS
 10
32.416752
 20
61.868660
 40
2.000000
 50
30.947910
 51
53.217121
  0
ARC
  8
0
  6
CONTINUOUS
 10
120.428947
 20
69.877777
 40
8.000000
 50
-53.216999
 51
-31.001400
  0
ARC
  8
0
  6
CONTINUOUS
 10
126.416748
 20
61.868660
 40
2.000000
 50
126.782883
 51
149.052094
  0
LINE
  8
0
  6
CENTER
 10
702.043762
 20
97.889999
 11
410.032257
 21
97.889999
  0
LINE
  8
0
  6
CENTER
 10
542.955322
 20
110.889999
 11
410.032257
 21
110.889999
  0
LINE
  8
0
  6
CONTINUOUS
 10
463.418640
 20
475.947937
 11
463.418640
 21
351.947937
  0
LINE
  8
0
  6
CONTINUOUS
 10
509.418640
 20
368.947937
 11
465.855011
 21
367.426666
  0
LINE
  8
0
  6
CONTINUOUS
 10
509.418640
 20
458.947937
 11
465.855011
 21
460.469208
  0
LINE
  8
0
  6
CONTINUOUS
 10
509.418640
 20
364.935944
 11
509.418640
 21
462.959930
  0
LINE
  8
0
  6
CONTINUOUS
 10
461.418640
 20
349.947937
 11
454.918640
 21
349.947937
  0
LINE
  8
0
  6
CONTINUOUS
 10
461.418640
 20
477.947937
 11
454.918640
 21
477.947937
  0
LINE
  8
0
  6
CONTINUOUS
 10
470.561646
 20
389.947937
 11
463.446655
 21
389.947937
  0
LINE
  8
0
  6
CONTINUOUS
 10
469.956482
 20
437.947937
 11
463.446655
 21
437.947937
  0
LINE
  8
0
  6
CONTINUOUS
 10
470.561646
 20
392.152435
 11
470.561646
 21
435.865021
  0
LINE
  8
0
  6
CONTINUOUS
 10
518.418640
 20
370.947937
 11
518.418640
 21
384.947937
  0
LINE
  8
0
  6
CONTINUOUS
 10
628.418640
 20
368.947937
 11
509.418640
 21
368.947937
  0
LINE
  8
0
  6
CONTINUOUS
 10
628.418640
 20
458.947937
 11
509.418640
 21
458.947937
  0
LINE
  8
0
  6
CONTINUOUS
 10
628.418640
 20
384.947937
 11
518.418640
 21
384.947937
  0
LINE
  8
0
  6
CONTINUOUS
 10
628.418640
 20
442.947937
 11
518.418640
 21
442.947937
  0
ARC
  8
0
  6
CONTINUOUS
 10
516.418640
 20
370.947906
 40
2.000000
 50
-90.000000
 51
0.000000
  0
ARC
  8
0
  6
CONTINUOUS
 10
516.418640
 20
456.947937
 40
2.000000
 50
0.000000
 51
90.000000
  0
LINE
  8
0
  6
CONTINUOUS
 10
509.418640
 20
368.947937
 11
509.418640
 21
458.947937
  0
ARC
  8
0
  6
CONTINUOUS
 10
461.418640
 20
351.947937
 40
2.000000
 50
-90.000000
 51
0.000000
  0
ARC
  8
0
  6
CONTINUOUS
 10
461.418640
 20
475.947937
 40
2.000000
 50
0.000000
 51
90.000000
  0
ARC
  8
0
  6
CONTINUOUS
 10
465.942261
 20
364.928192
 40
2.500000
 50
92.000000
 51
179.895706
  0
ARC
  8
0
  6
CONTINUOUS
 10
465.942261
 20
462.967682
 40
2.500000
 50
180.104294
 51
268.000000
  0
LINE
  8
0
  6
CONTINUOUS
 10
463.418640
 20
367.341583
 11
463.446655
 21
367.342560
  0
LINE
  8
0
  6
CONTINUOUS
 10
508.918945
 20
364.418488
 11
463.418640
 21
362.829590
  0
LINE
  8
0
  6
CONTINUOUS
 10
509.418640
 20
364.935944
 11
508.918945
 21
364.418488
  0
LINE
  8
0
  6
CONTINUOUS
 10
508.918945
 20
463.477386
 11
463.418640
 21
465.066284
  0
LINE
  8
0
  6
CONTINUOUS
 10
509.418640
 20
462.959930
 11
508.918945
 21
463.477386
  0
LINE
  8
0
  6
CONTINUOUS
 10
518.418640
 20
140.889999
 11
518.418640
 21
54.889980
  0
LINE
  8
0
  6
CONTINUOUS
 10
628.418640
 20
142.889999
 11
509.418640
 21
142.889999
  0
LINE
  8
0
  6
CONTINUOUS
 10
628.418640
 20
52.889999
 11
509.418640
 21
52.889999
  0
LINE
  8
0
  6
CONTINUOUS
 10
628.418640
 20
132.299301
 11
519.456299
 21
132.299301
  0
LINE
  8
0
  6
CONTINUOUS
 10
628.418640
 20
63.480701
 11
519.456299
 21
63.480701
  0
ARC
  8
0
  6
CONTINUOUS
 10
516.418640
 20
140.890015
 40
2.000000
 50
0.000000
 51
90.000000
  0
ARC
  8
0
  6
CONTINUOUS
 10
516.418640
 20
54.889999
 40
2.000000
 50
-90.000000
 51
0.000000
  0
LINE
  8
0
  6
CONTINUOUS
 10
461.418640
 20
174.890106
 11
454.918640
 21
174.890106
  0
LINE
  8
0
  6
CONTINUOUS
 10
461.418640
 20
46.889900
 11
454.918640
 21
46.889900
  0
LINE
  8
0
  6
CONTINUOUS
 10
509.418640
 20
142.889999
 11
463.418640
 21
144.496353
  0
LINE
  8
0
  6
CONTINUOUS
 10
454.918640
 20
50.986816
 11
509.418640
 21
52.889999
  0
ARC
  8
0
  6
CONTINUOUS
 10
461.418610
 20
172.890121
 40
2.000000
 50
0.000000
 51
90.000000
  0
ARC
  8
0
  6
CONTINUOUS
 10
461.418640
 20
48.889900
 40
2.000000
 50
-90.000000
 51
-0.260773
  0
LINE
  8
0
  6
CONTINUOUS
 10
509.418640
 20
142.889999
 11
509.418640
 21
52.889999
  0
LINE
  8
0
  6
CONTINUOUS
 10
464.150879
 20
150.657761
 11
469.865387
 21
144.943253
  0
LINE
  8
0
  6
CONTINUOUS
 10
509.418640
 20
77.384003
 11
465.418640
 21
77.384003
  0
LINE
  8
0
  6
CONTINUOUS
 10
509.418640
 20
62.370998
 11
454.918640
 21
62.370998
  0
LINE
  8
0
  6
CONTINUOUS
 10
462.850677
 20
70.322998
 11
454.918640
 21
70.322998
  0
LINE
  8
0
  6
CONTINUOUS
 10
463.418640
 20
71.537735
 11
463.418640
 21
172.890121
  0
ARC
  8
0
  6
CONTINUOUS
 10
465.918579
 20
48.869419
 40
2.500000
 50
92.000000
 51
179.739227
  0
ARC
  8
0
  6
CONTINUOUS
 10
465.918640
 20
152.425537
 40
2.500000
 50
180.000000
 51
225.000000
  0
ARC
  8
0
  6
CONTINUOUS
 10
471.633148
 20
146.711029
 40
2.500000
 50
-135.000000
 51
-92.000000
  0
LINE
  8
0
  6
CENTER
 10
366.918640
 20
243.186172
 11
366.918640
 21
5.257120
  0
LINE
  8
0
  6
CENTER
 10
426.217377
 20
155.889999
 11
305.498749
 21
155.889999
  0
LINE
  8
0
  6
CENTER
 10
319.418640
 20
41.165440
 11
319.418640
 21
7.300700
  0
LINE
  8
0
  6
CENTER
 10
414.418640
 20
41.165440
 11
414.418640
 21
7.008760
  0
LINE
  8
0
  6
CONTINUOUS
 10
442.918640
 20
15.890000
 11
290.918640
 21
15.890000
  0
LINE
  8
0
  6
CONTINUOUS
 10
442.918640
 20
33.889999
 11
290.918640
 21
33.889999
  0
LINE
  8
0
  6
CONTINUOUS
 10
290.918640
 20
184.195557
 11
290.918640
 21
15.890000
  0
LINE
  8
0
  6
CONTINUOUS
 10
442.918640
 20
179.389999
 11
442.918640
 21
184.195557
  0
LINE
  8
0
  6
CONTINUOUS
 10
393.422028
 20
220.889999
 11
340.415222
 21
220.889999
  0
LINE
  8
0
  6
CONTINUOUS
 10
447.918640
 20
174.889999
 11
454.918640
 21
174.889999
  0
LINE
  8
0
  6
CONTINUOUS
 10
447.918640
 20
46.889999
 11
454.918640
 21
46.889999
  0
LINE
  8
0
  6
CONTINUOUS
 10
294.368622
 20
190.775620
 11
335.865234
 21
219.470062
  0
LINE
  8
0
  6
CONTINUOUS
 10
439.468628
 20
190.775620
 11
397.972046
 21
219.470062
  0
ARC
  8
0
  6
CONTINUOUS
 10
340.415222
 20
212.889999
 40
8.000000
 50
90.000000
 51
124.663300
  0
ARC
  8
0
  6
CONTINUOUS
 10
298.918640
 20
184.195526
 40
8.000000
 50
124.663300
 51
180.000000
  0
ARC
  8
0
  6
CONTINUOUS
 10
393.422028
 20
212.889999
 40
8.000000
 50
55.336300
 51
90.000000
  0
ARC
  8
0
  6
CONTINUOUS
 10
434.918640
 20
184.195602
 40
8.000000
 50
0.000000
 51
55.336201
  0
LINE
  8
0
  6
CONTINUOUS
 10
442.918640
 20
42.389999
 11
442.918640
 21
15.890000
  0
ARC
  8
0
  6
CONTINUOUS
 10
447.918640
 20
179.889999
 40
5.000000
 50
180.000000
 51
270.000000
  0
LINE
  8
0
  6
CONTINUOUS
 10
442.918640
 20
42.389999
 11
442.918640
 21
179.389999
  0
ARC
  8
0
  6
CONTINUOUS
 10
447.918640
 20
41.889980
 40
5.000000
 50
90.000000
 51
180.000000
  0
LINE
  8
0
  6
DASHED
 10
420.918640
 20
33.889999
 11
420.918640
 21
15.890000
  0
LINE
  8
0
  6
DASHED
 10
407.918640
 20
33.889999
 11
407.918640
 21
15.890000
  0
LINE
  8
0
  6
DASHED
 10
325.918640
 20
33.889999
 11
325.918640
 21
15.890000
  0
LINE
  8
0
  6
DASHED
 10
312.918640
 20
33.889999
 11
312.918640
 21
15.890000
  0
CIRCLE
  8
0
  6
CONTINUOUS
 10
366.918640
 20
155.889999
 40
39.000000
  0
ARC
  8
0
  6
CONTINUOUS
 10
366.918640
 20
155.889999
 40
44.000000
 50
12.523100
 51
167.476807
  0
ARC
  8
0
  6
CONTINUOUS
 10
392.418640
 20
96.889999
 40
29.000000
 50
-90.000000
 51
12.523100
  0
ARC
  8
0
  6
CONTINUOUS
 10
341.418640
 20
96.889999
 40
29.000000
 50
167.476807
 51
270.000000
  0
ARC
  8
0
  6
CONTINUOUS
 10
392.418640
 20
96.889999
 40
31.900000
 50
-90.000000
 51
12.523100
  0
ARC
  8
0
  6
CONTINUOUS
 10
341.418640
 20
96.889999
 40
31.900000
 50
167.476807
 51
270.000000
  0
ARC
  8
0
  6
CONTINUOUS
 10
366.918640
 20
155.889999
 40
41.099998
 50
-192.523193
 51
12.523100
  0
LINE
  8
0
  6
CONTINUOUS
 10
423.559631
 20
103.807007
 11
409.871826
 21
165.430695
  0
LINE
  8
0
  6
CONTINUOUS
 10
420.728638
 20
103.178185
 11
407.040833
 21
164.801880
  0
LINE
  8
0
  6
CONTINUOUS
 10
392.418640
 20
64.989998
 11
341.418640
 21
64.989998
  0
LINE
  8
0
  6
CONTINUOUS
 10
341.418640
 20
67.889999
 11
392.418640
 21
67.889999
  0
LINE
  8
0
  6
CONTINUOUS
 10
323.965424
 20
165.430786
 11
310.277618
 21
103.807060
  0
LINE
  8
0
  6
CONTINUOUS
 10
326.796417
 20
164.801956
 11
313.108643
 21
103.178238
  0
ARC
  8
0
  6
CONTINUOUS
 10
263.209839
 20
110.889999
 40
185.208893
 50
-13.998090
 51
13.998090
  0
LINE
  8
0
  6
CONTINUOUS
 10
428.918640
 20
31.823441
 11
428.918640
 21
15.890000
  0
LINE
  8
0
  6
CONTINUOUS
 10
304.918640
 20
31.823441
 11
304.918640
 21
15.890000
  0
LINE
  8
0
  6
CONTINUOUS
 10
343.161224
 20
38.889999
 11
390.676025
 21
38.889999
  0
LINE
  8
0
  6
CONTINUOUS
 10
391.918640
 20
37.954121
 11
391.918640
 21
34.889999
  0
LINE
  8
0
  6
CONTINUOUS
 10
341.040039
 20
38.011318
 11
338.383026
 21
35.354462
  0
LINE
  8
0
  6
CONTINUOUS
 10
392.797241
 20
38.011318
 11
395.454041
 21
35.354500
  0
LINE
  8
0
  6
CONTINUOUS
 10
341.918640
 20
37.954121
 11
341.918640
 21
34.889999
  0
ARC
  8
0
  6
CONTINUOUS
 10
398.989624
 20
38.889999
 40
5.000000
 50
-135.000107
 51
-90.000000
  0
ARC
  8
0
  6
CONTINUOUS
 10
390.676025
 20
35.889999
 40
3.000000
 50
44.999691
 51
90.000000
  0
ARC
  8
0
  6
CONTINUOUS
 10
392.918640
 20
34.889999
 40
1.000000
 50
180.000000
 51
270.000000
  0
ARC
  8
0
  6
CONTINUOUS
 10
334.847626
 20
38.889999
 40
5.000000
 50
-90.000000
 51
-45.000000
  0
ARC
  8
0
  6
CONTINUOUS
 10
343.161224
 20
35.889999
 40
3.000000
 50
90.000000
 51
134.999802
  0
ARC
  8
0
  6
CONTINUOUS
 10
340.918640
 20
34.889999
 40
1.000000
 50
-90.000000
 51
0.000000
  0
LINE
  8
0
  6
CONTINUOUS
 10
354.691620
 20
79.889999
 11
349.751221
 21
79.889999
  0
LINE
  8
0
  6
CONTINUOUS
 10
357.418640
 20
88.165398
 11
357.418640
 21
79.889999
  0
LINE
  8
0
  6
CONTINUOUS
 10
362.168640
 20
91.171249
 11
362.168640
 21
94.139999
  0
LINE
  8
0
  6
CONTINUOUS
 10
371.668640
 20
91.171249
 11
371.668640
 21
94.139999
  0
LINE
  8
0
  6
CONTINUOUS
 10
365.990845
 20
92.395859
 11
365.990845
 21
81.448601
  0
LINE
  8
0
  6
CONTINUOUS
 10
367.772034
 20
92.395859
 11
367.772034
 21
81.448601
  0
LINE
  8
0
  6
CONTINUOUS
 10
377.123627
 20
92.395859
 11
377.123627
 21
81.374382
  0
LINE
  8
0
  6
CONTINUOUS
 10
378.756439
 20
86.551140
 11
378.756439
 21
81.374382
  0
LINE
  8
0
  6
CONTINUOUS
 10
355.164642
 20
92.247421
 11
350.586823
 21
92.247421
  0
LINE
  8
0
  6
CONTINUOUS
 10
350.586823
 20
92.247421
 11
349.514221
 21
90.917419
  0
LINE
  8
0
  6
CONTINUOUS
 10
349.643219
 20
94.139999
 11
347.918640
 21
91.931534
  0
LINE
  8
0
  6
CONTINUOUS
 10
349.514221
 20
82.707840
 11
350.604034
 21
81.559921
  0
LINE
  8
0
  6
CONTINUOUS
 10
347.918640
 20
81.739120
 11
349.751221
 21
79.889999
  0
LINE
  8
0
  6
CONTINUOUS
 10
347.918640
 20
91.931534
 11
347.918640
 21
81.739120
  0
LINE
  8
0
  6
CONTINUOUS
 10
349.514221
 20
90.917419
 11
349.514221
 21
82.707840
  0
LINE
  8
0
  6
CONTINUOUS
 10
356.045624
 20
91.395859
 11
355.146637
 21
92.247421
  0
LINE
  8
0
  6
CONTINUOUS
 10
356.031219
 20
94.139999
 11
357.418640
 21
92.600418
  0
LINE
  8
0
  6
CONTINUOUS
 10
356.045624
 20
91.171249
 11
357.418640
 21
91.171249
  0
LINE
  8
0
  6
CONTINUOUS
 10
349.643219
 20
94.139999
 11
356.031219
 21
94.139999
  0
LINE
  8
0
  6
CONTINUOUS
 10
353.559235
 20
88.165398
 11
357.418640
 21
88.165398
  0
LINE
  8
0
  6
CONTINUOUS
 10
356.045624
 20
86.606796
 11
353.559235
 21
86.606796
  0
LINE
  8
0
  6
CONTINUOUS
 10
353.076843
 20
81.559921
 11
350.604034
 21
81.559921
  0
LINE
  8
0
  6
CONTINUOUS
 10
356.045624
 20
85.122421
 11
356.045624
 21
86.309921
  0
ARC
  8
0
  6
CONTINUOUS
 10
353.076843
 20
84.528664
 40
2.968750
 50
-89.999786
 51
0.000109
  0
LINE
  8
0
  6
CONTINUOUS
 10
356.045624
 20
81.025917
 11
356.045624
 21
79.889999
  0
LINE
  8
0
  6
CONTINUOUS
 10
357.418640
 20
92.600418
 11
357.418640
 21
91.171249
  0
LINE
  8
0
  6
CONTINUOUS
 10
356.045624
 20
86.606796
 11
356.045624
 21
84.528664
  0
LINE
  8
0
  6
CONTINUOUS
 10
353.559235
 20
88.165398
 11
353.559235
 21
86.606796
  0
LINE
  8
0
  6
CONTINUOUS
 10
356.045624
 20
79.889999
 11
357.418640
 21
79.889999
  0
LINE
  8
0
  6
CONTINUOUS
 10
356.045624
 20
81.025917
 11
354.691620
 21
79.889999
  0
LINE
  8
0
  6
CONTINUOUS
 10
367.772034
 20
81.448601
 11
368.365845
 21
81.448601
  0
LINE
  8
0
  6
CONTINUOUS
 10
365.285828
 20
81.448601
 11
365.285828
 21
79.889999
  0
LINE
  8
0
  6
CONTINUOUS
 10
368.365845
 20
81.448601
 11
368.365845
 21
79.889999
  0
LINE
  8
0
  6
CONTINUOUS
 10
370.677643
 20
91.171249
 11
371.668640
 21
91.171249
  0
LINE
  8
0
  6
CONTINUOUS
 10
362.168640
 20
91.171249
 11
363.223236
 21
91.171249
  0
LINE
  8
0
  6
CONTINUOUS
 10
362.168640
 20
94.139999
 11
371.668640
 21
94.139999
  0
LINE
  8
0
  6
CONTINUOUS
 10
365.285828
 20
79.889999
 11
368.365845
 21
79.889999
  0
LINE
  8
0
  6
CONTINUOUS
 10
365.285828
 20
81.448601
 11
365.990845
 21
81.448601
  0
ARC
  8
0
  6
CONTINUOUS
 10
382.114838
 20
90.336281
 40
3.803712
 50
-73.981873
 51
90.003510
  0
ARC
  8
0
  6
CONTINUOUS
 10
382.114838
 20
90.336281
 40
2.320524
 50
-82.585274
 51
62.411850
  0
LINE
  8
0
  6
CONTINUOUS
 10
376.418640
 20
94.139999
 11
382.114838
 21
94.139999
  0
LINE
  8
0
  6
CONTINUOUS
 10
382.414429
 20
88.035156
 11
378.756439
 21
88.035156
  0
LINE
  8
0
  6
CONTINUOUS
 10
376.418640
 20
94.139999
 11
376.418640
 21
92.395859
  0
LINE
  8
0
  6
CONTINUOUS
 10
378.756439
 20
92.395859
 11
378.756439
 21
88.035156
  0
LINE
  8
0
  6
CONTINUOUS
 10
383.164429
 20
86.680260
 11
385.518829
 21
81.374382
  0
LINE
  8
0
  6
CONTINUOUS
 10
381.797241
 20
86.551140
 11
384.025024
 21
81.374382
  0
LINE
  8
0
  6
CONTINUOUS
 10
376.418640
 20
81.374382
 11
377.123627
 21
81.374382
  0
LINE
  8
0
  6
CONTINUOUS
 10
378.756439
 20
81.374382
 11
379.406036
 21
81.374382
  0
LINE
  8
0
  6
CONTINUOUS
 10
379.406036
 20
79.889999
 11
376.418640
 21
79.889999
  0
LINE
  8
0
  6
CONTINUOUS
 10
383.729218
 20
81.374382
 11
384.025024
 21
81.374382
  0
LINE
  8
0
  6
CONTINUOUS
 10
385.518829
 20
81.374382
 11
385.918640
 21
81.374382
  0
LINE
  8
0
  6
CONTINUOUS
 10
383.729218
 20
79.889999
 11
385.918640
 21
79.889999
  0
LINE
  8
0
  6
CONTINUOUS
 10
385.918640
 20
81.374382
 11
385.918640
 21
79.889999
  0
LINE
  8
0
  6
CONTINUOUS
 10
383.729218
 20
81.374382
 11
383.729218
 21
79.889999
  0
LINE
  8
0
  6
CONTINUOUS
 10
379.406036
 20
81.374382
 11
379.406036
 21
79.889999
  0
LINE
  8
0
  6
CONTINUOUS
 10
376.418640
 20
81.374382
 11
376.418640
 21
79.889999
  0
LINE
  8
0
  6
CONTINUOUS
 10
363.733429
 20
92.395859
 11
363.223236
 21
91.171249
  0
LINE
  8
0
  6
CONTINUOUS
 10
370.247437
 20
92.395859
 11
370.677643
 21
91.171249
  0
LINE
  8
0
  6
CONTINUOUS
 10
367.772034
 20
92.395859
 11
370.247437
 21
92.395859
  0
LINE
  8
0
  6
CONTINUOUS
 10
365.990845
 20
92.395859
 11
363.733429
 21
92.395859
  0
LINE
  8
0
  6
CONTINUOUS
 10
378.756439
 20
86.551140
 11
381.797241
 21
86.551140
  0
LINE
  8
0
  6
CONTINUOUS
 10
376.418640
 20
92.395859
 11
377.123627
 21
92.395859
  0
LINE
  8
0
  6
CONTINUOUS
 10
378.756439
 20
92.395859
 11
383.189636
 21
92.392975
  0
LINE
  8
0
  6
CONTINUOUS
 10
356.045624
 20
91.395859
 11
356.045624
 21
91.171249
  0
LINE
  8
0
  6
CONTINUOUS
 10
438.918640
 20
164.667099
 11
438.918640
 21
93.112930
  0
LINE
  8
0
  6
CONTINUOUS
 10
294.918640
 20
164.667099
 11
294.918640
 21
93.112923
  0
ARC
  8
0
  6
CONTINUOUS
 10
366.918640
 20
128.889999
 40
88.000000
 50
228.189804
 51
311.810791
  0
ARC
  8
0
  6
CONTINUOUS
 10
366.918640
 20
128.889999
 40
88.000000
 50
48.217949
 51
131.810501
  0
ARC
  8
0
  6
CONTINUOUS
 10
334.918640
 20
164.667099
 40
40.000000
 50
131.810806
 51
180.000000
  0
ARC
  8
0
  6
CONTINUOUS
 10
398.918640
 20
164.667099
 40
40.000000
 50
0.000000
 51
48.251911
  0
ARC
  8
0
  6
CONTINUOUS
 10
398.918640
 20
93.112915
 40
40.000000
 50
-48.187901
 51
0.000000
  0
ARC
  8
0
  6
CONTINUOUS
 10
334.918640
 20
93.112915
 40
40.000000
 50
180.000000
 51
228.190094
  0
LINE
  8
0
  6
CONTINUOUS
 10
355.918640
 20
160.889999
 11
355.918640
 21
150.889999
  0
LINE
  8
0
  6
CONTINUOUS
 10
347.918640
 20
160.889999
 11
347.918640
 21
150.889999
  0
LINE
  8
0
  6
CONTINUOUS
 10
347.918640
 20
160.889999
 11
355.918640
 21
160.889999
  0
LINE
  8
0
  6
CONTINUOUS
 10
347.918640
 20
150.889999
 11
355.918640
 21
150.889999
  0
ARC
  8
0
  6
CONTINUOUS
 10
366.918640
 20
155.889999
 40
16.000000
 50
-161.790100
 51
161.790100
  0
LINE
  8
0
  6
CONTINUOUS
 10
637.918640
 20
368.947937
 11
628.418640
 21
368.947937
  0
LINE
  8
0
  6
CONTINUOUS
 10
628.418640
 20
384.947937
 11
637.918640
 21
384.947937
  0
LINE
  8
0
  6
CONTINUOUS
 10
637.918640
 20
458.947937
 11
628.418640
 21
458.947937
  0
LINE
  8
0
  6
CONTINUOUS
 10
628.418640
 20
458.947937
 11
628.418640
 21
438.947937
  0
LINE
  8
0
  6
CONTINUOUS
 10
628.418640
 20
442.947937
 11
637.918640
 21
442.947937
  0
LINE
  8
0
  6
CONTINUOUS
 10
628.418640
 20
388.947937
 11
628.418640
 21
368.947937
  0
LINE
  8
0
  6
CONTINUOUS
 10
637.918640
 20
366.947937
 11
637.918640
 21
460.947937
  0
LINE
  8
0
  6
CONTINUOUS
 10
637.918640
 20
384.947937
 11
681.893677
 21
384.947937
  0
LINE
  8
0
  6
CONTINUOUS
 10
637.918640
 20
442.947937
 11
681.893677
 21
442.947937
  0
LINE
  8
0
  6
CONTINUOUS
 10
680.418640
 20
366.947937
 11
637.918640
 21
366.947937
  0
LINE
  8
0
  6
CONTINUOUS
 10
680.418640
 20
460.947937
 11
637.918640
 21
460.947937
  0
ARC
  8
0
  6
CONTINUOUS
 10
680.418640
 20
371.947937
 40
5.000000
 50
-90.000000
 51
0.000000
  0
ARC
  8
0
  6
CONTINUOUS
 10
680.418640
 20
455.947937
 40
5.000000
 50
0.000000
 51
90.000000
  0
LINE
  8
0
  6
CONTINUOUS
 10
685.418640
 20
371.947937
 11
685.418640
 21
455.947937
  0
LINE
  8
0
  6
CONTINUOUS
 10
637.918640
 20
142.889999
 11
628.418640
 21
142.889999
  0
LINE
  8
0
  6
CONTINUOUS
 10
628.418640
 20
132.299301
 11
637.918640
 21
132.299301
  0
LINE
  8
0
  6
CONTINUOUS
 10
637.918640
 20
52.889999
 11
628.418640
 21
52.889999
  0
LINE
  8
0
  6
CONTINUOUS
 10
628.418640
 20
63.480709
 11
637.918640
 21
63.480709
  0
LINE
  8
0
  6
CONTINUOUS
 10
637.918640
 20
144.889999
 11
637.918640
 21
50.889999
  0
LINE
  8
0
  6
CONTINUOUS
 10
637.918640
 20
126.889999
 11
681.893677
 21
126.889999
  0
LINE
  8
0
  6
CONTINUOUS
 10
637.918640
 20
68.889999
 11
681.893677
 21
68.889999
  0
LINE
  8
0
  6
CONTINUOUS
 10
680.418640
 20
144.889999
 11
637.918640
 21
144.889999
  0
LINE
  8
0
  6
CONTINUOUS
 10
680.418640
 20
50.889999
 11
637.918640
 21
50.889999
  0
ARC
  8
0
  6
CONTINUOUS
 10
680.418640
 20
139.889999
 40
5.000000
 50
0.000000
 51
90.000000
  0
ARC
  8
0
  6
CONTINUOUS
 10
680.418640
 20
55.889999
 40
5.000000
 50
-90.000000
 51
0.000000
  0
LINE
  8
0
  6
CONTINUOUS
 10
685.418640
 20
139.889999
 11
685.418640
 21
55.889992
  0
LINE
  8
0
  6
CONTINUOUS
 10
628.418640
 20
52.889999
 11
628.418640
 21
142.889999
  0
LINE
  8
0
  6
CONTINUOUS
 10
637.418640
 20
436.947937
 11
637.418640
 21
390.947937
  0
LINE
  8
0
  6
CONTINUOUS
 10
635.418640
 20
388.947937
 11
637.418640
 21
390.947937
  0
LINE
  8
0
  6
CONTINUOUS
 10
635.418640
 20
388.947937
 11
589.418640
 21
388.947937
  0
LINE
  8
0
  6
CONTINUOUS
 10
594.918640
 20
393.447937
 11
594.918640
 21
388.947937
  0
ARC
  8
0
  6
CONTINUOUS
 10
591.918640
 20
393.447937
 40
3.000000
 50
0.000000
 51
90.000000
  0
LINE
  8
0
  6
CONTINUOUS
 10
591.918640
 20
396.447937
 11
587.418640
 21
396.447937
  0
CIRCLE
  8
0
  6
CONTINUOUS
 10
590.918640
 20
392.447937
 40
2.250000
  0
LINE
  8
0
  6
CONTINUOUS
 10
587.418640
 20
436.947937
 11
587.418640
 21
390.947937
  0
LINE
  8
0
  6
CONTINUOUS
 10
589.418640
 20
388.947937
 11
587.418640
 21
390.947937
  0
LINE
  8
0
  6
CONTINUOUS
 10
589.418640
 20
438.947937
 11
587.418640
 21
436.947937
  0
LINE
  8
0
  6
CONTINUOUS
 10
589.418640
 20
438.947937
 11
635.418640
 21
438.947937
  0
LINE
  8
0
  6
CONTINUOUS
 10
637.418640
 20
436.947937
 11
635.418640
 21
438.947937
  0
LINE
  8
0
  6
CONTINUOUS
 10
632.918640
 20
431.447937
 11
637.418640
 21
431.447937
  0
CIRCLE
  8
0
  6
CONTINUOUS
 10
633.918640
 20
435.447937
 40
2.250000
  0
ARC
  8
0
  6
CONTINUOUS
 10
632.918640
 20
434.447937
 40
3.000000
 50
180.000000
 51
270.000000
  0
LINE
  8
0
  6
CONTINUOUS
 10
629.918640
 20
434.447937
 11
629.918640
 21
438.947937
  0
LINE
  8
0
  6
CENTER
 10
612.418640
 20
446.413727
 11
612.418640
 21
382.281708
  0
LINE
  8
0
  6
CONTINUOUS
 10
636.418640
 20
431.447937
 11
636.418640
 21
396.447937
  0
LINE
  8
0
  6
CONTINUOUS
 10
594.918640
 20
389.947937
 11
629.918640
 21
389.947937
  0
LINE
  8
0
  6
CONTINUOUS
 10
588.418640
 20
396.447937
 11
588.418640
 21
431.447937
  0
LINE
  8
0
  6
CONTINUOUS
 10
629.918640
 20
437.947937
 11
594.918640
 21
437.947937
  0
LINE
  8
0
  6
CONTINUOUS
 10
632.918640
 20
396.447937
 11
637.418640
 21
396.447937
  0
ARC
  8
0
  6
CONTINUOUS
 10
632.918640
 20
393.447937
 40
3.000000
 50
90.000000
 51
180.000000
  0
LINE
  8
0
  6
CONTINUOUS
 10
629.918640
 20
393.447937
 11
629.918640
 21
388.947937
  0
CIRCLE
  8
0
  6
CONTINUOUS
 10
633.918640
 20
392.447937
 40
2.250000
  0
LINE
  8
0
  6
CONTINUOUS
 10
591.918640
 20
431.447937
 11
587.418640
 21
431.447937
  0
ARC
  8
0
  6
CONTINUOUS
 10
591.918640
 20
434.447937
 40
3.000000
 50
-90.000000
 51
0.000000
  0
LINE
  8
0
  6
CONTINUOUS
 10
594.918640
 20
434.447937
 11
594.918640
 21
438.947906
  0
CIRCLE
  8
0
  6
CONTINUOUS
 10
590.918640
 20
435.447937
 40
2.250000
  0
LINE
  8
0
  6
CONTINUOUS
 10
635.918640
 20
144.389999
 11
589.418640
 21
144.389999
  0
LINE
  8
0
  6
CONTINUOUS
 10
587.418640
 20
188.389999
 11
587.418640
 21
146.389999
  0
LINE
  8
0
  6
CONTINUOUS
 10
637.418640
 20
188.389999
 11
637.418640
 21
146.389999
  0
LINE
  8
0
  6
CONTINUOUS
 10
637.418640
 20
156.389999
 11
587.418640
 21
156.389999
  0
LINE
  8
0
  6
CONTINUOUS
 10
589.418640
 20
144.389999
 11
587.418640
 21
146.389999
  0
LINE
  8
0
  6
CONTINUOUS
 10
637.418640
 20
146.389999
 11
635.418640
 21
144.389999
  0
LINE
  8
0
  6
CONTINUOUS
 10
637.418640
 20
146.389999
 11
587.418640
 21
146.389999
  0
LINE
  8
0
  6
CONTINUOUS
 10
637.418640
 20
157.389999
 11
587.418640
 21
157.389999
  0
LINE
  8
0
  6
CONTINUOUS
 10
636.418640
 20
189.389999
 11
588.418640
 21
189.389999
  0
LINE
  8
0
  6
CONTINUOUS
 10
588.418640
 20
189.389999
 11
587.418640
 21
188.389999
  0
LINE
  8
0
  6
CONTINUOUS
 10
636.418640
 20
189.389999
 11
637.418640
 21
188.389999
  0
LINE
  8
0
  6
CONTINUOUS
 10
637.418640
 20
188.389999
 11
587.418640
 21
188.389999
  0
LINE
  8
0
  6
CENTER
 10
612.418640
 20
138.000488
 11
612.418640
 21
194.700485
  0
LINE
  8
0
  6
CENTER
 10
639.793640
 20
172.389999
 11
635.168640
 21
172.389999
  0
LINE
  8
0
  6
CONTINUOUS
 10
635.918640
 20
144.389999
 11
635.918640
 21
142.889999
  0
LINE
  8
0
  6
CONTINUOUS
 10
589.918640
 20
144.389999
 11
589.918640
 21
142.889999
  0
LINE
  8
0
  6
CONTINUOUS
 10
638.293640
 20
182.889999
 11
636.293640
 21
182.889999
  0
LINE
  8
0
  6
CONTINUOUS
 10
638.293640
 20
161.889999
 11
636.293640
 21
161.889999
  0
LINE
  8
0
  6
CONTINUOUS
 10
518.418640
 20
442.947937
 11
518.418640
 21
456.947937
  0
TEXT
  8
0
 10
0.000000
 20
0.000000
 40
4.000000
 41
1.000000
  1
HLM-32L-600~900-T90WK
 50
0.000000
  0
ENDSEC
  0
EOF
