  0
SECTION
  2
HEADER
  9
$CLAYER
  8
1
  9
$LTSCALE
 40
3.0
  0
ENDSEC
  0
SECTION
  2
TABLES
  0
TABLE
  2
LTYPE
 70
     4
  0
LTYPE
  2
CONTINUOUS
  3
solid line
 70
    64
 72
    65
 73
     0
 40
0.0
  0
LTYPE
  2
DASHED
  3
__ __ __ __ __ __ __ __ __ __ __ __ __ __ __
 70
    64
 72
    65
 73
     2
 40
0.75
 49
0.5
 49
-0.25
  0
LTYPE
  2
CENTER
  3
____ _ ____ _ ____ _ ____ _ ____ _ ____ _ ____
 70
    64
 72
    65
 73
     4
 40
2.0
 49
1.25
 49
-0.25
 49
0.25
 49
-0.25
  0
LTYPE
  2
PHANTOM
  3
_____ _ _ _____ _ _ _____ _ _ _____ _ _ ____
 70
    64
 72
    65
 73
     6
 40
2.5
 49
1.25
 49
-0.25
 49
0.25
 49
-0.25
 49
0.25
 49
-0.25
  0
ENDTAB
  0
TABLE
  2
LAYER
 70
     1
  0
LAYER
  2
0
 70
    64
 62
     7
  6
CONTINUOUS
  0
ENDTAB
  0
TABLE
  2
STYLE
 70
     1
  0
STYLE
  2
STANDARD
 70
     0
 40
0.000000
 41
1.000000
 50
0.000000
 71
     0
 42
3.000000
  3
txt
  4
BIGFONT
  0
ENDTAB
  0
ENDSEC
  0
SECTION
  2
BLOCKS
  0
ENDSEC
  0
SECTION
  2
ENTITIES
  0
LINE
  8
0
  6
CENTER
 10
285.554871
 20
493.117493
 11
285.554871
 21
266.782501
  0
LINE
  8
0
  6
CONTINUOUS
 10
361.555084
 20
398.569183
 11
360.769592
 21
443.569183
  0
LINE
  8
0
  6
CONTINUOUS
 10
227.104828
 20
473.569183
 11
285.554871
 21
473.569183
  0
LINE
  8
0
  6
CONTINUOUS
 10
351.498474
 20
468.370392
 11
360.769592
 21
443.569183
  0
ARC
  8
0
  6
CONTINUOUS
 10
344.004944
 20
465.569183
 40
8.000000
 50
20.496618
 51
90.000000
  0
LINE
  8
0
  6
CONTINUOUS
 10
361.555084
 20
398.569183
 11
360.769592
 21
353.569183
  0
LINE
  8
0
  6
CONTINUOUS
 10
227.104828
 20
323.569183
 11
269.554871
 21
323.569183
  0
LINE
  8
0
  6
CONTINUOUS
 10
351.498474
 20
328.767975
 11
360.769592
 21
353.569183
  0
ARC
  8
0
  6
CONTINUOUS
 10
344.004944
 20
331.569183
 40
8.000000
 50
-90.000000
 51
-20.496618
  0
LINE
  8
0
  6
CONTINUOUS
 10
219.611282
 20
468.370392
 11
210.556503
 21
444.147919
  0
ARC
  8
0
  6
CONTINUOUS
 10
227.104828
 20
465.569183
 40
8.000000
 50
90.000000
 51
159.503387
  0
LINE
  8
0
  6
CONTINUOUS
 10
219.611282
 20
328.767975
 11
210.556503
 21
352.990448
  0
ARC
  8
0
  6
CONTINUOUS
 10
227.104828
 20
331.569183
 40
8.000000
 50
200.496613
 51
270.000000
  0
LINE
  8
0
  6
CONTINUOUS
 10
212.891510
 20
443.569183
 11
357.821503
 21
443.569183
  0
LINE
  8
0
  6
CONTINUOUS
 10
357.821503
 20
353.569183
 11
212.891510
 21
353.569183
  0
LINE
  8
0
  6
CONTINUOUS
 10
285.554871
 20
460.569183
 11
320.813690
 21
460.569183
  0
ARC
  8
0
  6
CONTINUOUS
 10
357.821503
 20
440.569183
 40
3.000000
 50
1.000000
 51
90.000000
  0
ARC
  8
0
  6
CONTINUOUS
 10
357.821503
 20
356.569183
 40
3.000000
 50
270.000000
 51
359.000000
  0
LINE
  8
0
  6
CONTINUOUS
 10
314.554871
 20
440.569183
 11
314.554871
 21
356.569183
  0
LINE
  8
0
  6
CONTINUOUS
 10
256.554871
 20
440.569183
 11
256.554871
 21
356.569183
  0
LINE
  8
0
  6
CONTINUOUS
 10
197.554886
 20
462.569183
 11
197.554886
 21
334.569183
  0
LINE
  8
0
  6
CONTINUOUS
 10
200.127213
 20
462.569183
 11
197.554886
 21
462.569183
  0
LINE
  8
0
  6
CONTINUOUS
 10
325.610535
 20
456.980011
 11
326.613708
 21
453.569183
  0
ARC
  8
0
  6
CONTINUOUS
 10
320.813690
 20
455.569183
 40
5.000000
 50
16.389540
 51
90.000000
  0
LINE
  8
0
  6
CONTINUOUS
 10
341.101013
 20
449.961792
 11
341.908752
 21
447.176544
  0
LINE
  8
0
  6
CONTINUOUS
 10
336.298889
 20
453.569183
 11
326.613708
 21
453.569183
  0
LINE
  8
0
  6
CONTINUOUS
 10
285.554871
 20
460.569183
 11
250.296066
 21
460.569183
  0
LINE
  8
0
  6
CONTINUOUS
 10
285.554871
 20
336.569183
 11
320.813690
 21
336.569183
  0
LINE
  8
0
  6
CONTINUOUS
 10
285.554871
 20
336.569183
 11
250.296066
 21
336.569183
  0
LINE
  8
0
  6
CONTINUOUS
 10
285.554871
 20
473.569183
 11
344.004944
 21
473.569183
  0
LINE
  8
0
  6
CONTINUOUS
 10
304.554871
 20
278.569183
 11
269.554871
 21
278.569183
  0
LINE
  8
0
  6
CONTINUOUS
 10
269.554871
 20
333.569183
 11
269.554871
 21
278.569183
  0
LINE
  8
0
  6
CONTINUOUS
 10
301.554871
 20
333.569183
 11
301.554871
 21
328.569183
  0
LINE
  8
0
  6
CONTINUOUS
 10
268.054871
 20
333.569183
 11
303.054871
 21
333.569183
  0
LINE
  8
0
  6
CONTINUOUS
 10
268.054871
 20
336.569183
 11
268.054871
 21
333.569183
  0
LINE
  8
0
  6
CONTINUOUS
 10
303.054871
 20
336.569183
 11
303.054871
 21
333.569183
  0
LINE
  8
0
  6
CONTINUOUS
 10
304.554871
 20
278.569183
 11
304.554871
 21
328.569183
  0
LINE
  8
0
  6
CONTINUOUS
 10
300.753571
 20
328.569183
 11
304.554871
 21
328.569183
  0
LINE
  8
0
  6
CONTINUOUS
 10
300.753571
 20
328.569183
 11
300.753571
 21
278.569183
  0
LINE
  8
0
  6
CONTINUOUS
 10
304.554871
 20
323.569183
 11
344.004944
 21
323.569183
  0
LINE
  8
0
  6
CENTER
 10
323.178558
 20
458.569183
 11
342.116058
 21
458.569183
  0
LINE
  8
0
  6
CENTER
 10
333.054871
 20
449.416840
 11
333.054871
 21
468.916840
  0
ARC
  8
0
  6
CONTINUOUS
 10
333.054871
 20
458.569183
 40
6.500000
 50
-51.240688
 51
230.284866
  0
ARC
  8
0
  6
CONTINUOUS
 10
238.054886
 20
458.569183
 40
6.500000
 50
-50.284863
 51
231.240692
  0
LINE
  8
0
  6
CENTER
 10
238.054886
 20
449.416840
 11
238.054886
 21
468.916840
  0
LINE
  8
0
  6
CENTER
 10
247.931198
 20
458.569183
 11
228.993698
 21
458.569183
  0
LINE
  8
0
  6
CENTER
 10
-13.504844
 20
398.569183
 11
372.975891
 21
398.569183
  0
LINE
  8
0
  6
CONTINUOUS
 10
204.956848
 20
458.863281
 11
208.061890
 21
447.275085
  0
ARC
  8
0
  6
CONTINUOUS
 10
212.891510
 20
448.569183
 40
5.000000
 50
195.000000
 51
270.000000
  0
ARC
  8
0
  6
CONTINUOUS
 10
200.127213
 20
457.569183
 40
5.000000
 50
15.000000
 51
90.000000
  0
LINE
  8
0
  6
CONTINUOUS
 10
200.127213
 20
334.569183
 11
197.554886
 21
334.569183
  0
LINE
  8
0
  6
CONTINUOUS
 10
204.956848
 20
338.275085
 11
208.061890
 21
349.863281
  0
ARC
  8
0
  6
CONTINUOUS
 10
200.127213
 20
339.569183
 40
5.000000
 50
-90.000000
 51
-15.000000
  0
ARC
  8
0
  6
CONTINUOUS
 10
212.891510
 20
348.569183
 40
5.000000
 50
-270.000000
 51
-195.000000
  0
LINE
  8
0
  6
CONTINUOUS
 10
209.554688
 20
398.569183
 11
210.288712
 21
440.621552
  0
LINE
  8
0
  6
CONTINUOUS
 10
209.554688
 20
398.569183
 11
210.288712
 21
356.516815
  0
ARC
  8
0
  6
CONTINUOUS
 10
213.288254
 20
440.569183
 40
3.000000
 50
90.000000
 51
179.000000
  0
ARC
  8
0
  6
CONTINUOUS
 10
213.288254
 20
356.569183
 40
3.000000
 50
-179.000000
 51
-90.000000
  0
ARC
  8
0
  6
CONTINUOUS
 10
336.298889
 20
448.569183
 40
5.000000
 50
16.172159
 51
90.000000
  0
ARC
  8
0
  6
CONTINUOUS
 10
346.710876
 20
448.569183
 40
5.000000
 50
196.172165
 51
270.000000
  0
LINE
  8
0
  6
CONTINUOUS
 10
342.954895
 20
443.569183
 11
342.958099
 21
443.558105
  0
ARC
  8
0
  6
CONTINUOUS
 10
250.296066
 20
455.569183
 40
5.000000
 50
90.000000
 51
163.610458
  0
LINE
  8
0
  6
CONTINUOUS
 10
245.499237
 20
456.980011
 11
244.496063
 21
453.569183
  0
LINE
  8
0
  6
CONTINUOUS
 10
230.008743
 20
449.961792
 11
229.201019
 21
447.176544
  0
LINE
  8
0
  6
CONTINUOUS
 10
234.810883
 20
453.569183
 11
244.496063
 21
453.569183
  0
ARC
  8
0
  6
CONTINUOUS
 10
234.810883
 20
448.569183
 40
5.000000
 50
90.000000
 51
163.827835
  0
ARC
  8
0
  6
CONTINUOUS
 10
224.398880
 20
448.569183
 40
5.000000
 50
-90.000000
 51
-16.172159
  0
LINE
  8
0
  6
CONTINUOUS
 10
228.154877
 20
443.569183
 11
228.151672
 21
443.558105
  0
ARC
  8
0
  6
CONTINUOUS
 10
238.054886
 20
338.569183
 40
6.500000
 50
-231.240692
 51
50.284863
  0
LINE
  8
0
  6
CENTER
 10
247.931198
 20
338.569183
 11
228.993698
 21
338.569183
  0
ARC
  8
0
  6
CONTINUOUS
 10
250.296066
 20
341.569183
 40
5.000000
 50
196.389542
 51
270.000000
  0
LINE
  8
0
  6
CONTINUOUS
 10
245.499237
 20
340.158356
 11
244.496063
 21
343.569183
  0
LINE
  8
0
  6
CONTINUOUS
 10
230.008743
 20
347.176544
 11
229.201019
 21
349.961792
  0
LINE
  8
0
  6
CONTINUOUS
 10
234.810883
 20
343.569183
 11
244.496063
 21
343.569183
  0
ARC
  8
0
  6
CONTINUOUS
 10
234.810883
 20
348.569183
 40
5.000000
 50
-163.827835
 51
-90.000000
  0
ARC
  8
0
  6
CONTINUOUS
 10
224.398880
 20
348.569183
 40
5.000000
 50
16.172159
 51
90.000000
  0
LINE
  8
0
  6
CONTINUOUS
 10
228.154877
 20
353.569183
 11
228.151672
 21
353.580261
  0
LINE
  8
0
  6
CENTER
 10
238.054886
 20
347.721527
 11
238.054886
 21
328.221527
  0
LINE
  8
0
  6
CONTINUOUS
 10
325.610535
 20
340.158356
 11
326.613708
 21
343.569183
  0
ARC
  8
0
  6
CONTINUOUS
 10
320.813690
 20
341.569183
 40
5.000000
 50
-90.000000
 51
-16.389540
  0
LINE
  8
0
  6
CONTINUOUS
 10
341.101013
 20
347.176544
 11
341.908752
 21
349.961792
  0
LINE
  8
0
  6
CONTINUOUS
 10
336.298889
 20
343.569183
 11
326.613708
 21
343.569183
  0
LINE
  8
0
  6
CENTER
 10
323.178558
 20
338.569183
 11
342.116058
 21
338.569183
  0
LINE
  8
0
  6
CENTER
 10
333.054871
 20
347.721527
 11
333.054871
 21
328.221527
  0
ARC
  8
0
  6
CONTINUOUS
 10
333.054871
 20
338.569183
 40
6.500000
 50
-230.284866
 51
51.240688
  0
ARC
  8
0
  6
CONTINUOUS
 10
336.298889
 20
348.569183
 40
5.000000
 50
-90.000000
 51
-16.172159
  0
ARC
  8
0
  6
CONTINUOUS
 10
346.710876
 20
348.569183
 40
5.000000
 50
-270.000000
 51
-196.172165
  0
LINE
  8
0
  6
CONTINUOUS
 10
342.954895
 20
353.569183
 11
342.958099
 21
353.580261
  0
LINE
  8
0
  6
CENTER
 10
285.554871
 20
219.382507
 11
285.554871
 21
-10.121630
  0
LINE
  8
0
  6
CENTER
 10
221.670288
 20
140.511246
 11
338.239868
 21
140.511246
  0
LINE
  8
0
  6
CENTER
 10
333.054871
 20
25.786690
 11
333.054871
 21
-8.078050
  0
LINE
  8
0
  6
CENTER
 10
238.054886
 20
25.786690
 11
238.054886
 21
-8.369990
  0
LINE
  8
0
  6
CONTINUOUS
 10
209.554886
 20
0.511250
 11
361.554871
 21
0.511250
  0
LINE
  8
0
  6
CONTINUOUS
 10
209.554886
 20
18.511250
 11
361.554871
 21
18.511250
  0
LINE
  8
0
  6
CONTINUOUS
 10
361.554871
 20
168.816803
 11
361.554871
 21
0.511250
  0
LINE
  8
0
  6
CONTINUOUS
 10
209.554886
 20
164.011246
 11
209.554886
 21
168.816803
  0
LINE
  8
0
  6
CONTINUOUS
 10
259.051483
 20
205.511246
 11
312.058289
 21
205.511246
  0
LINE
  8
0
  6
CONTINUOUS
 10
204.554886
 20
159.511246
 11
197.554886
 21
159.511246
  0
LINE
  8
0
  6
CONTINUOUS
 10
204.554886
 20
31.511250
 11
197.554886
 21
31.511250
  0
LINE
  8
0
  6
CONTINUOUS
 10
358.104889
 20
175.396866
 11
316.608276
 21
204.091309
  0
LINE
  8
0
  6
CONTINUOUS
 10
213.004837
 20
175.396866
 11
254.501480
 21
204.091309
  0
ARC
  8
0
  6
CONTINUOUS
 10
312.058289
 20
197.511246
 40
8.000000
 50
55.336689
 51
90.000000
  0
ARC
  8
0
  6
CONTINUOUS
 10
353.554871
 20
168.816772
 40
8.000000
 50
0.000000
 51
55.336739
  0
ARC
  8
0
  6
CONTINUOUS
 10
259.051483
 20
197.511246
 40
8.000000
 50
90.000000
 51
124.663696
  0
ARC
  8
0
  6
CONTINUOUS
 10
217.554886
 20
168.816849
 40
8.000000
 50
124.663803
 51
180.000000
  0
LINE
  8
0
  6
CONTINUOUS
 10
209.554886
 20
27.011250
 11
209.554886
 21
0.511250
  0
ARC
  8
0
  6
CONTINUOUS
 10
204.554855
 20
164.511246
 40
5.000000
 50
-90.000000
 51
0.000000
  0
LINE
  8
0
  6
CONTINUOUS
 10
209.554886
 20
27.011250
 11
209.554886
 21
164.011246
  0
ARC
  8
0
  6
CONTINUOUS
 10
204.554901
 20
26.511230
 40
5.000000
 50
0.000000
 51
90.000000
  0
LINE
  8
0
  6
DASHED
 10
231.554886
 20
18.511250
 11
231.554886
 21
0.511250
  0
LINE
  8
0
  6
DASHED
 10
244.554886
 20
18.511250
 11
244.554886
 21
0.511250
  0
LINE
  8
0
  6
DASHED
 10
326.554871
 20
18.511250
 11
326.554871
 21
0.511250
  0
LINE
  8
0
  6
DASHED
 10
339.554871
 20
18.511250
 11
339.554871
 21
0.511250
  0
CIRCLE
  8
0
  6
CONTINUOUS
 10
285.554871
 20
140.511246
 40
39.000000
  0
ARC
  8
0
  6
CONTINUOUS
 10
285.554871
 20
140.511246
 40
44.000000
 50
12.523240
 51
167.476898
  0
ARC
  8
0
  6
CONTINUOUS
 10
260.054871
 20
81.511253
 40
29.000000
 50
167.476898
 51
270.000000
  0
ARC
  8
0
  6
CONTINUOUS
 10
311.054871
 20
81.511253
 40
29.000000
 50
-90.000000
 51
12.523240
  0
ARC
  8
0
  6
CONTINUOUS
 10
260.054871
 20
81.511253
 40
31.900000
 50
167.476898
 51
270.000000
  0
ARC
  8
0
  6
CONTINUOUS
 10
311.054871
 20
81.511253
 40
31.900000
 50
-90.000000
 51
12.523240
  0
ARC
  8
0
  6
CONTINUOUS
 10
285.554871
 20
140.511246
 40
41.099998
 50
-192.523102
 51
12.523240
  0
LINE
  8
0
  6
CONTINUOUS
 10
228.913879
 20
88.428253
 11
242.601685
 21
150.051956
  0
LINE
  8
0
  6
CONTINUOUS
 10
231.744888
 20
87.799438
 11
245.432678
 21
149.423126
  0
LINE
  8
0
  6
CONTINUOUS
 10
260.054871
 20
49.611252
 11
311.054871
 21
49.611252
  0
LINE
  8
0
  6
CONTINUOUS
 10
311.054871
 20
52.511250
 11
260.054871
 21
52.511250
  0
LINE
  8
0
  6
CONTINUOUS
 10
328.508087
 20
150.052032
 11
342.195892
 21
88.428314
  0
LINE
  8
0
  6
CONTINUOUS
 10
325.677094
 20
149.423203
 11
339.364868
 21
87.799492
  0
LINE
  8
0
  6
CONTINUOUS
 10
273.327881
 20
64.511253
 11
268.387482
 21
64.511253
  0
LINE
  8
0
  6
CONTINUOUS
 10
276.054871
 20
72.786652
 11
276.054871
 21
64.511253
  0
LINE
  8
0
  6
CONTINUOUS
 10
280.804871
 20
75.792503
 11
280.804871
 21
78.761253
  0
LINE
  8
0
  6
CONTINUOUS
 10
290.304871
 20
75.792503
 11
290.304871
 21
78.761253
  0
LINE
  8
0
  6
CONTINUOUS
 10
284.627075
 20
77.017113
 11
284.627075
 21
66.069847
  0
LINE
  8
0
  6
CONTINUOUS
 10
286.408478
 20
77.017113
 11
286.408478
 21
66.069847
  0
LINE
  8
0
  6
CONTINUOUS
 10
295.760071
 20
77.017113
 11
295.760071
 21
65.995628
  0
LINE
  8
0
  6
CONTINUOUS
 10
297.392883
 20
71.172394
 11
297.392883
 21
65.995628
  0
LINE
  8
0
  6
CONTINUOUS
 10
273.800873
 20
76.868675
 11
269.223297
 21
76.868675
  0
LINE
  8
0
  6
CONTINUOUS
 10
269.223297
 20
76.868675
 11
268.150696
 21
75.538673
  0
LINE
  8
0
  6
CONTINUOUS
 10
268.279694
 20
78.761253
 11
266.554871
 21
76.552788
  0
LINE
  8
0
  6
CONTINUOUS
 10
268.150696
 20
67.329086
 11
269.240479
 21
66.181168
  0
LINE
  8
0
  6
CONTINUOUS
 10
266.554871
 20
66.360367
 11
268.387482
 21
64.511253
  0
LINE
  8
0
  6
CONTINUOUS
 10
266.554871
 20
76.552788
 11
266.554871
 21
66.360367
  0
LINE
  8
0
  6
CONTINUOUS
 10
268.150696
 20
75.538673
 11
268.150696
 21
67.329086
  0
LINE
  8
0
  6
CONTINUOUS
 10
274.681885
 20
76.017113
 11
273.782867
 21
76.868675
  0
LINE
  8
0
  6
CONTINUOUS
 10
274.667694
 20
78.761253
 11
276.054871
 21
77.221664
  0
LINE
  8
0
  6
CONTINUOUS
 10
274.681885
 20
75.792503
 11
276.054871
 21
75.792503
  0
LINE
  8
0
  6
CONTINUOUS
 10
268.279694
 20
78.761253
 11
274.667694
 21
78.761253
  0
LINE
  8
0
  6
CONTINUOUS
 10
272.195496
 20
72.786652
 11
276.054871
 21
72.786652
  0
LINE
  8
0
  6
CONTINUOUS
 10
274.681885
 20
71.228050
 11
272.195496
 21
71.228050
  0
LINE
  8
0
  6
CONTINUOUS
 10
271.713074
 20
66.181168
 11
269.240479
 21
66.181168
  0
LINE
  8
0
  6
CONTINUOUS
 10
274.681885
 20
69.743668
 11
274.681885
 21
70.931168
  0
ARC
  8
0
  6
CONTINUOUS
 10
271.713074
 20
69.149910
 40
2.968750
 50
-89.999786
 51
0.000109
  0
LINE
  8
0
  6
CONTINUOUS
 10
274.681885
 20
65.647171
 11
274.681885
 21
64.511253
  0
LINE
  8
0
  6
CONTINUOUS
 10
276.054871
 20
77.221664
 11
276.054871
 21
75.792503
  0
LINE
  8
0
  6
CONTINUOUS
 10
274.681885
 20
71.228050
 11
274.681885
 21
69.149910
  0
LINE
  8
0
  6
CONTINUOUS
 10
272.195496
 20
72.786652
 11
272.195496
 21
71.228050
  0
LINE
  8
0
  6
CONTINUOUS
 10
274.681885
 20
64.511253
 11
276.054871
 21
64.511253
  0
LINE
  8
0
  6
CONTINUOUS
 10
274.681885
 20
65.647171
 11
273.327881
 21
64.511253
  0
LINE
  8
0
  6
CONTINUOUS
 10
286.408478
 20
66.069847
 11
287.002075
 21
66.069847
  0
LINE
  8
0
  6
CONTINUOUS
 10
283.922089
 20
66.069847
 11
283.922089
 21
64.511253
  0
LINE
  8
0
  6
CONTINUOUS
 10
287.002075
 20
66.069847
 11
287.002075
 21
64.511253
  0
LINE
  8
0
  6
CONTINUOUS
 10
289.313873
 20
75.792503
 11
290.304871
 21
75.792503
  0
LINE
  8
0
  6
CONTINUOUS
 10
280.804871
 20
75.792503
 11
281.859497
 21
75.792503
  0
LINE
  8
0
  6
CONTINUOUS
 10
280.804871
 20
78.761253
 11
290.304871
 21
78.761253
  0
LINE
  8
0
  6
CONTINUOUS
 10
283.922089
 20
64.511253
 11
287.002075
 21
64.511253
  0
LINE
  8
0
  6
CONTINUOUS
 10
283.922089
 20
66.069847
 11
284.627075
 21
66.069847
  0
ARC
  8
0
  6
CONTINUOUS
 10
300.751068
 20
74.957527
 40
3.803712
 50
-73.981873
 51
90.003510
  0
ARC
  8
0
  6
CONTINUOUS
 10
300.751068
 20
74.957527
 40
2.320524
 50
-82.585274
 51
62.411850
  0
LINE
  8
0
  6
CONTINUOUS
 10
295.054871
 20
78.761253
 11
300.751068
 21
78.761253
  0
LINE
  8
0
  6
CONTINUOUS
 10
301.050690
 20
72.656410
 11
297.392883
 21
72.656410
  0
LINE
  8
0
  6
CONTINUOUS
 10
295.054871
 20
78.761253
 11
295.054871
 21
77.017113
  0
LINE
  8
0
  6
CONTINUOUS
 10
297.392883
 20
77.017113
 11
297.392883
 21
72.656410
  0
LINE
  8
0
  6
CONTINUOUS
 10
301.800690
 20
71.301514
 11
304.155090
 21
65.995628
  0
LINE
  8
0
  6
CONTINUOUS
 10
300.433472
 20
71.172394
 11
302.661469
 21
65.995628
  0
LINE
  8
0
  6
CONTINUOUS
 10
295.054871
 20
65.995628
 11
295.760071
 21
65.995628
  0
LINE
  8
0
  6
CONTINUOUS
 10
297.392883
 20
65.995628
 11
298.042267
 21
65.995628
  0
LINE
  8
0
  6
CONTINUOUS
 10
298.042267
 20
64.511253
 11
295.054871
 21
64.511253
  0
LINE
  8
0
  6
CONTINUOUS
 10
302.365479
 20
65.995628
 11
302.661469
 21
65.995628
  0
LINE
  8
0
  6
CONTINUOUS
 10
304.155090
 20
65.995628
 11
304.554871
 21
65.995628
  0
LINE
  8
0
  6
CONTINUOUS
 10
302.365479
 20
64.511253
 11
304.554871
 21
64.511253
  0
LINE
  8
0
  6
CONTINUOUS
 10
304.554871
 20
65.995628
 11
304.554871
 21
64.511253
  0
LINE
  8
0
  6
CONTINUOUS
 10
302.365479
 20
65.995628
 11
302.365479
 21
64.511253
  0
LINE
  8
0
  6
CONTINUOUS
 10
298.042267
 20
65.995628
 11
298.042267
 21
64.511253
  0
LINE
  8
0
  6
CONTINUOUS
 10
295.054871
 20
65.995628
 11
295.054871
 21
64.511253
  0
LINE
  8
0
  6
CONTINUOUS
 10
282.369690
 20
77.017113
 11
281.859497
 21
75.792503
  0
LINE
  8
0
  6
CONTINUOUS
 10
288.883667
 20
77.017113
 11
289.313873
 21
75.792503
  0
LINE
  8
0
  6
CONTINUOUS
 10
286.408478
 20
77.017113
 11
288.883667
 21
77.017113
  0
LINE
  8
0
  6
CONTINUOUS
 10
284.627075
 20
77.017113
 11
282.369690
 21
77.017113
  0
LINE
  8
0
  6
CONTINUOUS
 10
297.392883
 20
71.172394
 11
300.433472
 21
71.172394
  0
LINE
  8
0
  6
CONTINUOUS
 10
295.054871
 20
77.017113
 11
295.760071
 21
77.017113
  0
LINE
  8
0
  6
CONTINUOUS
 10
297.392883
 20
77.017113
 11
301.825897
 21
77.014221
  0
LINE
  8
0
  6
CONTINUOUS
 10
274.681885
 20
76.017113
 11
274.681885
 21
75.792503
  0
ARC
  8
0
  6
CONTINUOUS
 10
389.263672
 20
95.511253
 40
185.208893
 50
166.001907
 51
193.998093
  0
LINE
  8
0
  6
CONTINUOUS
 10
223.554886
 20
16.444691
 11
223.554886
 21
0.511250
  0
LINE
  8
0
  6
CONTINUOUS
 10
347.554871
 20
16.444691
 11
347.554871
 21
0.511250
  0
LINE
  8
0
  6
CONTINUOUS
 10
309.312286
 20
23.511250
 11
261.797485
 21
23.511250
  0
LINE
  8
0
  6
CONTINUOUS
 10
260.554871
 20
22.575371
 11
260.554871
 21
19.511250
  0
LINE
  8
0
  6
CONTINUOUS
 10
311.433472
 20
22.632570
 11
314.090485
 21
19.975710
  0
LINE
  8
0
  6
CONTINUOUS
 10
259.676270
 20
22.632570
 11
257.019470
 21
19.975750
  0
LINE
  8
0
  6
CONTINUOUS
 10
310.554871
 20
22.575371
 11
310.554871
 21
19.511250
  0
ARC
  8
0
  6
CONTINUOUS
 10
253.483887
 20
23.511250
 40
5.000000
 50
270.000000
 51
315.000092
  0
ARC
  8
0
  6
CONTINUOUS
 10
261.797485
 20
20.511250
 40
3.000000
 50
90.000000
 51
135.000305
  0
ARC
  8
0
  6
CONTINUOUS
 10
259.554871
 20
19.511250
 40
1.000000
 50
-90.000000
 51
0.000000
  0
ARC
  8
0
  6
CONTINUOUS
 10
317.625885
 20
23.511250
 40
5.000000
 50
225.000000
 51
270.000000
  0
ARC
  8
0
  6
CONTINUOUS
 10
309.312286
 20
20.511250
 40
3.000000
 50
45.000160
 51
90.000000
  0
ARC
  8
0
  6
CONTINUOUS
 10
311.554871
 20
19.511250
 40
1.000000
 50
180.000000
 51
270.000000
  0
LINE
  8
0
  6
CONTINUOUS
 10
296.554871
 20
135.511292
 11
296.554871
 21
145.511292
  0
LINE
  8
0
  6
CONTINUOUS
 10
304.554871
 20
135.511307
 11
304.554871
 21
145.511307
  0
LINE
  8
0
  6
CONTINUOUS
 10
304.554871
 20
135.511307
 11
296.554871
 21
135.511292
  0
LINE
  8
0
  6
CONTINUOUS
 10
304.554871
 20
145.511307
 11
296.554871
 21
145.511292
  0
ARC
  8
0
  6
CONTINUOUS
 10
285.554871
 20
140.511246
 40
16.000000
 50
18.209900
 51
341.790100
  0
LINE
  8
0
  6
CENTER
 10
566.963745
 20
-14.608750
 11
566.963745
 21
224.122498
  0
LINE
  8
0
  6
CENTER
 10
486.376373
 20
95.511253
 11
643.191345
 21
95.511253
  0
LINE
  8
0
  6
CENTER
 10
432.313751
 20
140.511246
 11
637.661377
 21
140.511246
  0
LINE
  8
0
  6
CENTER
 10
626.963745
 20
27.109989
 11
626.963745
 21
-10.789130
  0
LINE
  8
0
  6
CENTER
 10
506.963745
 20
27.109989
 11
506.963745
 21
-10.789130
  0
LINE
  8
0
  6
CONTINUOUS
 10
491.963745
 20
0.511250
 11
536.963745
 21
0.511250
  0
LINE
  8
0
  6
CONTINUOUS
 10
596.963745
 20
0.511250
 11
641.963745
 21
0.511250
  0
LINE
  8
0
  6
CONTINUOUS
 10
639.463745
 20
18.511250
 11
615.963745
 21
18.511250
  0
LINE
  8
0
  6
CONTINUOUS
 10
494.463745
 20
18.511250
 11
517.963745
 21
18.511250
  0
LINE
  8
0
  6
CONTINUOUS
 10
611.963745
 20
201.778015
 11
611.963745
 21
0.511250
  0
LINE
  8
0
  6
CONTINUOUS
 10
521.963745
 20
188.252457
 11
521.963745
 21
201.777527
  0
LINE
  8
0
  6
CONTINUOUS
 10
641.963745
 20
16.393431
 11
641.963745
 21
0.511250
  0
LINE
  8
0
  6
CONTINUOUS
 10
491.963745
 20
16.393431
 11
491.963745
 21
0.511250
  0
LINE
  8
0
  6
CONTINUOUS
 10
538.463745
 20
2.011250
 11
595.463745
 21
2.011250
  0
LINE
  8
0
  6
CONTINUOUS
 10
609.016174
 20
204.777557
 11
566.963745
 21
205.511246
  0
LINE
  8
0
  6
CONTINUOUS
 10
524.911377
 20
204.777069
 11
566.963745
 21
205.511246
  0
LINE
  8
0
  6
CONTINUOUS
 10
504.963745
 20
105.252441
 11
504.963745
 21
175.770065
  0
LINE
  8
0
  6
CONTINUOUS
 10
628.963745
 20
105.252441
 11
628.963745
 21
175.770065
  0
LINE
  8
0
  6
CONTINUOUS
 10
511.963745
 20
56.267250
 11
511.963745
 21
144.421646
  0
LINE
  8
0
  6
CONTINUOUS
 10
621.963745
 20
56.267269
 11
621.963745
 21
144.421646
  0
LINE
  8
0
  6
DASHED
 10
633.463745
 20
18.511250
 11
633.463745
 21
0.511250
  0
LINE
  8
0
  6
DASHED
 10
620.463745
 20
18.511250
 11
620.463745
 21
0.511250
  0
LINE
  8
0
  6
DASHED
 10
513.463745
 20
18.511250
 11
513.463745
 21
0.511250
  0
LINE
  8
0
  6
DASHED
 10
500.463745
 20
18.511250
 11
500.463745
 21
0.511250
  0
ARC
  8
0
  6
CONTINUOUS
 10
524.963745
 20
201.777527
 40
3.000000
 50
91.000603
 51
180.000000
  0
ARC
  8
0
  6
CONTINUOUS
 10
608.963745
 20
201.777985
 40
3.000000
 50
0.000000
 51
89.000580
  0
LINE
  8
0
  6
CONTINUOUS
 10
518.374573
 20
183.455612
 11
508.552948
 21
180.566864
  0
LINE
  8
0
  6
CONTINUOUS
 10
508.552948
 20
100.455620
 11
509.092346
 21
100.296944
  0
LINE
  8
0
  6
CONTINUOUS
 10
515.571167
 20
51.465111
 11
518.356323
 21
50.657391
  0
LINE
  8
0
  6
CONTINUOUS
 10
494.052765
 20
18.859409
 11
519.456970
 21
23.093451
  0
LINE
  8
0
  6
CONTINUOUS
 10
639.874756
 20
18.859430
 11
614.470520
 21
23.093470
  0
LINE
  8
0
  6
CONTINUOUS
 10
618.356323
 20
51.465111
 11
615.571167
 21
50.657391
  0
LINE
  8
0
  6
CONTINUOUS
 10
625.374573
 20
100.455620
 11
624.835144
 21
100.296936
  0
LINE
  8
0
  6
CONTINUOUS
 10
625.374573
 20
180.566895
 11
615.552979
 21
183.455612
  0
LINE
  8
0
  6
CONTINUOUS
 10
524.538147
 20
173.011246
 11
609.216370
 21
173.011246
  0
ARC
  8
0
  6
CONTINUOUS
 10
509.963745
 20
175.770096
 40
5.000000
 50
106.389900
 51
180.000000
  0
ARC
  8
0
  6
CONTINUOUS
 10
623.963745
 20
175.770050
 40
5.000000
 50
0.000000
 51
73.610527
  0
ARC
  8
0
  6
CONTINUOUS
 10
509.963745
 20
105.252480
 40
5.000000
 50
180.000000
 51
253.610794
  0
ARC
  8
0
  6
CONTINUOUS
 10
623.963745
 20
105.252434
 40
5.000000
 50
-73.610321
 51
0.000000
  0
ARC
  8
0
  6
CONTINUOUS
 10
616.963745
 20
56.267250
 40
5.000000
 50
-73.827698
 51
0.000000
  0
ARC
  8
0
  6
CONTINUOUS
 10
516.963745
 20
56.267288
 40
5.000000
 50
180.000000
 51
253.828201
  0
LINE
  8
0
  6
CONTINUOUS
 10
521.963745
 20
188.252457
 11
521.963745
 21
0.511250
  0
ARC
  8
0
  6
CONTINUOUS
 10
516.963745
 20
188.252426
 40
5.000000
 50
-73.610229
 51
0.000000
  0
ARC
  8
0
  6
CONTINUOUS
 10
507.963745
 20
96.459465
 40
4.000000
 50
0.000000
 51
73.610649
  0
ARC
  8
0
  6
CONTINUOUS
 10
516.963745
 20
45.855228
 40
5.000000
 50
0.000000
 51
73.827919
  0
ARC
  8
0
  6
CONTINUOUS
 10
616.963745
 20
45.855270
 40
5.000000
 50
106.172501
 51
180.000000
  0
ARC
  8
0
  6
CONTINUOUS
 10
625.963745
 20
96.459496
 40
4.000000
 50
106.389999
 51
180.000000
  0
ARC
  8
0
  6
CONTINUOUS
 10
616.963745
 20
188.252472
 40
5.000000
 50
180.000000
 51
253.610794
  0
ARC
  8
0
  6
CONTINUOUS
 10
518.963745
 20
26.052629
 40
3.000000
 50
-80.537483
 51
0.000000
  0
ARC
  8
0
  6
CONTINUOUS
 10
517.963745
 20
22.511209
 40
4.000000
 50
-90.000000
 51
0.000000
  0
ARC
  8
0
  6
CONTINUOUS
 10
494.463745
 20
16.011271
 40
2.500000
 50
90.000000
 51
180.000000
  0
LINE
  8
0
  6
CONTINUOUS
 10
536.963745
 20
0.511250
 11
538.463745
 21
2.011250
  0
LINE
  8
0
  6
CONTINUOUS
 10
596.963745
 20
0.511250
 11
595.463745
 21
2.011250
  0
ARC
  8
0
  6
CONTINUOUS
 10
614.963745
 20
26.052670
 40
3.000000
 50
180.000000
 51
260.537903
  0
ARC
  8
0
  6
CONTINUOUS
 10
615.963745
 20
22.511250
 40
4.000000
 50
180.000000
 51
270.000000
  0
ARC
  8
0
  6
CONTINUOUS
 10
639.463745
 20
16.011250
 40
2.500000
 50
0.000000
 51
90.000000
  0
LINE
  8
0
  6
CONTINUOUS
 10
446.963745
 20
124.511253
 11
446.963745
 21
156.511246
  0
LINE
  8
0
  6
CONTINUOUS
 10
501.963745
 20
156.511246
 11
446.963745
 21
156.511246
  0
LINE
  8
0
  6
CONTINUOUS
 10
501.963745
 20
124.511253
 11
446.963745
 21
124.511253
  0
LINE
  8
0
  6
CONTINUOUS
 10
501.963745
 20
158.011246
 11
501.963745
 21
123.011253
  0
LINE
  8
0
  6
CONTINUOUS
 10
504.963745
 20
158.011246
 11
501.963745
 21
158.011246
  0
LINE
  8
0
  6
CONTINUOUS
 10
504.963745
 20
123.011253
 11
501.963745
 21
123.011253
  0
ARC
  8
0
  6
CONTINUOUS
 10
491.963745
 20
140.511246
 40
5.000000
 50
-90.000000
 51
90.000000
  0
LINE
  8
0
  6
CONTINUOUS
 10
491.963745
 20
145.511246
 11
446.963745
 21
145.511246
  0
LINE
  8
0
  6
CONTINUOUS
 10
491.963745
 20
135.511246
 11
446.963745
 21
135.511246
  0
ARC
  8
0
  6
CONTINUOUS
 10
494.463745
 20
16.393450
 40
2.500000
 50
99.462753
 51
180.000000
  0
ARC
  8
0
  6
CONTINUOUS
 10
639.463745
 20
16.393431
 40
2.500000
 50
0.000000
 51
80.537682
  0
LINE
  8
0
  6
CONTINUOUS
 10
197.554886
 20
159.511246
 11
197.554886
 21
31.511250
  0
ARC
  8
0
  6
CONTINUOUS
 10
566.963745
 20
95.511253
 40
64.000000
 50
165.638489
 51
210.753525
  0
ARC
  8
0
  6
CONTINUOUS
 10
566.963745
 20
95.511253
 40
64.000000
 50
-30.753519
 51
14.361512
  0
ARC
  8
0
  6
CONTINUOUS
 10
525.951538
 20
54.499031
 40
8.000000
 50
211.001404
 51
233.216995
  0
ARC
  8
0
  6
CONTINUOUS
 10
519.963745
 20
46.489910
 40
2.000000
 50
30.947910
 51
53.217121
  0
ARC
  8
0
  6
CONTINUOUS
 10
607.975952
 20
54.499031
 40
8.000000
 50
-53.216999
 51
-31.001400
  0
ARC
  8
0
  6
CONTINUOUS
 10
613.963745
 20
46.489910
 40
2.000000
 50
126.782883
 51
149.052094
  0
LINE
  8
0
  6
CENTER
 10
-14.067969
 20
82.511253
 11
242.441254
 21
82.511253
  0
LINE
  8
0
  6
CENTER
 10
109.360001
 20
95.511253
 11
242.441254
 21
95.511253
  0
LINE
  8
0
  6
CONTINUOUS
 10
189.054886
 20
336.569183
 11
189.054886
 21
460.569183
  0
LINE
  8
0
  6
CONTINUOUS
 10
143.054886
 20
443.569183
 11
186.618500
 21
445.090454
  0
LINE
  8
0
  6
CONTINUOUS
 10
143.054886
 20
353.569183
 11
186.618500
 21
352.047913
  0
LINE
  8
0
  6
CONTINUOUS
 10
143.054886
 20
447.581177
 11
143.054886
 21
349.557190
  0
LINE
  8
0
  6
CONTINUOUS
 10
191.054886
 20
462.569183
 11
197.554886
 21
462.569183
  0
LINE
  8
0
  6
CONTINUOUS
 10
191.054886
 20
334.569183
 11
197.554886
 21
334.569183
  0
LINE
  8
0
  6
CONTINUOUS
 10
181.911880
 20
422.569183
 11
189.026855
 21
422.569183
  0
LINE
  8
0
  6
CONTINUOUS
 10
182.517029
 20
374.569183
 11
189.026855
 21
374.569183
  0
LINE
  8
0
  6
CONTINUOUS
 10
181.911880
 20
420.364685
 11
181.911880
 21
376.652100
  0
LINE
  8
0
  6
CONTINUOUS
 10
134.054886
 20
441.569183
 11
134.054886
 21
427.569183
  0
LINE
  8
0
  6
CONTINUOUS
 10
24.054882
 20
443.569183
 11
143.054886
 21
443.569183
  0
LINE
  8
0
  6
CONTINUOUS
 10
24.054882
 20
353.569183
 11
143.054886
 21
353.569183
  0
LINE
  8
0
  6
CONTINUOUS
 10
24.054882
 20
443.569183
 11
24.054882
 21
423.569153
  0
LINE
  8
0
  6
CONTINUOUS
 10
24.054882
 20
427.569183
 11
134.054886
 21
427.569183
  0
LINE
  8
0
  6
CONTINUOUS
 10
24.054882
 20
369.569183
 11
134.054886
 21
369.569183
  0
ARC
  8
0
  6
CONTINUOUS
 10
136.054886
 20
441.569214
 40
2.000000
 50
90.000000
 51
180.000000
  0
ARC
  8
0
  6
CONTINUOUS
 10
136.054886
 20
355.569183
 40
2.000000
 50
180.000000
 51
270.000000
  0
LINE
  8
0
  6
CONTINUOUS
 10
3.554882
 20
363.569183
 11
3.554882
 21
433.569183
  0
LINE
  8
0
  6
CONTINUOUS
 10
8.096324
 20
443.569183
 11
24.054882
 21
443.569183
  0
LINE
  8
0
  6
CONTINUOUS
 10
4.054882
 20
440.569183
 11
4.054882
 21
356.569183
  0
LINE
  8
0
  6
CONTINUOUS
 10
24.054882
 20
427.569183
 11
5.804882
 21
427.569183
  0
LINE
  8
0
  6
CONTINUOUS
 10
4.632228
 20
441.569153
 11
4.054882
 21
440.569183
  0
ARC
  8
0
  6
CONTINUOUS
 10
8.096340
 20
439.569183
 40
4.000000
 50
90.000000
 51
150.000397
  0
LINE
  8
0
  6
CONTINUOUS
 10
8.096324
 20
353.569183
 11
24.054882
 21
353.569183
  0
LINE
  8
0
  6
CONTINUOUS
 10
24.054882
 20
369.569183
 11
5.804882
 21
369.569183
  0
LINE
  8
0
  6
CONTINUOUS
 10
4.632228
 20
355.569183
 11
4.054882
 21
356.569183
  0
ARC
  8
0
  6
CONTINUOUS
 10
8.096340
 20
357.569153
 40
4.000000
 50
-150.000397
 51
-90.000000
  0
LINE
  8
0
  6
CONTINUOUS
 10
3.554882
 20
433.569183
 11
4.054882
 21
434.069183
  0
LINE
  8
0
  6
CONTINUOUS
 10
3.554882
 20
363.569183
 11
4.054882
 21
363.069183
  0
LINE
  8
0
  6
CONTINUOUS
 10
143.054886
 20
443.569183
 11
143.054886
 21
353.569183
  0
ARC
  8
0
  6
CONTINUOUS
 10
191.054886
 20
460.569183
 40
2.000000
 50
90.000000
 51
180.000000
  0
ARC
  8
0
  6
CONTINUOUS
 10
191.054886
 20
336.569183
 40
2.000000
 50
180.000000
 51
270.000000
  0
ARC
  8
0
  6
CONTINUOUS
 10
186.531250
 20
447.588928
 40
2.500000
 50
272.000000
 51
359.895721
  0
ARC
  8
0
  6
CONTINUOUS
 10
186.531250
 20
349.549438
 40
2.500000
 50
0.104292
 51
88.000000
  0
LINE
  8
0
  6
CONTINUOUS
 10
189.054886
 20
445.175537
 11
189.026855
 21
445.174561
  0
LINE
  8
0
  6
CONTINUOUS
 10
143.554581
 20
448.098633
 11
189.054886
 21
449.687531
  0
LINE
  8
0
  6
CONTINUOUS
 10
143.054886
 20
447.581177
 11
143.554581
 21
448.098633
  0
LINE
  8
0
  6
CONTINUOUS
 10
143.554581
 20
349.039734
 11
189.054886
 21
347.450836
  0
LINE
  8
0
  6
CONTINUOUS
 10
143.054886
 20
349.557190
 11
143.554581
 21
349.039734
  0
LINE
  8
0
  6
CONTINUOUS
 10
24.054882
 20
373.569153
 11
24.054882
 21
353.569183
  0
LINE
  8
0
  6
CONTINUOUS
 10
134.054886
 20
125.511253
 11
134.054886
 21
39.511230
  0
LINE
  8
0
  6
CONTINUOUS
 10
24.054882
 20
127.511253
 11
143.054886
 21
127.511253
  0
LINE
  8
0
  6
CONTINUOUS
 10
24.054882
 20
37.511250
 11
143.054886
 21
37.511250
  0
LINE
  8
0
  6
CONTINUOUS
 10
24.054882
 20
127.511253
 11
24.054882
 21
37.511250
  0
LINE
  8
0
  6
CONTINUOUS
 10
24.054882
 20
116.920547
 11
133.017197
 21
116.920547
  0
LINE
  8
0
  6
CONTINUOUS
 10
24.054882
 20
48.101952
 11
133.017197
 21
48.101952
  0
ARC
  8
0
  6
CONTINUOUS
 10
136.054886
 20
125.511269
 40
2.000000
 50
90.000000
 51
180.000000
  0
ARC
  8
0
  6
CONTINUOUS
 10
136.054886
 20
39.511250
 40
2.000000
 50
180.000000
 51
270.000000
  0
LINE
  8
0
  6
CONTINUOUS
 10
3.554882
 20
47.511250
 11
3.554882
 21
117.511253
  0
LINE
  8
0
  6
CONTINUOUS
 10
8.096324
 20
127.511253
 11
24.054882
 21
127.511253
  0
LINE
  8
0
  6
CONTINUOUS
 10
4.054882
 20
124.511253
 11
4.054882
 21
40.511250
  0
LINE
  8
0
  6
CONTINUOUS
 10
24.054882
 20
116.920547
 11
5.804882
 21
116.920547
  0
LINE
  8
0
  6
CONTINUOUS
 10
4.632228
 20
125.511230
 11
4.054882
 21
124.511253
  0
ARC
  8
0
  6
CONTINUOUS
 10
8.096340
 20
123.511253
 40
4.000000
 50
90.000000
 51
150.000397
  0
LINE
  8
0
  6
CONTINUOUS
 10
8.096324
 20
37.511250
 11
24.054882
 21
37.511250
  0
LINE
  8
0
  6
CONTINUOUS
 10
24.054882
 20
48.101952
 11
5.804882
 21
48.101952
  0
LINE
  8
0
  6
CONTINUOUS
 10
4.632228
 20
39.511250
 11
4.054882
 21
40.511250
  0
ARC
  8
0
  6
CONTINUOUS
 10
8.096340
 20
41.511230
 40
4.000000
 50
-150.000397
 51
-90.000000
  0
LINE
  8
0
  6
CONTINUOUS
 10
3.554882
 20
117.511253
 11
4.054882
 21
118.011253
  0
LINE
  8
0
  6
CONTINUOUS
 10
3.554882
 20
47.511250
 11
4.054882
 21
47.011250
  0
LINE
  8
0
  6
CONTINUOUS
 10
191.054886
 20
159.511353
 11
197.554886
 21
159.511353
  0
LINE
  8
0
  6
CONTINUOUS
 10
191.054886
 20
31.511152
 11
197.554886
 21
31.511152
  0
LINE
  8
0
  6
CONTINUOUS
 10
143.054886
 20
127.511253
 11
189.054886
 21
129.117599
  0
LINE
  8
0
  6
CONTINUOUS
 10
197.554886
 20
35.608067
 11
143.054886
 21
37.511250
  0
ARC
  8
0
  6
CONTINUOUS
 10
191.054901
 20
157.511368
 40
2.000000
 50
90.000000
 51
180.000000
  0
ARC
  8
0
  6
CONTINUOUS
 10
191.054886
 20
33.511150
 40
2.000000
 50
180.260773
 51
270.000000
  0
LINE
  8
0
  6
CONTINUOUS
 10
143.054886
 20
127.511253
 11
143.054886
 21
37.511250
  0
LINE
  8
0
  6
CONTINUOUS
 10
188.322647
 20
135.279022
 11
182.608139
 21
129.564499
  0
LINE
  8
0
  6
CONTINUOUS
 10
143.054886
 20
62.005249
 11
187.054886
 21
62.005249
  0
LINE
  8
0
  6
CONTINUOUS
 10
143.054886
 20
46.992249
 11
197.554886
 21
46.992249
  0
LINE
  8
0
  6
CONTINUOUS
 10
189.622849
 20
54.944248
 11
197.554886
 21
54.944248
  0
LINE
  8
0
  6
CONTINUOUS
 10
189.054886
 20
56.158985
 11
189.054886
 21
157.511368
  0
ARC
  8
0
  6
CONTINUOUS
 10
186.554932
 20
33.490669
 40
2.500000
 50
0.260773
 51
88.000000
  0
ARC
  8
0
  6
CONTINUOUS
 10
186.554886
 20
137.046783
 40
2.500000
 50
-45.000000
 51
0.000000
  0
ARC
  8
0
  6
CONTINUOUS
 10
180.840363
 20
131.332275
 40
2.500000
 50
272.000000
 51
315.000000
  0
LINE
  8
0
  6
CONTINUOUS
 10
15.054882
 20
375.569153
 11
15.054882
 21
421.569153
  0
LINE
  8
0
  6
CONTINUOUS
 10
17.054882
 20
423.569153
 11
15.054882
 21
421.569153
  0
LINE
  8
0
  6
CONTINUOUS
 10
17.054882
 20
423.569153
 11
63.054871
 21
423.569153
  0
LINE
  8
0
  6
CONTINUOUS
 10
57.554882
 20
419.069153
 11
57.554882
 21
423.569153
  0
ARC
  8
0
  6
CONTINUOUS
 10
60.554882
 20
419.069153
 40
3.000000
 50
180.000000
 51
270.000000
  0
LINE
  8
0
  6
CONTINUOUS
 10
60.554882
 20
416.069153
 11
65.054871
 21
416.069153
  0
CIRCLE
  8
0
  6
CONTINUOUS
 10
61.554882
 20
420.069153
 40
2.250000
  0
LINE
  8
0
  6
CONTINUOUS
 10
65.054878
 20
375.569153
 11
65.054871
 21
421.569153
  0
LINE
  8
0
  6
CONTINUOUS
 10
63.054871
 20
423.569153
 11
65.054871
 21
421.569153
  0
LINE
  8
0
  6
CONTINUOUS
 10
63.054874
 20
373.569153
 11
65.054878
 21
375.569153
  0
LINE
  8
0
  6
CONTINUOUS
 10
63.054874
 20
373.569153
 11
17.054882
 21
373.569153
  0
LINE
  8
0
  6
CONTINUOUS
 10
15.054882
 20
375.569153
 11
17.054882
 21
373.569153
  0
LINE
  8
0
  6
CONTINUOUS
 10
19.554882
 20
381.069153
 11
15.054892
 21
381.069153
  0
CIRCLE
  8
0
  6
CONTINUOUS
 10
18.554882
 20
377.069153
 40
2.250000
  0
ARC
  8
0
  6
CONTINUOUS
 10
19.554882
 20
378.069153
 40
3.000000
 50
0.000000
 51
90.000000
  0
LINE
  8
0
  6
CONTINUOUS
 10
22.554882
 20
378.069153
 11
22.554882
 21
373.569153
  0
LINE
  8
0
  6
CENTER
 10
40.054882
 20
366.103394
 11
40.054882
 21
430.235413
  0
LINE
  8
0
  6
CONTINUOUS
 10
16.054888
 20
381.069183
 11
16.054888
 21
416.069183
  0
LINE
  8
0
  6
CONTINUOUS
 10
57.554882
 20
422.569183
 11
22.554901
 21
422.569183
  0
LINE
  8
0
  6
CONTINUOUS
 10
64.054878
 20
416.069183
 11
64.054878
 21
381.069183
  0
LINE
  8
0
  6
CONTINUOUS
 10
22.554882
 20
374.569183
 11
57.554863
 21
374.569183
  0
LINE
  8
0
  6
CONTINUOUS
 10
19.554901
 20
416.069183
 11
15.054902
 21
416.069183
  0
ARC
  8
0
  6
CONTINUOUS
 10
19.554901
 20
419.069183
 40
3.000000
 50
-90.000000
 51
0.000000
  0
LINE
  8
0
  6
CONTINUOUS
 10
22.554901
 20
419.069183
 11
22.554901
 21
423.569183
  0
CIRCLE
  8
0
  6
CONTINUOUS
 10
18.554901
 20
420.069183
 40
2.250000
  0
LINE
  8
0
  6
CONTINUOUS
 10
60.554863
 20
381.069183
 11
65.054863
 21
381.069183
  0
ARC
  8
0
  6
CONTINUOUS
 10
60.554863
 20
378.069183
 40
3.000000
 50
90.000000
 51
180.000000
  0
LINE
  8
0
  6
CONTINUOUS
 10
57.554863
 20
378.069183
 11
57.554863
 21
373.569183
  0
CIRCLE
  8
0
  6
CONTINUOUS
 10
61.554863
 20
377.069183
 40
2.250000
  0
LINE
  8
0
  6
CONTINUOUS
 10
16.554882
 20
129.011246
 11
63.054882
 21
129.011246
  0
LINE
  8
0
  6
CONTINUOUS
 10
65.054863
 20
173.011246
 11
65.054878
 21
131.011246
  0
LINE
  8
0
  6
CONTINUOUS
 10
15.054882
 20
173.011246
 11
15.054882
 21
131.011246
  0
LINE
  8
0
  6
CONTINUOUS
 10
15.054882
 20
141.011246
 11
65.054878
 21
141.011246
  0
LINE
  8
0
  6
CONTINUOUS
 10
63.054882
 20
129.011246
 11
65.054878
 21
131.011246
  0
LINE
  8
0
  6
CONTINUOUS
 10
15.054882
 20
131.011246
 11
17.054882
 21
129.011246
  0
LINE
  8
0
  6
CONTINUOUS
 10
15.054882
 20
131.011246
 11
65.054878
 21
131.011246
  0
LINE
  8
0
  6
CONTINUOUS
 10
15.054882
 20
142.011246
 11
65.054871
 21
142.011246
  0
LINE
  8
0
  6
CONTINUOUS
 10
16.054882
 20
174.011246
 11
64.054863
 21
174.011246
  0
LINE
  8
0
  6
CONTINUOUS
 10
64.054863
 20
174.011246
 11
65.054863
 21
173.011246
  0
LINE
  8
0
  6
CONTINUOUS
 10
16.054882
 20
174.011246
 11
15.054882
 21
173.011246
  0
LINE
  8
0
  6
CONTINUOUS
 10
15.054882
 20
173.011246
 11
65.054863
 21
173.011246
  0
LINE
  8
0
  6
CENTER
 10
40.054882
 20
122.621742
 11
40.054882
 21
179.321747
  0
LINE
  8
0
  6
CENTER
 10
12.679882
 20
157.011246
 11
17.304882
 21
157.011246
  0
LINE
  8
0
  6
CONTINUOUS
 10
16.554882
 20
129.011246
 11
16.554882
 21
127.511253
  0
LINE
  8
0
  6
CONTINUOUS
 10
62.554882
 20
129.011246
 11
62.554882
 21
127.511253
  0
LINE
  8
0
  6
CONTINUOUS
 10
14.179882
 20
167.511246
 11
16.179882
 21
167.511246
  0
LINE
  8
0
  6
CONTINUOUS
 10
14.179882
 20
146.511246
 11
16.179882
 21
146.511246
  0
LINE
  8
0
  6
CONTINUOUS
 10
134.054886
 20
369.569183
 11
134.054886
 21
355.569153
  0
TEXT
  8
0
 10
-14.000000
 20
-14.000000
 40
4.000000
 41
1.000000
  1
HLM-32R-1200~1800-S40K
 50
0.000000
  0
ENDSEC
  0
EOF
