  0
SECTION
  2
HEADER
  9
$CLAYER
  8
1
  9
$LTSCALE
 40
3.0
  0
ENDSEC
  0
SECTION
  2
TABLES
  0
TABLE
  2
LTYPE
 70
     4
  0
LTYPE
  2
CONTINUOUS
  3
solid line
 70
    64
 72
    65
 73
     0
 40
0.0
  0
LTYPE
  2
DASHED
  3
__ __ __ __ __ __ __ __ __ __ __ __ __ __ __
 70
    64
 72
    65
 73
     2
 40
0.75
 49
0.5
 49
-0.25
  0
LTYPE
  2
CENTER
  3
____ _ ____ _ ____ _ ____ _ ____ _ ____ _ ____
 70
    64
 72
    65
 73
     4
 40
2.0
 49
1.25
 49
-0.25
 49
0.25
 49
-0.25
  0
LTYPE
  2
PHANTOM
  3
_____ _ _ _____ _ _ _____ _ _ _____ _ _ ____
 70
    64
 72
    65
 73
     6
 40
2.5
 49
1.25
 49
-0.25
 49
0.25
 49
-0.25
 49
0.25
 49
-0.25
  0
ENDTAB
  0
TABLE
  2
LAYER
 70
     1
  0
LAYER
  2
0
 70
    64
 62
     7
  6
CONTINUOUS
  0
ENDTAB
  0
TABLE
  2
STYLE
 70
     1
  0
STYLE
  2
STANDARD
 70
     0
 40
0.000000
 41
1.000000
 50
0.000000
 71
     0
 42
3.000000
  3
txt
  4
BIGFONT
  0
ENDTAB
  0
ENDSEC
  0
SECTION
  2
BLOCKS
  0
ENDSEC
  0
SECTION
  2
ENTITIES
  0
LINE
  8
0
  6
CENTER
 10
280.428619
 20
499.952515
 11
280.428619
 21
273.617493
  0
LINE
  8
0
  6
CONTINUOUS
 10
356.428833
 20
405.404175
 11
355.643341
 21
450.404175
  0
LINE
  8
0
  6
CONTINUOUS
 10
221.978577
 20
480.404175
 11
280.428619
 21
480.404175
  0
LINE
  8
0
  6
CONTINUOUS
 10
346.372223
 20
475.205383
 11
355.643341
 21
450.404175
  0
ARC
  8
0
  6
CONTINUOUS
 10
338.878693
 20
472.404175
 40
8.000000
 50
20.496618
 51
90.000000
  0
LINE
  8
0
  6
CONTINUOUS
 10
356.428833
 20
405.404175
 11
355.643341
 21
360.404175
  0
LINE
  8
0
  6
CONTINUOUS
 10
221.978577
 20
330.404175
 11
264.428619
 21
330.404175
  0
LINE
  8
0
  6
CONTINUOUS
 10
346.372223
 20
335.602966
 11
355.643341
 21
360.404175
  0
ARC
  8
0
  6
CONTINUOUS
 10
338.878693
 20
338.404175
 40
8.000000
 50
-90.000000
 51
-20.496618
  0
LINE
  8
0
  6
CONTINUOUS
 10
214.485031
 20
475.205383
 11
205.430252
 21
450.982910
  0
ARC
  8
0
  6
CONTINUOUS
 10
221.978577
 20
472.404175
 40
8.000000
 50
90.000000
 51
159.503387
  0
LINE
  8
0
  6
CONTINUOUS
 10
214.485031
 20
335.602966
 11
205.430252
 21
359.825470
  0
ARC
  8
0
  6
CONTINUOUS
 10
221.978577
 20
338.404175
 40
8.000000
 50
200.496613
 51
270.000000
  0
LINE
  8
0
  6
CONTINUOUS
 10
207.765259
 20
450.404175
 11
352.695251
 21
450.404175
  0
LINE
  8
0
  6
CONTINUOUS
 10
352.695251
 20
360.404175
 11
207.765259
 21
360.404175
  0
LINE
  8
0
  6
CONTINUOUS
 10
280.428619
 20
467.404175
 11
315.687439
 21
467.404175
  0
ARC
  8
0
  6
CONTINUOUS
 10
352.695251
 20
447.404175
 40
3.000000
 50
1.000000
 51
90.000000
  0
ARC
  8
0
  6
CONTINUOUS
 10
352.695251
 20
363.404175
 40
3.000000
 50
270.000000
 51
359.000000
  0
LINE
  8
0
  6
CONTINUOUS
 10
309.428619
 20
447.404175
 11
309.428619
 21
363.404175
  0
LINE
  8
0
  6
CONTINUOUS
 10
251.428635
 20
447.404175
 11
251.428635
 21
363.404175
  0
LINE
  8
0
  6
CONTINUOUS
 10
192.428635
 20
469.404175
 11
192.428635
 21
341.404175
  0
LINE
  8
0
  6
CONTINUOUS
 10
195.000961
 20
469.404175
 11
192.428635
 21
469.404175
  0
LINE
  8
0
  6
CONTINUOUS
 10
320.484283
 20
463.815002
 11
321.487457
 21
460.404175
  0
ARC
  8
0
  6
CONTINUOUS
 10
315.687439
 20
462.404175
 40
5.000000
 50
16.389540
 51
90.000000
  0
LINE
  8
0
  6
CONTINUOUS
 10
335.974762
 20
456.796814
 11
336.782501
 21
454.011566
  0
LINE
  8
0
  6
CONTINUOUS
 10
331.172638
 20
460.404175
 11
321.487457
 21
460.404175
  0
LINE
  8
0
  6
CONTINUOUS
 10
280.428619
 20
467.404175
 11
245.169815
 21
467.404175
  0
LINE
  8
0
  6
CONTINUOUS
 10
280.428619
 20
343.404175
 11
315.687439
 21
343.404175
  0
LINE
  8
0
  6
CONTINUOUS
 10
280.428619
 20
343.404175
 11
245.169815
 21
343.404175
  0
LINE
  8
0
  6
CONTINUOUS
 10
280.428619
 20
480.404175
 11
338.878693
 21
480.404175
  0
LINE
  8
0
  6
CONTINUOUS
 10
299.428619
 20
285.404175
 11
264.428619
 21
285.404175
  0
LINE
  8
0
  6
CONTINUOUS
 10
264.428619
 20
340.404175
 11
264.428619
 21
285.404175
  0
LINE
  8
0
  6
CONTINUOUS
 10
296.428619
 20
340.404175
 11
296.428619
 21
335.404175
  0
LINE
  8
0
  6
CONTINUOUS
 10
262.928619
 20
340.404175
 11
297.928619
 21
340.404175
  0
LINE
  8
0
  6
CONTINUOUS
 10
262.928619
 20
343.404175
 11
262.928619
 21
340.404175
  0
LINE
  8
0
  6
CONTINUOUS
 10
297.928619
 20
343.404175
 11
297.928619
 21
340.404175
  0
LINE
  8
0
  6
CONTINUOUS
 10
299.428619
 20
285.404175
 11
299.428619
 21
335.404175
  0
LINE
  8
0
  6
CONTINUOUS
 10
295.627319
 20
335.404175
 11
299.428619
 21
335.404175
  0
LINE
  8
0
  6
CONTINUOUS
 10
295.627319
 20
335.404175
 11
295.627319
 21
285.404175
  0
LINE
  8
0
  6
CONTINUOUS
 10
299.428619
 20
330.404175
 11
338.878693
 21
330.404175
  0
LINE
  8
0
  6
CENTER
 10
318.052307
 20
465.404175
 11
336.989807
 21
465.404175
  0
LINE
  8
0
  6
CENTER
 10
327.928619
 20
456.251831
 11
327.928619
 21
475.751831
  0
ARC
  8
0
  6
CONTINUOUS
 10
327.928619
 20
465.404175
 40
6.500000
 50
-51.240688
 51
230.284866
  0
ARC
  8
0
  6
CONTINUOUS
 10
232.928635
 20
465.404175
 40
6.500000
 50
-50.284863
 51
231.240692
  0
LINE
  8
0
  6
CENTER
 10
232.928635
 20
456.251831
 11
232.928635
 21
475.751831
  0
LINE
  8
0
  6
CENTER
 10
242.804962
 20
465.404175
 11
223.867462
 21
465.404175
  0
LINE
  8
0
  6
CENTER
 10
-18.631094
 20
405.404175
 11
367.849640
 21
405.404175
  0
LINE
  8
0
  6
CONTINUOUS
 10
199.830597
 20
465.698273
 11
202.935638
 21
454.110077
  0
ARC
  8
0
  6
CONTINUOUS
 10
207.765259
 20
455.404175
 40
5.000000
 50
195.000000
 51
270.000000
  0
ARC
  8
0
  6
CONTINUOUS
 10
195.000961
 20
464.404175
 40
5.000000
 50
15.000000
 51
90.000000
  0
LINE
  8
0
  6
CONTINUOUS
 10
195.000961
 20
341.404175
 11
192.428635
 21
341.404175
  0
LINE
  8
0
  6
CONTINUOUS
 10
199.830597
 20
345.110077
 11
202.935638
 21
356.698273
  0
ARC
  8
0
  6
CONTINUOUS
 10
195.000961
 20
346.404175
 40
5.000000
 50
-90.000000
 51
-15.000000
  0
ARC
  8
0
  6
CONTINUOUS
 10
207.765259
 20
355.404175
 40
5.000000
 50
-270.000000
 51
-195.000000
  0
LINE
  8
0
  6
CONTINUOUS
 10
204.428436
 20
405.404175
 11
205.162460
 21
447.456543
  0
LINE
  8
0
  6
CONTINUOUS
 10
204.428436
 20
405.404175
 11
205.162460
 21
363.351837
  0
ARC
  8
0
  6
CONTINUOUS
 10
208.162003
 20
447.404175
 40
3.000000
 50
90.000000
 51
179.000000
  0
ARC
  8
0
  6
CONTINUOUS
 10
208.162003
 20
363.404175
 40
3.000000
 50
-179.000000
 51
-90.000000
  0
ARC
  8
0
  6
CONTINUOUS
 10
331.172638
 20
455.404175
 40
5.000000
 50
16.172159
 51
90.000000
  0
ARC
  8
0
  6
CONTINUOUS
 10
341.584625
 20
455.404175
 40
5.000000
 50
196.172165
 51
270.000000
  0
LINE
  8
0
  6
CONTINUOUS
 10
337.828644
 20
450.404175
 11
337.831848
 21
450.393097
  0
ARC
  8
0
  6
CONTINUOUS
 10
245.169815
 20
462.404175
 40
5.000000
 50
90.000000
 51
163.610458
  0
LINE
  8
0
  6
CONTINUOUS
 10
240.373001
 20
463.815002
 11
239.369812
 21
460.404175
  0
LINE
  8
0
  6
CONTINUOUS
 10
224.882492
 20
456.796814
 11
224.074768
 21
454.011566
  0
LINE
  8
0
  6
CONTINUOUS
 10
229.684631
 20
460.404175
 11
239.369812
 21
460.404175
  0
ARC
  8
0
  6
CONTINUOUS
 10
229.684631
 20
455.404175
 40
5.000000
 50
90.000000
 51
163.827835
  0
ARC
  8
0
  6
CONTINUOUS
 10
219.272629
 20
455.404175
 40
5.000000
 50
-90.000000
 51
-16.172159
  0
LINE
  8
0
  6
CONTINUOUS
 10
223.028625
 20
450.404175
 11
223.025421
 21
450.393097
  0
ARC
  8
0
  6
CONTINUOUS
 10
232.928635
 20
345.404175
 40
6.500000
 50
-231.240692
 51
50.284863
  0
LINE
  8
0
  6
CENTER
 10
242.804962
 20
345.404175
 11
223.867462
 21
345.404175
  0
ARC
  8
0
  6
CONTINUOUS
 10
245.169815
 20
348.404175
 40
5.000000
 50
196.389542
 51
270.000000
  0
LINE
  8
0
  6
CONTINUOUS
 10
240.373001
 20
346.993347
 11
239.369812
 21
350.404175
  0
LINE
  8
0
  6
CONTINUOUS
 10
224.882492
 20
354.011566
 11
224.074768
 21
356.796814
  0
LINE
  8
0
  6
CONTINUOUS
 10
229.684631
 20
350.404175
 11
239.369812
 21
350.404175
  0
ARC
  8
0
  6
CONTINUOUS
 10
229.684631
 20
355.404175
 40
5.000000
 50
-163.827835
 51
-90.000000
  0
ARC
  8
0
  6
CONTINUOUS
 10
219.272629
 20
355.404175
 40
5.000000
 50
16.172159
 51
90.000000
  0
LINE
  8
0
  6
CONTINUOUS
 10
223.028625
 20
360.404175
 11
223.025421
 21
360.415283
  0
LINE
  8
0
  6
CENTER
 10
232.928635
 20
354.556519
 11
232.928635
 21
335.056519
  0
LINE
  8
0
  6
CONTINUOUS
 10
320.484283
 20
346.993347
 11
321.487457
 21
350.404175
  0
ARC
  8
0
  6
CONTINUOUS
 10
315.687439
 20
348.404175
 40
5.000000
 50
-90.000000
 51
-16.389540
  0
LINE
  8
0
  6
CONTINUOUS
 10
335.974762
 20
354.011566
 11
336.782501
 21
356.796814
  0
LINE
  8
0
  6
CONTINUOUS
 10
331.172638
 20
350.404175
 11
321.487457
 21
350.404175
  0
LINE
  8
0
  6
CENTER
 10
318.052307
 20
345.404175
 11
336.989807
 21
345.404175
  0
LINE
  8
0
  6
CENTER
 10
327.928619
 20
354.556519
 11
327.928619
 21
335.056519
  0
ARC
  8
0
  6
CONTINUOUS
 10
327.928619
 20
345.404175
 40
6.500000
 50
-230.284866
 51
51.240688
  0
ARC
  8
0
  6
CONTINUOUS
 10
331.172638
 20
355.404175
 40
5.000000
 50
-90.000000
 51
-16.172159
  0
ARC
  8
0
  6
CONTINUOUS
 10
341.584625
 20
355.404175
 40
5.000000
 50
-270.000000
 51
-196.172165
  0
LINE
  8
0
  6
CONTINUOUS
 10
337.828644
 20
360.404175
 11
337.831848
 21
360.415283
  0
LINE
  8
0
  6
CENTER
 10
280.428619
 20
226.217499
 11
280.428619
 21
-3.286630
  0
LINE
  8
0
  6
CENTER
 10
216.544037
 20
147.346252
 11
333.113617
 21
147.346252
  0
LINE
  8
0
  6
CENTER
 10
327.928619
 20
32.621689
 11
327.928619
 21
-1.243050
  0
LINE
  8
0
  6
CENTER
 10
232.928635
 20
32.621689
 11
232.928635
 21
-1.534990
  0
LINE
  8
0
  6
CONTINUOUS
 10
204.428635
 20
7.346250
 11
356.428619
 21
7.346250
  0
LINE
  8
0
  6
CONTINUOUS
 10
204.428635
 20
25.346251
 11
356.428619
 21
25.346251
  0
LINE
  8
0
  6
CONTINUOUS
 10
356.428619
 20
175.651810
 11
356.428619
 21
7.346250
  0
LINE
  8
0
  6
CONTINUOUS
 10
204.428635
 20
170.846252
 11
204.428635
 21
175.651810
  0
LINE
  8
0
  6
CONTINUOUS
 10
253.925232
 20
212.346252
 11
306.932037
 21
212.346252
  0
LINE
  8
0
  6
CONTINUOUS
 10
199.428635
 20
166.346252
 11
192.428635
 21
166.346252
  0
LINE
  8
0
  6
CONTINUOUS
 10
199.428635
 20
38.346249
 11
192.428635
 21
38.346249
  0
LINE
  8
0
  6
CONTINUOUS
 10
352.978638
 20
182.231873
 11
311.482025
 21
210.926315
  0
LINE
  8
0
  6
CONTINUOUS
 10
207.878586
 20
182.231873
 11
249.375229
 21
210.926315
  0
ARC
  8
0
  6
CONTINUOUS
 10
306.932037
 20
204.346252
 40
8.000000
 50
55.336689
 51
90.000000
  0
ARC
  8
0
  6
CONTINUOUS
 10
348.428619
 20
175.651764
 40
8.000000
 50
0.000000
 51
55.336739
  0
ARC
  8
0
  6
CONTINUOUS
 10
253.925232
 20
204.346252
 40
8.000000
 50
90.000000
 51
124.663696
  0
ARC
  8
0
  6
CONTINUOUS
 10
212.428635
 20
175.651855
 40
8.000000
 50
124.663803
 51
180.000000
  0
LINE
  8
0
  6
CONTINUOUS
 10
204.428635
 20
33.846249
 11
204.428635
 21
7.346250
  0
ARC
  8
0
  6
CONTINUOUS
 10
199.428619
 20
171.346252
 40
5.000000
 50
-90.000000
 51
0.000000
  0
LINE
  8
0
  6
CONTINUOUS
 10
204.428635
 20
33.846249
 11
204.428635
 21
170.846252
  0
ARC
  8
0
  6
CONTINUOUS
 10
199.428650
 20
33.346230
 40
5.000000
 50
0.000000
 51
90.000000
  0
LINE
  8
0
  6
DASHED
 10
226.428635
 20
25.346251
 11
226.428635
 21
7.346250
  0
LINE
  8
0
  6
DASHED
 10
239.428635
 20
25.346251
 11
239.428635
 21
7.346250
  0
LINE
  8
0
  6
DASHED
 10
321.428619
 20
25.346251
 11
321.428619
 21
7.346250
  0
LINE
  8
0
  6
DASHED
 10
334.428619
 20
25.346251
 11
334.428619
 21
7.346250
  0
CIRCLE
  8
0
  6
CONTINUOUS
 10
280.428619
 20
147.346252
 40
39.000000
  0
ARC
  8
0
  6
CONTINUOUS
 10
280.428619
 20
147.346252
 40
44.000000
 50
12.523240
 51
167.476898
  0
ARC
  8
0
  6
CONTINUOUS
 10
254.928635
 20
88.346252
 40
29.000000
 50
167.476898
 51
270.000000
  0
ARC
  8
0
  6
CONTINUOUS
 10
305.928619
 20
88.346252
 40
29.000000
 50
-90.000000
 51
12.523240
  0
ARC
  8
0
  6
CONTINUOUS
 10
254.928635
 20
88.346252
 40
31.900000
 50
167.476898
 51
270.000000
  0
ARC
  8
0
  6
CONTINUOUS
 10
305.928619
 20
88.346252
 40
31.900000
 50
-90.000000
 51
12.523240
  0
ARC
  8
0
  6
CONTINUOUS
 10
280.428619
 20
147.346252
 40
41.099998
 50
-192.523102
 51
12.523240
  0
LINE
  8
0
  6
CONTINUOUS
 10
223.787628
 20
95.263252
 11
237.475433
 21
156.886948
  0
LINE
  8
0
  6
CONTINUOUS
 10
226.618637
 20
94.634438
 11
240.306427
 21
156.258133
  0
LINE
  8
0
  6
CONTINUOUS
 10
254.928635
 20
56.446251
 11
305.928619
 21
56.446251
  0
LINE
  8
0
  6
CONTINUOUS
 10
305.928619
 20
59.346249
 11
254.928635
 21
59.346249
  0
LINE
  8
0
  6
CONTINUOUS
 10
323.381836
 20
156.887024
 11
337.069641
 21
95.263313
  0
LINE
  8
0
  6
CONTINUOUS
 10
320.550842
 20
156.258209
 11
334.238617
 21
94.634491
  0
LINE
  8
0
  6
CONTINUOUS
 10
268.201630
 20
71.346252
 11
263.261230
 21
71.346252
  0
LINE
  8
0
  6
CONTINUOUS
 10
270.928619
 20
79.621651
 11
270.928619
 21
71.346252
  0
LINE
  8
0
  6
CONTINUOUS
 10
275.678619
 20
82.627502
 11
275.678619
 21
85.596252
  0
LINE
  8
0
  6
CONTINUOUS
 10
285.178619
 20
82.627502
 11
285.178619
 21
85.596252
  0
LINE
  8
0
  6
CONTINUOUS
 10
279.500824
 20
83.852112
 11
279.500824
 21
72.904846
  0
LINE
  8
0
  6
CONTINUOUS
 10
281.282227
 20
83.852112
 11
281.282227
 21
72.904846
  0
LINE
  8
0
  6
CONTINUOUS
 10
290.633820
 20
83.852112
 11
290.633820
 21
72.830627
  0
LINE
  8
0
  6
CONTINUOUS
 10
292.266632
 20
78.007393
 11
292.266632
 21
72.830627
  0
LINE
  8
0
  6
CONTINUOUS
 10
268.674622
 20
83.703674
 11
264.097046
 21
83.703674
  0
LINE
  8
0
  6
CONTINUOUS
 10
264.097046
 20
83.703674
 11
263.024445
 21
82.373672
  0
LINE
  8
0
  6
CONTINUOUS
 10
263.153442
 20
85.596252
 11
261.428619
 21
83.387787
  0
LINE
  8
0
  6
CONTINUOUS
 10
263.024445
 20
74.164093
 11
264.114227
 21
73.016167
  0
LINE
  8
0
  6
CONTINUOUS
 10
261.428619
 20
73.195374
 11
263.261230
 21
71.346252
  0
LINE
  8
0
  6
CONTINUOUS
 10
261.428619
 20
83.387787
 11
261.428619
 21
73.195374
  0
LINE
  8
0
  6
CONTINUOUS
 10
263.024445
 20
82.373672
 11
263.024445
 21
74.164093
  0
LINE
  8
0
  6
CONTINUOUS
 10
269.555634
 20
82.852112
 11
268.656647
 21
83.703674
  0
LINE
  8
0
  6
CONTINUOUS
 10
269.541443
 20
85.596252
 11
270.928619
 21
84.056671
  0
LINE
  8
0
  6
CONTINUOUS
 10
269.555634
 20
82.627502
 11
270.928619
 21
82.627502
  0
LINE
  8
0
  6
CONTINUOUS
 10
263.153442
 20
85.596252
 11
269.541443
 21
85.596252
  0
LINE
  8
0
  6
CONTINUOUS
 10
267.069244
 20
79.621651
 11
270.928619
 21
79.621651
  0
LINE
  8
0
  6
CONTINUOUS
 10
269.555634
 20
78.063049
 11
267.069244
 21
78.063049
  0
LINE
  8
0
  6
CONTINUOUS
 10
266.586823
 20
73.016167
 11
264.114227
 21
73.016167
  0
LINE
  8
0
  6
CONTINUOUS
 10
269.555634
 20
76.578667
 11
269.555634
 21
77.766167
  0
ARC
  8
0
  6
CONTINUOUS
 10
266.586823
 20
75.984909
 40
2.968750
 50
-89.999786
 51
0.000109
  0
LINE
  8
0
  6
CONTINUOUS
 10
269.555634
 20
72.482170
 11
269.555634
 21
71.346252
  0
LINE
  8
0
  6
CONTINUOUS
 10
270.928619
 20
84.056671
 11
270.928619
 21
82.627502
  0
LINE
  8
0
  6
CONTINUOUS
 10
269.555634
 20
78.063049
 11
269.555634
 21
75.984909
  0
LINE
  8
0
  6
CONTINUOUS
 10
267.069244
 20
79.621651
 11
267.069244
 21
78.063049
  0
LINE
  8
0
  6
CONTINUOUS
 10
269.555634
 20
71.346252
 11
270.928619
 21
71.346252
  0
LINE
  8
0
  6
CONTINUOUS
 10
269.555634
 20
72.482170
 11
268.201630
 21
71.346252
  0
LINE
  8
0
  6
CONTINUOUS
 10
281.282227
 20
72.904846
 11
281.875824
 21
72.904846
  0
LINE
  8
0
  6
CONTINUOUS
 10
278.795837
 20
72.904846
 11
278.795837
 21
71.346252
  0
LINE
  8
0
  6
CONTINUOUS
 10
281.875824
 20
72.904846
 11
281.875824
 21
71.346252
  0
LINE
  8
0
  6
CONTINUOUS
 10
284.187622
 20
82.627502
 11
285.178619
 21
82.627502
  0
LINE
  8
0
  6
CONTINUOUS
 10
275.678619
 20
82.627502
 11
276.733246
 21
82.627502
  0
LINE
  8
0
  6
CONTINUOUS
 10
275.678619
 20
85.596252
 11
285.178619
 21
85.596252
  0
LINE
  8
0
  6
CONTINUOUS
 10
278.795837
 20
71.346252
 11
281.875824
 21
71.346252
  0
LINE
  8
0
  6
CONTINUOUS
 10
278.795837
 20
72.904846
 11
279.500824
 21
72.904846
  0
ARC
  8
0
  6
CONTINUOUS
 10
295.624817
 20
81.792526
 40
3.803712
 50
-73.981873
 51
90.003510
  0
ARC
  8
0
  6
CONTINUOUS
 10
295.624817
 20
81.792526
 40
2.320524
 50
-82.585274
 51
62.411850
  0
LINE
  8
0
  6
CONTINUOUS
 10
289.928619
 20
85.596252
 11
295.624817
 21
85.596252
  0
LINE
  8
0
  6
CONTINUOUS
 10
295.924438
 20
79.491409
 11
292.266632
 21
79.491409
  0
LINE
  8
0
  6
CONTINUOUS
 10
289.928619
 20
85.596252
 11
289.928619
 21
83.852112
  0
LINE
  8
0
  6
CONTINUOUS
 10
292.266632
 20
83.852112
 11
292.266632
 21
79.491409
  0
LINE
  8
0
  6
CONTINUOUS
 10
296.674438
 20
78.136513
 11
299.028839
 21
72.830627
  0
LINE
  8
0
  6
CONTINUOUS
 10
295.307220
 20
78.007393
 11
297.535217
 21
72.830627
  0
LINE
  8
0
  6
CONTINUOUS
 10
289.928619
 20
72.830627
 11
290.633820
 21
72.830627
  0
LINE
  8
0
  6
CONTINUOUS
 10
292.266632
 20
72.830627
 11
292.916046
 21
72.830627
  0
LINE
  8
0
  6
CONTINUOUS
 10
292.916046
 20
71.346252
 11
289.928619
 21
71.346252
  0
LINE
  8
0
  6
CONTINUOUS
 10
297.239227
 20
72.830627
 11
297.535217
 21
72.830627
  0
LINE
  8
0
  6
CONTINUOUS
 10
299.028839
 20
72.830627
 11
299.428619
 21
72.830627
  0
LINE
  8
0
  6
CONTINUOUS
 10
297.239227
 20
71.346252
 11
299.428619
 21
71.346252
  0
LINE
  8
0
  6
CONTINUOUS
 10
299.428619
 20
72.830627
 11
299.428619
 21
71.346252
  0
LINE
  8
0
  6
CONTINUOUS
 10
297.239227
 20
72.830627
 11
297.239227
 21
71.346252
  0
LINE
  8
0
  6
CONTINUOUS
 10
292.916046
 20
72.830627
 11
292.916046
 21
71.346252
  0
LINE
  8
0
  6
CONTINUOUS
 10
289.928619
 20
72.830627
 11
289.928619
 21
71.346252
  0
LINE
  8
0
  6
CONTINUOUS
 10
277.243439
 20
83.852112
 11
276.733246
 21
82.627502
  0
LINE
  8
0
  6
CONTINUOUS
 10
283.757446
 20
83.852112
 11
284.187622
 21
82.627502
  0
LINE
  8
0
  6
CONTINUOUS
 10
281.282227
 20
83.852112
 11
283.757446
 21
83.852112
  0
LINE
  8
0
  6
CONTINUOUS
 10
279.500824
 20
83.852112
 11
277.243439
 21
83.852112
  0
LINE
  8
0
  6
CONTINUOUS
 10
292.266632
 20
78.007393
 11
295.307220
 21
78.007393
  0
LINE
  8
0
  6
CONTINUOUS
 10
289.928619
 20
83.852112
 11
290.633820
 21
83.852112
  0
LINE
  8
0
  6
CONTINUOUS
 10
292.266632
 20
83.852112
 11
296.699646
 21
83.849220
  0
LINE
  8
0
  6
CONTINUOUS
 10
269.555634
 20
82.852112
 11
269.555634
 21
82.627502
  0
ARC
  8
0
  6
CONTINUOUS
 10
384.137421
 20
102.346252
 40
185.208893
 50
166.001907
 51
193.998093
  0
LINE
  8
0
  6
CONTINUOUS
 10
218.428635
 20
23.279690
 11
218.428635
 21
7.346250
  0
LINE
  8
0
  6
CONTINUOUS
 10
342.428619
 20
23.279690
 11
342.428619
 21
7.346250
  0
LINE
  8
0
  6
CONTINUOUS
 10
304.186035
 20
30.346251
 11
256.671234
 21
30.346251
  0
LINE
  8
0
  6
CONTINUOUS
 10
255.428635
 20
29.410370
 11
255.428635
 21
26.346251
  0
LINE
  8
0
  6
CONTINUOUS
 10
306.307220
 20
29.467569
 11
308.964233
 21
26.810711
  0
LINE
  8
0
  6
CONTINUOUS
 10
254.550034
 20
29.467569
 11
251.893234
 21
26.810749
  0
LINE
  8
0
  6
CONTINUOUS
 10
305.428619
 20
29.410370
 11
305.428619
 21
26.346251
  0
ARC
  8
0
  6
CONTINUOUS
 10
248.357635
 20
30.346251
 40
5.000000
 50
270.000000
 51
315.000092
  0
ARC
  8
0
  6
CONTINUOUS
 10
256.671234
 20
27.346251
 40
3.000000
 50
90.000000
 51
135.000305
  0
ARC
  8
0
  6
CONTINUOUS
 10
254.428635
 20
26.346251
 40
1.000000
 50
-90.000000
 51
0.000000
  0
ARC
  8
0
  6
CONTINUOUS
 10
312.499634
 20
30.346251
 40
5.000000
 50
225.000000
 51
270.000000
  0
ARC
  8
0
  6
CONTINUOUS
 10
304.186035
 20
27.346251
 40
3.000000
 50
45.000160
 51
90.000000
  0
ARC
  8
0
  6
CONTINUOUS
 10
306.428619
 20
26.346251
 40
1.000000
 50
180.000000
 51
270.000000
  0
LINE
  8
0
  6
CONTINUOUS
 10
291.428619
 20
142.346283
 11
291.428619
 21
152.346283
  0
LINE
  8
0
  6
CONTINUOUS
 10
299.428619
 20
142.346313
 11
299.428619
 21
152.346313
  0
LINE
  8
0
  6
CONTINUOUS
 10
299.428619
 20
142.346313
 11
291.428619
 21
142.346283
  0
LINE
  8
0
  6
CONTINUOUS
 10
299.428619
 20
152.346313
 11
291.428619
 21
152.346283
  0
ARC
  8
0
  6
CONTINUOUS
 10
280.428619
 20
147.346252
 40
16.000000
 50
18.209900
 51
341.790100
  0
LINE
  8
0
  6
CENTER
 10
551.261230
 20
-7.773750
 11
551.261230
 21
230.957504
  0
LINE
  8
0
  6
CENTER
 10
470.673859
 20
102.346252
 11
627.488892
 21
102.346252
  0
LINE
  8
0
  6
CENTER
 10
416.611237
 20
147.346252
 11
621.958862
 21
147.346252
  0
LINE
  8
0
  6
CENTER
 10
611.261230
 20
33.944988
 11
611.261230
 21
-3.954130
  0
LINE
  8
0
  6
CENTER
 10
491.261261
 20
33.944988
 11
491.261261
 21
-3.954130
  0
LINE
  8
0
  6
CONTINUOUS
 10
476.261261
 20
7.346250
 11
521.261230
 21
7.346250
  0
LINE
  8
0
  6
CONTINUOUS
 10
581.261230
 20
7.346250
 11
626.261230
 21
7.346250
  0
LINE
  8
0
  6
CONTINUOUS
 10
623.761230
 20
25.346251
 11
600.261230
 21
25.346251
  0
LINE
  8
0
  6
CONTINUOUS
 10
478.761261
 20
25.346251
 11
502.261261
 21
25.346251
  0
LINE
  8
0
  6
CONTINUOUS
 10
596.261230
 20
208.613007
 11
596.261230
 21
7.346250
  0
LINE
  8
0
  6
CONTINUOUS
 10
506.261261
 20
195.087448
 11
506.261261
 21
208.612534
  0
LINE
  8
0
  6
CONTINUOUS
 10
626.261230
 20
23.228430
 11
626.261230
 21
7.346250
  0
LINE
  8
0
  6
CONTINUOUS
 10
476.261261
 20
23.228430
 11
476.261261
 21
7.346250
  0
LINE
  8
0
  6
CONTINUOUS
 10
522.761230
 20
8.846250
 11
579.761230
 21
8.846250
  0
LINE
  8
0
  6
CONTINUOUS
 10
593.313660
 20
211.612549
 11
551.261230
 21
212.346252
  0
LINE
  8
0
  6
CONTINUOUS
 10
509.208862
 20
211.612076
 11
551.261230
 21
212.346252
  0
LINE
  8
0
  6
CONTINUOUS
 10
489.261261
 20
112.087440
 11
489.261261
 21
182.605072
  0
LINE
  8
0
  6
CONTINUOUS
 10
613.261230
 20
112.087440
 11
613.261230
 21
182.605072
  0
LINE
  8
0
  6
CONTINUOUS
 10
496.261261
 20
63.102249
 11
496.261261
 21
151.256653
  0
LINE
  8
0
  6
CONTINUOUS
 10
606.261230
 20
63.102268
 11
606.261230
 21
151.256653
  0
LINE
  8
0
  6
DASHED
 10
617.761230
 20
25.346251
 11
617.761230
 21
7.346250
  0
LINE
  8
0
  6
DASHED
 10
604.761230
 20
25.346251
 11
604.761230
 21
7.346250
  0
LINE
  8
0
  6
DASHED
 10
497.761261
 20
25.346251
 11
497.761261
 21
7.346250
  0
LINE
  8
0
  6
DASHED
 10
484.761261
 20
25.346251
 11
484.761261
 21
7.346250
  0
ARC
  8
0
  6
CONTINUOUS
 10
509.261261
 20
208.612534
 40
3.000000
 50
91.000603
 51
180.000000
  0
ARC
  8
0
  6
CONTINUOUS
 10
593.261230
 20
208.612991
 40
3.000000
 50
0.000000
 51
89.000580
  0
LINE
  8
0
  6
CONTINUOUS
 10
502.672058
 20
190.290604
 11
492.850464
 21
187.401871
  0
LINE
  8
0
  6
CONTINUOUS
 10
492.850464
 20
107.290619
 11
493.389862
 21
107.131943
  0
LINE
  8
0
  6
CONTINUOUS
 10
499.868652
 20
58.300110
 11
502.653839
 21
57.492390
  0
LINE
  8
0
  6
CONTINUOUS
 10
478.350250
 20
25.694410
 11
503.754456
 21
29.928450
  0
LINE
  8
0
  6
CONTINUOUS
 10
624.172241
 20
25.694429
 11
598.768066
 21
29.928471
  0
LINE
  8
0
  6
CONTINUOUS
 10
602.653870
 20
58.300110
 11
599.868652
 21
57.492390
  0
LINE
  8
0
  6
CONTINUOUS
 10
609.672058
 20
107.290619
 11
609.132629
 21
107.131935
  0
LINE
  8
0
  6
CONTINUOUS
 10
609.672058
 20
187.401886
 11
599.850464
 21
190.290604
  0
LINE
  8
0
  6
CONTINUOUS
 10
508.835663
 20
179.846252
 11
593.513855
 21
179.846252
  0
ARC
  8
0
  6
CONTINUOUS
 10
494.261261
 20
182.605087
 40
5.000000
 50
106.389900
 51
180.000000
  0
ARC
  8
0
  6
CONTINUOUS
 10
608.261230
 20
182.605057
 40
5.000000
 50
0.000000
 51
73.610527
  0
ARC
  8
0
  6
CONTINUOUS
 10
494.261261
 20
112.087479
 40
5.000000
 50
180.000000
 51
253.610794
  0
ARC
  8
0
  6
CONTINUOUS
 10
608.261230
 20
112.087433
 40
5.000000
 50
-73.610321
 51
0.000000
  0
ARC
  8
0
  6
CONTINUOUS
 10
601.261230
 20
63.102249
 40
5.000000
 50
-73.827698
 51
0.000000
  0
ARC
  8
0
  6
CONTINUOUS
 10
501.261261
 20
63.102291
 40
5.000000
 50
180.000000
 51
253.828201
  0
LINE
  8
0
  6
CONTINUOUS
 10
506.261261
 20
195.087448
 11
506.261261
 21
7.346250
  0
ARC
  8
0
  6
CONTINUOUS
 10
501.261261
 20
195.087433
 40
5.000000
 50
-73.610229
 51
0.000000
  0
ARC
  8
0
  6
CONTINUOUS
 10
492.261261
 20
103.294464
 40
4.000000
 50
0.000000
 51
73.610649
  0
ARC
  8
0
  6
CONTINUOUS
 10
501.261261
 20
52.690231
 40
5.000000
 50
0.000000
 51
73.827919
  0
ARC
  8
0
  6
CONTINUOUS
 10
601.261230
 20
52.690269
 40
5.000000
 50
106.172501
 51
180.000000
  0
ARC
  8
0
  6
CONTINUOUS
 10
610.261230
 20
103.294495
 40
4.000000
 50
106.389999
 51
180.000000
  0
ARC
  8
0
  6
CONTINUOUS
 10
601.261230
 20
195.087463
 40
5.000000
 50
180.000000
 51
253.610794
  0
ARC
  8
0
  6
CONTINUOUS
 10
503.261261
 20
32.887630
 40
3.000000
 50
-80.537483
 51
0.000000
  0
ARC
  8
0
  6
CONTINUOUS
 10
502.261261
 20
29.346210
 40
4.000000
 50
-90.000000
 51
0.000000
  0
ARC
  8
0
  6
CONTINUOUS
 10
478.761261
 20
22.846270
 40
2.500000
 50
90.000000
 51
180.000000
  0
LINE
  8
0
  6
CONTINUOUS
 10
521.261230
 20
7.346250
 11
522.761230
 21
8.846250
  0
LINE
  8
0
  6
CONTINUOUS
 10
581.261230
 20
7.346250
 11
579.761230
 21
8.846250
  0
ARC
  8
0
  6
CONTINUOUS
 10
599.261230
 20
32.887669
 40
3.000000
 50
180.000000
 51
260.537903
  0
ARC
  8
0
  6
CONTINUOUS
 10
600.261230
 20
29.346251
 40
4.000000
 50
180.000000
 51
270.000000
  0
ARC
  8
0
  6
CONTINUOUS
 10
623.761230
 20
22.846251
 40
2.500000
 50
0.000000
 51
90.000000
  0
LINE
  8
0
  6
CONTINUOUS
 10
431.261261
 20
131.346252
 11
431.261261
 21
163.346252
  0
LINE
  8
0
  6
CONTINUOUS
 10
486.261261
 20
163.346252
 11
431.261261
 21
163.346252
  0
LINE
  8
0
  6
CONTINUOUS
 10
486.261261
 20
131.346252
 11
431.261261
 21
131.346252
  0
LINE
  8
0
  6
CONTINUOUS
 10
486.261261
 20
164.846252
 11
486.261261
 21
129.846252
  0
LINE
  8
0
  6
CONTINUOUS
 10
489.261261
 20
164.846252
 11
486.261261
 21
164.846252
  0
LINE
  8
0
  6
CONTINUOUS
 10
489.261261
 20
129.846252
 11
486.261261
 21
129.846252
  0
ARC
  8
0
  6
CONTINUOUS
 10
476.261261
 20
147.346252
 40
5.000000
 50
-90.000000
 51
90.000000
  0
LINE
  8
0
  6
CONTINUOUS
 10
476.261261
 20
152.346252
 11
431.261261
 21
152.346252
  0
LINE
  8
0
  6
CONTINUOUS
 10
476.261261
 20
142.346252
 11
431.261261
 21
142.346252
  0
ARC
  8
0
  6
CONTINUOUS
 10
478.761261
 20
23.228451
 40
2.500000
 50
99.462753
 51
180.000000
  0
ARC
  8
0
  6
CONTINUOUS
 10
623.761230
 20
23.228430
 40
2.500000
 50
0.000000
 51
80.537682
  0
LINE
  8
0
  6
CONTINUOUS
 10
192.428635
 20
166.346252
 11
192.428635
 21
38.346249
  0
ARC
  8
0
  6
CONTINUOUS
 10
551.261230
 20
102.346252
 40
64.000000
 50
165.638489
 51
210.753525
  0
ARC
  8
0
  6
CONTINUOUS
 10
551.261230
 20
102.346252
 40
64.000000
 50
-30.753519
 51
14.361512
  0
ARC
  8
0
  6
CONTINUOUS
 10
510.249054
 20
61.334030
 40
8.000000
 50
211.001404
 51
233.216995
  0
ARC
  8
0
  6
CONTINUOUS
 10
504.261261
 20
53.324909
 40
2.000000
 50
30.947910
 51
53.217121
  0
ARC
  8
0
  6
CONTINUOUS
 10
592.273438
 20
61.334030
 40
8.000000
 50
-53.216999
 51
-31.001400
  0
ARC
  8
0
  6
CONTINUOUS
 10
598.261230
 20
53.324909
 40
2.000000
 50
126.782883
 51
149.052094
  0
LINE
  8
0
  6
CENTER
 10
-19.194220
 20
89.346252
 11
237.315002
 21
89.346252
  0
LINE
  8
0
  6
CENTER
 10
104.233749
 20
102.346252
 11
237.315002
 21
102.346252
  0
LINE
  8
0
  6
CONTINUOUS
 10
183.928635
 20
343.404175
 11
183.928635
 21
467.404175
  0
LINE
  8
0
  6
CONTINUOUS
 10
137.928635
 20
450.404175
 11
181.492249
 21
451.925446
  0
LINE
  8
0
  6
CONTINUOUS
 10
137.928635
 20
360.404175
 11
181.492249
 21
358.882904
  0
LINE
  8
0
  6
CONTINUOUS
 10
137.928635
 20
454.416168
 11
137.928635
 21
356.392181
  0
LINE
  8
0
  6
CONTINUOUS
 10
185.928635
 20
469.404175
 11
192.428635
 21
469.404175
  0
LINE
  8
0
  6
CONTINUOUS
 10
185.928635
 20
341.404175
 11
192.428635
 21
341.404175
  0
LINE
  8
0
  6
CONTINUOUS
 10
176.785629
 20
429.404175
 11
183.900604
 21
429.404175
  0
LINE
  8
0
  6
CONTINUOUS
 10
177.390778
 20
381.404175
 11
183.900604
 21
381.404175
  0
LINE
  8
0
  6
CONTINUOUS
 10
176.785629
 20
427.199677
 11
176.785629
 21
383.487091
  0
LINE
  8
0
  6
CONTINUOUS
 10
128.928635
 20
448.404175
 11
128.928635
 21
434.404175
  0
LINE
  8
0
  6
CONTINUOUS
 10
18.928633
 20
450.404175
 11
137.928635
 21
450.404175
  0
LINE
  8
0
  6
CONTINUOUS
 10
18.928633
 20
360.404175
 11
137.928635
 21
360.404175
  0
LINE
  8
0
  6
CONTINUOUS
 10
18.928633
 20
450.404175
 11
18.928633
 21
412.270203
  0
LINE
  8
0
  6
CONTINUOUS
 10
18.928633
 20
434.404175
 11
128.928635
 21
434.404175
  0
LINE
  8
0
  6
CONTINUOUS
 10
18.928633
 20
376.404175
 11
128.928635
 21
376.404175
  0
ARC
  8
0
  6
CONTINUOUS
 10
130.928635
 20
448.404205
 40
2.000000
 50
90.000000
 51
180.000000
  0
ARC
  8
0
  6
CONTINUOUS
 10
130.928635
 20
362.404175
 40
2.000000
 50
180.000000
 51
270.000000
  0
LINE
  8
0
  6
CONTINUOUS
 10
-1.571368
 20
370.404175
 11
-1.571368
 21
440.404175
  0
LINE
  8
0
  6
CONTINUOUS
 10
2.970074
 20
450.404175
 11
18.928633
 21
450.404175
  0
LINE
  8
0
  6
CONTINUOUS
 10
-1.071368
 20
447.404175
 11
-1.071368
 21
363.404175
  0
LINE
  8
0
  6
CONTINUOUS
 10
18.928633
 20
434.404175
 11
0.678632
 21
434.404175
  0
LINE
  8
0
  6
CONTINUOUS
 10
-0.494022
 20
448.404175
 11
-1.071368
 21
447.404175
  0
ARC
  8
0
  6
CONTINUOUS
 10
2.970090
 20
446.404175
 40
4.000000
 50
90.000000
 51
150.000397
  0
LINE
  8
0
  6
CONTINUOUS
 10
2.970074
 20
360.404175
 11
18.928633
 21
360.404175
  0
LINE
  8
0
  6
CONTINUOUS
 10
18.928633
 20
376.404175
 11
0.678632
 21
376.404175
  0
LINE
  8
0
  6
CONTINUOUS
 10
-0.494022
 20
362.404175
 11
-1.071368
 21
363.404175
  0
ARC
  8
0
  6
CONTINUOUS
 10
2.970090
 20
364.404175
 40
4.000000
 50
-150.000397
 51
-90.000000
  0
LINE
  8
0
  6
CONTINUOUS
 10
-1.571368
 20
440.404175
 11
-1.071368
 21
440.904175
  0
LINE
  8
0
  6
CONTINUOUS
 10
-1.571368
 20
370.404175
 11
-1.071368
 21
369.904175
  0
LINE
  8
0
  6
CONTINUOUS
 10
137.928635
 20
450.404175
 11
137.928635
 21
360.404175
  0
ARC
  8
0
  6
CONTINUOUS
 10
185.928635
 20
467.404175
 40
2.000000
 50
90.000000
 51
180.000000
  0
ARC
  8
0
  6
CONTINUOUS
 10
185.928635
 20
343.404175
 40
2.000000
 50
180.000000
 51
270.000000
  0
ARC
  8
0
  6
CONTINUOUS
 10
181.404999
 20
454.423920
 40
2.500000
 50
272.000000
 51
359.895721
  0
ARC
  8
0
  6
CONTINUOUS
 10
181.404999
 20
356.384430
 40
2.500000
 50
0.104292
 51
88.000000
  0
LINE
  8
0
  6
CONTINUOUS
 10
183.928635
 20
452.010529
 11
183.900604
 21
452.009552
  0
LINE
  8
0
  6
CONTINUOUS
 10
138.428329
 20
454.933624
 11
183.928635
 21
456.522522
  0
LINE
  8
0
  6
CONTINUOUS
 10
137.928635
 20
454.416168
 11
138.428329
 21
454.933624
  0
LINE
  8
0
  6
CONTINUOUS
 10
138.428329
 20
355.874725
 11
183.928635
 21
354.285828
  0
LINE
  8
0
  6
CONTINUOUS
 10
137.928635
 20
356.392181
 11
138.428329
 21
355.874725
  0
LINE
  8
0
  6
CONTINUOUS
 10
12.428632
 20
399.404175
 11
12.428632
 21
411.404175
  0
LINE
  8
0
  6
CONTINUOUS
 10
19.428633
 20
399.404175
 11
19.428633
 21
411.404175
  0
LINE
  8
0
  6
CONTINUOUS
 10
13.428632
 20
412.404175
 11
18.428633
 21
412.404175
  0
LINE
  8
0
  6
CONTINUOUS
 10
18.428633
 20
398.404175
 11
13.428632
 21
398.404175
  0
ARC
  8
0
  6
CONTINUOUS
 10
18.428633
 20
411.404175
 40
1.000000
 50
0.000000
 51
90.000000
  0
ARC
  8
0
  6
CONTINUOUS
 10
13.428632
 20
411.404175
 40
1.000000
 50
90.000000
 51
180.000000
  0
ARC
  8
0
  6
CONTINUOUS
 10
13.428632
 20
399.404175
 40
1.000000
 50
180.000000
 51
270.000000
  0
ARC
  8
0
  6
CONTINUOUS
 10
18.428633
 20
399.404175
 40
1.000000
 50
-90.000000
 51
0.000000
  0
LINE
  8
0
  6
CONTINUOUS
 10
16.928633
 20
401.904175
 11
16.928633
 21
408.904175
  0
LINE
  8
0
  6
CONTINUOUS
 10
14.928632
 20
401.904175
 11
14.928632
 21
408.904175
  0
ARC
  8
0
  6
CONTINUOUS
 10
15.928632
 20
408.904175
 40
1.000000
 50
90.000000
 51
180.000000
  0
ARC
  8
0
  6
CONTINUOUS
 10
15.928632
 20
408.904175
 40
1.000000
 50
0.000000
 51
90.000000
  0
ARC
  8
0
  6
CONTINUOUS
 10
15.928632
 20
401.904175
 40
1.000000
 50
180.000000
 51
270.000000
  0
ARC
  8
0
  6
CONTINUOUS
 10
15.928632
 20
401.904175
 40
1.000000
 50
-90.000000
 51
0.000000
  0
LINE
  8
0
  6
CONTINUOUS
 10
18.928633
 20
398.538147
 11
18.928633
 21
360.404175
  0
LINE
  8
0
  6
CONTINUOUS
 10
128.928635
 20
132.346252
 11
128.928635
 21
46.346230
  0
LINE
  8
0
  6
CONTINUOUS
 10
18.928633
 20
134.346252
 11
137.928635
 21
134.346252
  0
LINE
  8
0
  6
CONTINUOUS
 10
18.928633
 20
44.346249
 11
137.928635
 21
44.346249
  0
LINE
  8
0
  6
CONTINUOUS
 10
18.928633
 20
134.346252
 11
18.928633
 21
44.346249
  0
LINE
  8
0
  6
CONTINUOUS
 10
18.928633
 20
123.755547
 11
127.890953
 21
123.755547
  0
LINE
  8
0
  6
CONTINUOUS
 10
18.928633
 20
54.936951
 11
127.890953
 21
54.936951
  0
ARC
  8
0
  6
CONTINUOUS
 10
130.928635
 20
132.346268
 40
2.000000
 50
90.000000
 51
180.000000
  0
ARC
  8
0
  6
CONTINUOUS
 10
130.928635
 20
46.346249
 40
2.000000
 50
180.000000
 51
270.000000
  0
LINE
  8
0
  6
CONTINUOUS
 10
-1.571368
 20
54.346249
 11
-1.571368
 21
124.346252
  0
LINE
  8
0
  6
CONTINUOUS
 10
2.970074
 20
134.346252
 11
18.928633
 21
134.346252
  0
LINE
  8
0
  6
CONTINUOUS
 10
-1.071368
 20
131.346252
 11
-1.071368
 21
47.346249
  0
LINE
  8
0
  6
CONTINUOUS
 10
18.928633
 20
123.755547
 11
0.678632
 21
123.755547
  0
LINE
  8
0
  6
CONTINUOUS
 10
-0.494022
 20
132.346237
 11
-1.071368
 21
131.346252
  0
ARC
  8
0
  6
CONTINUOUS
 10
2.970090
 20
130.346252
 40
4.000000
 50
90.000000
 51
150.000397
  0
LINE
  8
0
  6
CONTINUOUS
 10
2.970074
 20
44.346249
 11
18.928633
 21
44.346249
  0
LINE
  8
0
  6
CONTINUOUS
 10
18.928633
 20
54.936951
 11
0.678632
 21
54.936951
  0
LINE
  8
0
  6
CONTINUOUS
 10
-0.494022
 20
46.346249
 11
-1.071368
 21
47.346249
  0
ARC
  8
0
  6
CONTINUOUS
 10
2.970090
 20
48.346230
 40
4.000000
 50
-150.000397
 51
-90.000000
  0
LINE
  8
0
  6
CONTINUOUS
 10
19.428633
 20
135.846252
 11
19.428633
 21
134.346252
  0
LINE
  8
0
  6
CONTINUOUS
 10
12.428632
 20
135.846252
 11
12.428632
 21
134.346252
  0
LINE
  8
0
  6
CONTINUOUS
 10
12.428632
 20
135.846252
 11
19.428633
 21
135.846252
  0
LINE
  8
0
  6
CONTINUOUS
 10
16.828634
 20
148.846252
 11
16.828634
 21
135.846252
  0
LINE
  8
0
  6
CONTINUOUS
 10
15.028630
 20
149.471252
 11
15.028630
 21
135.846252
  0
LINE
  8
0
  6
CONTINUOUS
 10
13.228636
 20
147.408752
 11
13.228636
 21
135.846252
  0
LINE
  8
0
  6
CONTINUOUS
 10
18.628632
 20
148.221252
 11
18.628632
 21
135.846252
  0
LINE
  8
0
  6
CONTINUOUS
 10
15.028630
 20
149.471252
 11
16.828634
 21
148.846252
  0
LINE
  8
0
  6
CONTINUOUS
 10
13.228636
 20
147.408752
 11
15.028630
 21
148.033752
  0
LINE
  8
0
  6
CONTINUOUS
 10
18.628632
 20
148.221252
 11
16.829632
 21
147.773529
  0
LINE
  8
0
  6
CONTINUOUS
 10
-1.571368
 20
124.346252
 11
-1.071368
 21
124.846252
  0
LINE
  8
0
  6
CONTINUOUS
 10
-1.571368
 20
54.346249
 11
-1.071368
 21
53.846249
  0
LINE
  8
0
  6
CONTINUOUS
 10
185.928635
 20
166.346359
 11
192.428635
 21
166.346359
  0
LINE
  8
0
  6
CONTINUOUS
 10
185.928635
 20
38.346153
 11
192.428635
 21
38.346153
  0
LINE
  8
0
  6
CONTINUOUS
 10
137.928635
 20
134.346252
 11
183.928635
 21
135.952606
  0
LINE
  8
0
  6
CONTINUOUS
 10
192.428635
 20
42.443069
 11
137.928635
 21
44.346249
  0
ARC
  8
0
  6
CONTINUOUS
 10
185.928650
 20
164.346375
 40
2.000000
 50
90.000000
 51
180.000000
  0
ARC
  8
0
  6
CONTINUOUS
 10
185.928635
 20
40.346153
 40
2.000000
 50
180.260773
 51
270.000000
  0
LINE
  8
0
  6
CONTINUOUS
 10
137.928635
 20
134.346252
 11
137.928635
 21
44.346249
  0
LINE
  8
0
  6
CONTINUOUS
 10
183.196396
 20
142.114014
 11
177.481888
 21
136.399506
  0
LINE
  8
0
  6
CONTINUOUS
 10
137.928635
 20
68.840248
 11
181.928635
 21
68.840248
  0
LINE
  8
0
  6
CONTINUOUS
 10
137.928635
 20
53.827251
 11
192.428635
 21
53.827251
  0
LINE
  8
0
  6
CONTINUOUS
 10
184.496597
 20
61.779251
 11
192.428635
 21
61.779251
  0
LINE
  8
0
  6
CONTINUOUS
 10
183.928635
 20
62.993984
 11
183.928635
 21
164.346375
  0
ARC
  8
0
  6
CONTINUOUS
 10
181.428680
 20
40.325672
 40
2.500000
 50
0.260773
 51
88.000000
  0
ARC
  8
0
  6
CONTINUOUS
 10
181.428635
 20
143.881790
 40
2.500000
 50
-45.000000
 51
0.000000
  0
ARC
  8
0
  6
CONTINUOUS
 10
175.714127
 20
138.167267
 40
2.500000
 50
272.000000
 51
315.000000
  0
LINE
  8
0
  6
CONTINUOUS
 10
128.928635
 20
376.404175
 11
128.928635
 21
362.404175
  0
TEXT
  8
0
 10
-19.000000
 20
-7.000000
 40
4.000000
 41
1.000000
  1
HLM-32R-1200~1800-S40W
 50
0.000000
  0
ENDSEC
  0
EOF
