  0
SECTION
  2
HEADER
  9
$CLAYER
  8
1
  9
$LTSCALE
 40
3.0
  0
ENDSEC
  0
SECTION
  2
TABLES
  0
TABLE
  2
LTYPE
 70
     4
  0
LTYPE
  2
CONTINUOUS
  3
solid line
 70
    64
 72
    65
 73
     0
 40
0.0
  0
LTYPE
  2
DASHED
  3
__ __ __ __ __ __ __ __ __ __ __ __ __ __ __
 70
    64
 72
    65
 73
     2
 40
0.75
 49
0.5
 49
-0.25
  0
LTYPE
  2
CENTER
  3
____ _ ____ _ ____ _ ____ _ ____ _ ____ _ ____
 70
    64
 72
    65
 73
     4
 40
2.0
 49
1.25
 49
-0.25
 49
0.25
 49
-0.25
  0
LTYPE
  2
PHANTOM
  3
_____ _ _ _____ _ _ _____ _ _ _____ _ _ ____
 70
    64
 72
    65
 73
     6
 40
2.5
 49
1.25
 49
-0.25
 49
0.25
 49
-0.25
 49
0.25
 49
-0.25
  0
ENDTAB
  0
TABLE
  2
LAYER
 70
     1
  0
LAYER
  2
0
 70
    64
 62
     7
  6
CONTINUOUS
  0
ENDTAB
  0
TABLE
  2
STYLE
 70
     1
  0
STYLE
  2
STANDARD
 70
     0
 40
0.000000
 41
1.000000
 50
0.000000
 71
     0
 42
3.000000
  3
txt
  4
BIGFONT
  0
ENDTAB
  0
ENDSEC
  0
SECTION
  2
BLOCKS
  0
ENDSEC
  0
SECTION
  2
ENTITIES
  0
LINE
  8
0
  6
CENTER
 10
282.137390
 20
499.952515
 11
282.137390
 21
273.617493
  0
LINE
  8
0
  6
CONTINUOUS
 10
358.137573
 20
405.404175
 11
357.352112
 21
450.404175
  0
LINE
  8
0
  6
CONTINUOUS
 10
223.687332
 20
480.404175
 11
282.137390
 21
480.404175
  0
LINE
  8
0
  6
CONTINUOUS
 10
348.080963
 20
475.205383
 11
357.352112
 21
450.404175
  0
ARC
  8
0
  6
CONTINUOUS
 10
340.587433
 20
472.404175
 40
8.000000
 50
20.496618
 51
90.000000
  0
LINE
  8
0
  6
CONTINUOUS
 10
358.137573
 20
405.404175
 11
357.352112
 21
360.404175
  0
LINE
  8
0
  6
CONTINUOUS
 10
223.687332
 20
330.404175
 11
266.137390
 21
330.404175
  0
LINE
  8
0
  6
CONTINUOUS
 10
348.080963
 20
335.602966
 11
357.352112
 21
360.404175
  0
ARC
  8
0
  6
CONTINUOUS
 10
340.587433
 20
338.404175
 40
8.000000
 50
-90.000000
 51
-20.496618
  0
LINE
  8
0
  6
CONTINUOUS
 10
216.193787
 20
475.205383
 11
207.138992
 21
450.982910
  0
ARC
  8
0
  6
CONTINUOUS
 10
223.687332
 20
472.404175
 40
8.000000
 50
90.000000
 51
159.503387
  0
LINE
  8
0
  6
CONTINUOUS
 10
216.193787
 20
335.602966
 11
207.138992
 21
359.825470
  0
ARC
  8
0
  6
CONTINUOUS
 10
223.687332
 20
338.404175
 40
8.000000
 50
200.496613
 51
270.000000
  0
LINE
  8
0
  6
CONTINUOUS
 10
209.474014
 20
450.404175
 11
354.404022
 21
450.404175
  0
LINE
  8
0
  6
CONTINUOUS
 10
354.404022
 20
360.404175
 11
209.474014
 21
360.404175
  0
LINE
  8
0
  6
CONTINUOUS
 10
282.137390
 20
467.404175
 11
317.396179
 21
467.404175
  0
ARC
  8
0
  6
CONTINUOUS
 10
354.404022
 20
447.404175
 40
3.000000
 50
1.000000
 51
90.000000
  0
ARC
  8
0
  6
CONTINUOUS
 10
354.404022
 20
363.404175
 40
3.000000
 50
270.000000
 51
359.000000
  0
LINE
  8
0
  6
CONTINUOUS
 10
311.137390
 20
447.404175
 11
311.137390
 21
363.404175
  0
LINE
  8
0
  6
CONTINUOUS
 10
253.137375
 20
447.404175
 11
253.137375
 21
363.404175
  0
LINE
  8
0
  6
CONTINUOUS
 10
194.137375
 20
469.404175
 11
194.137375
 21
341.404175
  0
LINE
  8
0
  6
CONTINUOUS
 10
196.709717
 20
469.404175
 11
194.137375
 21
469.404175
  0
LINE
  8
0
  6
CONTINUOUS
 10
322.193024
 20
463.815002
 11
323.196198
 21
460.404175
  0
ARC
  8
0
  6
CONTINUOUS
 10
317.396179
 20
462.404175
 40
5.000000
 50
16.389540
 51
90.000000
  0
LINE
  8
0
  6
CONTINUOUS
 10
337.683533
 20
456.796814
 11
338.491241
 21
454.011566
  0
LINE
  8
0
  6
CONTINUOUS
 10
332.881378
 20
460.404175
 11
323.196198
 21
460.404175
  0
LINE
  8
0
  6
CONTINUOUS
 10
282.137390
 20
467.404175
 11
246.878571
 21
467.404175
  0
LINE
  8
0
  6
CONTINUOUS
 10
282.137390
 20
343.404175
 11
317.396179
 21
343.404175
  0
LINE
  8
0
  6
CONTINUOUS
 10
282.137390
 20
343.404175
 11
246.878571
 21
343.404175
  0
LINE
  8
0
  6
CONTINUOUS
 10
282.137390
 20
480.404175
 11
340.587433
 21
480.404175
  0
LINE
  8
0
  6
CONTINUOUS
 10
301.137390
 20
285.404175
 11
266.137390
 21
285.404175
  0
LINE
  8
0
  6
CONTINUOUS
 10
266.137390
 20
340.404175
 11
266.137390
 21
285.404175
  0
LINE
  8
0
  6
CONTINUOUS
 10
298.137390
 20
340.404175
 11
298.137390
 21
335.404175
  0
LINE
  8
0
  6
CONTINUOUS
 10
264.637390
 20
340.404175
 11
299.637390
 21
340.404175
  0
LINE
  8
0
  6
CONTINUOUS
 10
264.637390
 20
343.404175
 11
264.637390
 21
340.404175
  0
LINE
  8
0
  6
CONTINUOUS
 10
299.637390
 20
343.404175
 11
299.637390
 21
340.404175
  0
LINE
  8
0
  6
CONTINUOUS
 10
301.137390
 20
285.404175
 11
301.137390
 21
335.404175
  0
LINE
  8
0
  6
CONTINUOUS
 10
297.336060
 20
335.404175
 11
301.137390
 21
335.404175
  0
LINE
  8
0
  6
CONTINUOUS
 10
297.336060
 20
335.404175
 11
297.336060
 21
285.404175
  0
LINE
  8
0
  6
CONTINUOUS
 10
301.137390
 20
330.404175
 11
340.587433
 21
330.404175
  0
LINE
  8
0
  6
CENTER
 10
319.761047
 20
465.404175
 11
338.698547
 21
465.404175
  0
LINE
  8
0
  6
CENTER
 10
329.637390
 20
456.251831
 11
329.637390
 21
475.751831
  0
ARC
  8
0
  6
CONTINUOUS
 10
329.637390
 20
465.404175
 40
6.500000
 50
-51.240688
 51
230.284866
  0
ARC
  8
0
  6
CONTINUOUS
 10
234.637375
 20
465.404175
 40
6.500000
 50
-50.284863
 51
231.240692
  0
LINE
  8
0
  6
CENTER
 10
234.637375
 20
456.251831
 11
234.637375
 21
475.751831
  0
LINE
  8
0
  6
CENTER
 10
244.513702
 20
465.404175
 11
225.576202
 21
465.404175
  0
LINE
  8
0
  6
CENTER
 10
-16.922344
 20
405.404175
 11
369.558411
 21
405.404175
  0
LINE
  8
0
  6
CONTINUOUS
 10
201.539337
 20
465.698273
 11
204.644394
 21
454.110077
  0
ARC
  8
0
  6
CONTINUOUS
 10
209.474014
 20
455.404175
 40
5.000000
 50
195.000000
 51
270.000000
  0
ARC
  8
0
  6
CONTINUOUS
 10
196.709717
 20
464.404175
 40
5.000000
 50
15.000000
 51
90.000000
  0
LINE
  8
0
  6
CONTINUOUS
 10
196.709717
 20
341.404175
 11
194.137375
 21
341.404175
  0
LINE
  8
0
  6
CONTINUOUS
 10
201.539337
 20
345.110077
 11
204.644394
 21
356.698273
  0
ARC
  8
0
  6
CONTINUOUS
 10
196.709717
 20
346.404175
 40
5.000000
 50
-90.000000
 51
-15.000000
  0
ARC
  8
0
  6
CONTINUOUS
 10
209.474014
 20
355.404175
 40
5.000000
 50
-270.000000
 51
-195.000000
  0
LINE
  8
0
  6
CONTINUOUS
 10
206.137177
 20
405.404175
 11
206.871201
 21
447.456543
  0
LINE
  8
0
  6
CONTINUOUS
 10
206.137177
 20
405.404175
 11
206.871201
 21
363.351837
  0
ARC
  8
0
  6
CONTINUOUS
 10
209.870758
 20
447.404175
 40
3.000000
 50
90.000000
 51
179.000000
  0
ARC
  8
0
  6
CONTINUOUS
 10
209.870758
 20
363.404175
 40
3.000000
 50
-179.000000
 51
-90.000000
  0
ARC
  8
0
  6
CONTINUOUS
 10
332.881378
 20
455.404175
 40
5.000000
 50
16.172159
 51
90.000000
  0
ARC
  8
0
  6
CONTINUOUS
 10
343.293396
 20
455.404175
 40
5.000000
 50
196.172165
 51
270.000000
  0
LINE
  8
0
  6
CONTINUOUS
 10
339.537384
 20
450.404175
 11
339.540588
 21
450.393097
  0
ARC
  8
0
  6
CONTINUOUS
 10
246.878571
 20
462.404175
 40
5.000000
 50
90.000000
 51
163.610458
  0
LINE
  8
0
  6
CONTINUOUS
 10
242.081741
 20
463.815002
 11
241.078568
 21
460.404175
  0
LINE
  8
0
  6
CONTINUOUS
 10
226.591248
 20
456.796814
 11
225.783524
 21
454.011566
  0
LINE
  8
0
  6
CONTINUOUS
 10
231.393387
 20
460.404175
 11
241.078568
 21
460.404175
  0
ARC
  8
0
  6
CONTINUOUS
 10
231.393387
 20
455.404175
 40
5.000000
 50
90.000000
 51
163.827835
  0
ARC
  8
0
  6
CONTINUOUS
 10
220.981369
 20
455.404175
 40
5.000000
 50
-90.000000
 51
-16.172159
  0
LINE
  8
0
  6
CONTINUOUS
 10
224.737381
 20
450.404175
 11
224.734161
 21
450.393097
  0
ARC
  8
0
  6
CONTINUOUS
 10
234.637375
 20
345.404175
 40
6.500000
 50
-231.240692
 51
50.284863
  0
LINE
  8
0
  6
CENTER
 10
244.513702
 20
345.404175
 11
225.576202
 21
345.404175
  0
ARC
  8
0
  6
CONTINUOUS
 10
246.878571
 20
348.404175
 40
5.000000
 50
196.389542
 51
270.000000
  0
LINE
  8
0
  6
CONTINUOUS
 10
242.081741
 20
346.993347
 11
241.078568
 21
350.404175
  0
LINE
  8
0
  6
CONTINUOUS
 10
226.591248
 20
354.011566
 11
225.783524
 21
356.796814
  0
LINE
  8
0
  6
CONTINUOUS
 10
231.393387
 20
350.404175
 11
241.078568
 21
350.404175
  0
ARC
  8
0
  6
CONTINUOUS
 10
231.393387
 20
355.404175
 40
5.000000
 50
-163.827835
 51
-90.000000
  0
ARC
  8
0
  6
CONTINUOUS
 10
220.981369
 20
355.404175
 40
5.000000
 50
16.172159
 51
90.000000
  0
LINE
  8
0
  6
CONTINUOUS
 10
224.737381
 20
360.404175
 11
224.734161
 21
360.415283
  0
LINE
  8
0
  6
CENTER
 10
234.637375
 20
354.556519
 11
234.637375
 21
335.056519
  0
LINE
  8
0
  6
CONTINUOUS
 10
322.193024
 20
346.993347
 11
323.196198
 21
350.404175
  0
ARC
  8
0
  6
CONTINUOUS
 10
317.396179
 20
348.404175
 40
5.000000
 50
-90.000000
 51
-16.389540
  0
LINE
  8
0
  6
CONTINUOUS
 10
337.683533
 20
354.011566
 11
338.491241
 21
356.796814
  0
LINE
  8
0
  6
CONTINUOUS
 10
332.881378
 20
350.404175
 11
323.196198
 21
350.404175
  0
LINE
  8
0
  6
CENTER
 10
319.761047
 20
345.404175
 11
338.698547
 21
345.404175
  0
LINE
  8
0
  6
CENTER
 10
329.637390
 20
354.556519
 11
329.637390
 21
335.056519
  0
ARC
  8
0
  6
CONTINUOUS
 10
329.637390
 20
345.404175
 40
6.500000
 50
-230.284866
 51
51.240688
  0
ARC
  8
0
  6
CONTINUOUS
 10
332.881378
 20
355.404175
 40
5.000000
 50
-90.000000
 51
-16.172159
  0
ARC
  8
0
  6
CONTINUOUS
 10
343.293396
 20
355.404175
 40
5.000000
 50
-270.000000
 51
-196.172165
  0
LINE
  8
0
  6
CONTINUOUS
 10
339.537384
 20
360.404175
 11
339.540588
 21
360.415283
  0
LINE
  8
0
  6
CENTER
 10
282.137390
 20
226.217499
 11
282.137390
 21
-3.286630
  0
LINE
  8
0
  6
CENTER
 10
218.252777
 20
147.346252
 11
334.822388
 21
147.346252
  0
LINE
  8
0
  6
CENTER
 10
329.637390
 20
32.621689
 11
329.637390
 21
-1.243050
  0
LINE
  8
0
  6
CENTER
 10
234.637375
 20
32.621689
 11
234.637375
 21
-1.534990
  0
LINE
  8
0
  6
CONTINUOUS
 10
206.137375
 20
7.346250
 11
358.137390
 21
7.346250
  0
LINE
  8
0
  6
CONTINUOUS
 10
206.137375
 20
25.346251
 11
358.137390
 21
25.346251
  0
LINE
  8
0
  6
CONTINUOUS
 10
358.137390
 20
175.651810
 11
358.137390
 21
7.346250
  0
LINE
  8
0
  6
CONTINUOUS
 10
206.137375
 20
170.846252
 11
206.137375
 21
175.651810
  0
LINE
  8
0
  6
CONTINUOUS
 10
255.633987
 20
212.346252
 11
308.640778
 21
212.346252
  0
LINE
  8
0
  6
CONTINUOUS
 10
201.137375
 20
166.346252
 11
194.137375
 21
166.346252
  0
LINE
  8
0
  6
CONTINUOUS
 10
201.137375
 20
38.346249
 11
194.137375
 21
38.346249
  0
LINE
  8
0
  6
CONTINUOUS
 10
354.687378
 20
182.231873
 11
313.190796
 21
210.926315
  0
LINE
  8
0
  6
CONTINUOUS
 10
209.587341
 20
182.231873
 11
251.083984
 21
210.926315
  0
ARC
  8
0
  6
CONTINUOUS
 10
308.640778
 20
204.346252
 40
8.000000
 50
55.336689
 51
90.000000
  0
ARC
  8
0
  6
CONTINUOUS
 10
350.137390
 20
175.651764
 40
8.000000
 50
0.000000
 51
55.336739
  0
ARC
  8
0
  6
CONTINUOUS
 10
255.633987
 20
204.346252
 40
8.000000
 50
90.000000
 51
124.663696
  0
ARC
  8
0
  6
CONTINUOUS
 10
214.137375
 20
175.651855
 40
8.000000
 50
124.663803
 51
180.000000
  0
LINE
  8
0
  6
CONTINUOUS
 10
206.137375
 20
33.846249
 11
206.137375
 21
7.346250
  0
ARC
  8
0
  6
CONTINUOUS
 10
201.137360
 20
171.346252
 40
5.000000
 50
-90.000000
 51
0.000000
  0
LINE
  8
0
  6
CONTINUOUS
 10
206.137375
 20
33.846249
 11
206.137375
 21
170.846252
  0
ARC
  8
0
  6
CONTINUOUS
 10
201.137405
 20
33.346230
 40
5.000000
 50
0.000000
 51
90.000000
  0
LINE
  8
0
  6
DASHED
 10
228.137375
 20
25.346251
 11
228.137375
 21
7.346250
  0
LINE
  8
0
  6
DASHED
 10
241.137375
 20
25.346251
 11
241.137375
 21
7.346250
  0
LINE
  8
0
  6
DASHED
 10
323.137390
 20
25.346251
 11
323.137390
 21
7.346250
  0
LINE
  8
0
  6
DASHED
 10
336.137390
 20
25.346251
 11
336.137390
 21
7.346250
  0
CIRCLE
  8
0
  6
CONTINUOUS
 10
282.137390
 20
147.346252
 40
39.000000
  0
ARC
  8
0
  6
CONTINUOUS
 10
282.137390
 20
147.346252
 40
44.000000
 50
12.523240
 51
167.476898
  0
ARC
  8
0
  6
CONTINUOUS
 10
256.637390
 20
88.346252
 40
29.000000
 50
167.476898
 51
270.000000
  0
ARC
  8
0
  6
CONTINUOUS
 10
307.637390
 20
88.346252
 40
29.000000
 50
-90.000000
 51
12.523240
  0
ARC
  8
0
  6
CONTINUOUS
 10
256.637390
 20
88.346252
 40
31.900000
 50
167.476898
 51
270.000000
  0
ARC
  8
0
  6
CONTINUOUS
 10
307.637390
 20
88.346252
 40
31.900000
 50
-90.000000
 51
12.523240
  0
ARC
  8
0
  6
CONTINUOUS
 10
282.137390
 20
147.346252
 40
41.099998
 50
-192.523102
 51
12.523240
  0
LINE
  8
0
  6
CONTINUOUS
 10
225.496384
 20
95.263252
 11
239.184189
 21
156.886948
  0
LINE
  8
0
  6
CONTINUOUS
 10
228.327377
 20
94.634438
 11
242.015182
 21
156.258133
  0
LINE
  8
0
  6
CONTINUOUS
 10
256.637390
 20
56.446251
 11
307.637390
 21
56.446251
  0
LINE
  8
0
  6
CONTINUOUS
 10
307.637390
 20
59.346249
 11
256.637390
 21
59.346249
  0
LINE
  8
0
  6
CONTINUOUS
 10
325.090576
 20
156.887024
 11
338.778381
 21
95.263313
  0
LINE
  8
0
  6
CONTINUOUS
 10
322.259583
 20
156.258209
 11
335.947388
 21
94.634491
  0
LINE
  8
0
  6
CONTINUOUS
 10
269.910370
 20
71.346252
 11
264.969971
 21
71.346252
  0
LINE
  8
0
  6
CONTINUOUS
 10
272.637390
 20
79.621651
 11
272.637390
 21
71.346252
  0
LINE
  8
0
  6
CONTINUOUS
 10
277.387390
 20
82.627502
 11
277.387390
 21
85.596252
  0
LINE
  8
0
  6
CONTINUOUS
 10
286.887390
 20
82.627502
 11
286.887390
 21
85.596252
  0
LINE
  8
0
  6
CONTINUOUS
 10
281.209595
 20
83.852112
 11
281.209595
 21
72.904846
  0
LINE
  8
0
  6
CONTINUOUS
 10
282.990967
 20
83.852112
 11
282.990967
 21
72.904846
  0
LINE
  8
0
  6
CONTINUOUS
 10
292.342590
 20
83.852112
 11
292.342590
 21
72.830627
  0
LINE
  8
0
  6
CONTINUOUS
 10
293.975372
 20
78.007393
 11
293.975372
 21
72.830627
  0
LINE
  8
0
  6
CONTINUOUS
 10
270.383392
 20
83.703674
 11
265.805786
 21
83.703674
  0
LINE
  8
0
  6
CONTINUOUS
 10
265.805786
 20
83.703674
 11
264.733185
 21
82.373672
  0
LINE
  8
0
  6
CONTINUOUS
 10
264.862183
 20
85.596252
 11
263.137390
 21
83.387787
  0
LINE
  8
0
  6
CONTINUOUS
 10
264.733185
 20
74.164093
 11
265.822968
 21
73.016167
  0
LINE
  8
0
  6
CONTINUOUS
 10
263.137390
 20
73.195374
 11
264.969971
 21
71.346252
  0
LINE
  8
0
  6
CONTINUOUS
 10
263.137390
 20
83.387787
 11
263.137390
 21
73.195374
  0
LINE
  8
0
  6
CONTINUOUS
 10
264.733185
 20
82.373672
 11
264.733185
 21
74.164093
  0
LINE
  8
0
  6
CONTINUOUS
 10
271.264374
 20
82.852112
 11
270.365387
 21
83.703674
  0
LINE
  8
0
  6
CONTINUOUS
 10
271.250183
 20
85.596252
 11
272.637390
 21
84.056671
  0
LINE
  8
0
  6
CONTINUOUS
 10
271.264374
 20
82.627502
 11
272.637390
 21
82.627502
  0
LINE
  8
0
  6
CONTINUOUS
 10
264.862183
 20
85.596252
 11
271.250183
 21
85.596252
  0
LINE
  8
0
  6
CONTINUOUS
 10
268.777985
 20
79.621651
 11
272.637390
 21
79.621651
  0
LINE
  8
0
  6
CONTINUOUS
 10
271.264374
 20
78.063049
 11
268.777985
 21
78.063049
  0
LINE
  8
0
  6
CONTINUOUS
 10
268.295593
 20
73.016167
 11
265.822968
 21
73.016167
  0
LINE
  8
0
  6
CONTINUOUS
 10
271.264374
 20
76.578667
 11
271.264374
 21
77.766167
  0
ARC
  8
0
  6
CONTINUOUS
 10
268.295593
 20
75.984909
 40
2.968750
 50
-89.999786
 51
0.000109
  0
LINE
  8
0
  6
CONTINUOUS
 10
271.264374
 20
72.482170
 11
271.264374
 21
71.346252
  0
LINE
  8
0
  6
CONTINUOUS
 10
272.637390
 20
84.056671
 11
272.637390
 21
82.627502
  0
LINE
  8
0
  6
CONTINUOUS
 10
271.264374
 20
78.063049
 11
271.264374
 21
75.984909
  0
LINE
  8
0
  6
CONTINUOUS
 10
268.777985
 20
79.621651
 11
268.777985
 21
78.063049
  0
LINE
  8
0
  6
CONTINUOUS
 10
271.264374
 20
71.346252
 11
272.637390
 21
71.346252
  0
LINE
  8
0
  6
CONTINUOUS
 10
271.264374
 20
72.482170
 11
269.910370
 21
71.346252
  0
LINE
  8
0
  6
CONTINUOUS
 10
282.990967
 20
72.904846
 11
283.584595
 21
72.904846
  0
LINE
  8
0
  6
CONTINUOUS
 10
280.504578
 20
72.904846
 11
280.504578
 21
71.346252
  0
LINE
  8
0
  6
CONTINUOUS
 10
283.584595
 20
72.904846
 11
283.584595
 21
71.346252
  0
LINE
  8
0
  6
CONTINUOUS
 10
285.896393
 20
82.627502
 11
286.887390
 21
82.627502
  0
LINE
  8
0
  6
CONTINUOUS
 10
277.387390
 20
82.627502
 11
278.441986
 21
82.627502
  0
LINE
  8
0
  6
CONTINUOUS
 10
277.387390
 20
85.596252
 11
286.887390
 21
85.596252
  0
LINE
  8
0
  6
CONTINUOUS
 10
280.504578
 20
71.346252
 11
283.584595
 21
71.346252
  0
LINE
  8
0
  6
CONTINUOUS
 10
280.504578
 20
72.904846
 11
281.209595
 21
72.904846
  0
ARC
  8
0
  6
CONTINUOUS
 10
297.333588
 20
81.792526
 40
3.803712
 50
-73.981873
 51
90.003510
  0
ARC
  8
0
  6
CONTINUOUS
 10
297.333588
 20
81.792526
 40
2.320524
 50
-82.585274
 51
62.411850
  0
LINE
  8
0
  6
CONTINUOUS
 10
291.637390
 20
85.596252
 11
297.333588
 21
85.596252
  0
LINE
  8
0
  6
CONTINUOUS
 10
297.633179
 20
79.491409
 11
293.975372
 21
79.491409
  0
LINE
  8
0
  6
CONTINUOUS
 10
291.637390
 20
85.596252
 11
291.637390
 21
83.852112
  0
LINE
  8
0
  6
CONTINUOUS
 10
293.975372
 20
83.852112
 11
293.975372
 21
79.491409
  0
LINE
  8
0
  6
CONTINUOUS
 10
298.383179
 20
78.136513
 11
300.737579
 21
72.830627
  0
LINE
  8
0
  6
CONTINUOUS
 10
297.015991
 20
78.007393
 11
299.243988
 21
72.830627
  0
LINE
  8
0
  6
CONTINUOUS
 10
291.637390
 20
72.830627
 11
292.342590
 21
72.830627
  0
LINE
  8
0
  6
CONTINUOUS
 10
293.975372
 20
72.830627
 11
294.624786
 21
72.830627
  0
LINE
  8
0
  6
CONTINUOUS
 10
294.624786
 20
71.346252
 11
291.637390
 21
71.346252
  0
LINE
  8
0
  6
CONTINUOUS
 10
298.947968
 20
72.830627
 11
299.243988
 21
72.830627
  0
LINE
  8
0
  6
CONTINUOUS
 10
300.737579
 20
72.830627
 11
301.137390
 21
72.830627
  0
LINE
  8
0
  6
CONTINUOUS
 10
298.947968
 20
71.346252
 11
301.137390
 21
71.346252
  0
LINE
  8
0
  6
CONTINUOUS
 10
301.137390
 20
72.830627
 11
301.137390
 21
71.346252
  0
LINE
  8
0
  6
CONTINUOUS
 10
298.947968
 20
72.830627
 11
298.947968
 21
71.346252
  0
LINE
  8
0
  6
CONTINUOUS
 10
294.624786
 20
72.830627
 11
294.624786
 21
71.346252
  0
LINE
  8
0
  6
CONTINUOUS
 10
291.637390
 20
72.830627
 11
291.637390
 21
71.346252
  0
LINE
  8
0
  6
CONTINUOUS
 10
278.952179
 20
83.852112
 11
278.441986
 21
82.627502
  0
LINE
  8
0
  6
CONTINUOUS
 10
285.466187
 20
83.852112
 11
285.896393
 21
82.627502
  0
LINE
  8
0
  6
CONTINUOUS
 10
282.990967
 20
83.852112
 11
285.466187
 21
83.852112
  0
LINE
  8
0
  6
CONTINUOUS
 10
281.209595
 20
83.852112
 11
278.952179
 21
83.852112
  0
LINE
  8
0
  6
CONTINUOUS
 10
293.975372
 20
78.007393
 11
297.015991
 21
78.007393
  0
LINE
  8
0
  6
CONTINUOUS
 10
291.637390
 20
83.852112
 11
292.342590
 21
83.852112
  0
LINE
  8
0
  6
CONTINUOUS
 10
293.975372
 20
83.852112
 11
298.408386
 21
83.849220
  0
LINE
  8
0
  6
CONTINUOUS
 10
271.264374
 20
82.852112
 11
271.264374
 21
82.627502
  0
ARC
  8
0
  6
CONTINUOUS
 10
385.846191
 20
102.346252
 40
185.208893
 50
166.001907
 51
193.998093
  0
LINE
  8
0
  6
CONTINUOUS
 10
220.137375
 20
23.279690
 11
220.137375
 21
7.346250
  0
LINE
  8
0
  6
CONTINUOUS
 10
344.137390
 20
23.279690
 11
344.137390
 21
7.346250
  0
LINE
  8
0
  6
CONTINUOUS
 10
305.894775
 20
30.346251
 11
258.379974
 21
30.346251
  0
LINE
  8
0
  6
CONTINUOUS
 10
257.137390
 20
29.410370
 11
257.137390
 21
26.346251
  0
LINE
  8
0
  6
CONTINUOUS
 10
308.015991
 20
29.467569
 11
310.672974
 21
26.810711
  0
LINE
  8
0
  6
CONTINUOUS
 10
256.258789
 20
29.467569
 11
253.601974
 21
26.810749
  0
LINE
  8
0
  6
CONTINUOUS
 10
307.137390
 20
29.410370
 11
307.137390
 21
26.346251
  0
ARC
  8
0
  6
CONTINUOUS
 10
250.066376
 20
30.346251
 40
5.000000
 50
270.000000
 51
315.000092
  0
ARC
  8
0
  6
CONTINUOUS
 10
258.379974
 20
27.346251
 40
3.000000
 50
90.000000
 51
135.000305
  0
ARC
  8
0
  6
CONTINUOUS
 10
256.137390
 20
26.346251
 40
1.000000
 50
-90.000000
 51
0.000000
  0
ARC
  8
0
  6
CONTINUOUS
 10
314.208374
 20
30.346251
 40
5.000000
 50
225.000000
 51
270.000000
  0
ARC
  8
0
  6
CONTINUOUS
 10
305.894775
 20
27.346251
 40
3.000000
 50
45.000160
 51
90.000000
  0
ARC
  8
0
  6
CONTINUOUS
 10
308.137390
 20
26.346251
 40
1.000000
 50
180.000000
 51
270.000000
  0
LINE
  8
0
  6
CONTINUOUS
 10
293.137390
 20
142.346283
 11
293.137390
 21
152.346283
  0
LINE
  8
0
  6
CONTINUOUS
 10
301.137390
 20
142.346313
 11
301.137390
 21
152.346313
  0
LINE
  8
0
  6
CONTINUOUS
 10
301.137390
 20
142.346313
 11
293.137390
 21
142.346283
  0
LINE
  8
0
  6
CONTINUOUS
 10
301.137390
 20
152.346313
 11
293.137390
 21
152.346283
  0
ARC
  8
0
  6
CONTINUOUS
 10
282.137390
 20
147.346252
 40
16.000000
 50
18.209900
 51
341.790100
  0
LINE
  8
0
  6
CENTER
 10
558.419983
 20
-7.773750
 11
558.419983
 21
230.957504
  0
LINE
  8
0
  6
CENTER
 10
477.832611
 20
102.346252
 11
634.647644
 21
102.346252
  0
LINE
  8
0
  6
CENTER
 10
423.769989
 20
147.346252
 11
629.117615
 21
147.346252
  0
LINE
  8
0
  6
CENTER
 10
618.419983
 20
33.944988
 11
618.419983
 21
-3.954130
  0
LINE
  8
0
  6
CENTER
 10
498.420013
 20
33.944988
 11
498.420013
 21
-3.954130
  0
LINE
  8
0
  6
CONTINUOUS
 10
483.420013
 20
7.346250
 11
528.419983
 21
7.346250
  0
LINE
  8
0
  6
CONTINUOUS
 10
588.419983
 20
7.346250
 11
633.419983
 21
7.346250
  0
LINE
  8
0
  6
CONTINUOUS
 10
630.919983
 20
25.346251
 11
607.419983
 21
25.346251
  0
LINE
  8
0
  6
CONTINUOUS
 10
485.920013
 20
25.346251
 11
509.420013
 21
25.346251
  0
LINE
  8
0
  6
CONTINUOUS
 10
603.419983
 20
208.613007
 11
603.419983
 21
7.346250
  0
LINE
  8
0
  6
CONTINUOUS
 10
513.419983
 20
195.087448
 11
513.419983
 21
208.612534
  0
LINE
  8
0
  6
CONTINUOUS
 10
633.419983
 20
23.228430
 11
633.419983
 21
7.346250
  0
LINE
  8
0
  6
CONTINUOUS
 10
483.420013
 20
23.228430
 11
483.420013
 21
7.346250
  0
LINE
  8
0
  6
CONTINUOUS
 10
529.919983
 20
8.846250
 11
586.919983
 21
8.846250
  0
LINE
  8
0
  6
CONTINUOUS
 10
600.472412
 20
211.612549
 11
558.419983
 21
212.346252
  0
LINE
  8
0
  6
CONTINUOUS
 10
516.367615
 20
211.612076
 11
558.419983
 21
212.346252
  0
LINE
  8
0
  6
CONTINUOUS
 10
496.420013
 20
112.087440
 11
496.420013
 21
182.605072
  0
LINE
  8
0
  6
CONTINUOUS
 10
620.419983
 20
112.087440
 11
620.419983
 21
182.605072
  0
LINE
  8
0
  6
CONTINUOUS
 10
503.420013
 20
63.102249
 11
503.420013
 21
151.256653
  0
LINE
  8
0
  6
CONTINUOUS
 10
613.419983
 20
63.102268
 11
613.419983
 21
151.256653
  0
LINE
  8
0
  6
DASHED
 10
624.919983
 20
25.346251
 11
624.919983
 21
7.346250
  0
LINE
  8
0
  6
DASHED
 10
611.919983
 20
25.346251
 11
611.919983
 21
7.346250
  0
LINE
  8
0
  6
DASHED
 10
504.920013
 20
25.346251
 11
504.920013
 21
7.346250
  0
LINE
  8
0
  6
DASHED
 10
491.920013
 20
25.346251
 11
491.920013
 21
7.346250
  0
ARC
  8
0
  6
CONTINUOUS
 10
516.419983
 20
208.612534
 40
3.000000
 50
91.000603
 51
180.000000
  0
ARC
  8
0
  6
CONTINUOUS
 10
600.419983
 20
208.612991
 40
3.000000
 50
0.000000
 51
89.000580
  0
LINE
  8
0
  6
CONTINUOUS
 10
509.830811
 20
190.290604
 11
500.009186
 21
187.401871
  0
LINE
  8
0
  6
CONTINUOUS
 10
500.009186
 20
107.290619
 11
500.548615
 21
107.131943
  0
LINE
  8
0
  6
CONTINUOUS
 10
507.027405
 20
58.300110
 11
509.812592
 21
57.492390
  0
LINE
  8
0
  6
CONTINUOUS
 10
485.509003
 20
25.694410
 11
510.913208
 21
29.928450
  0
LINE
  8
0
  6
CONTINUOUS
 10
631.330994
 20
25.694429
 11
605.926819
 21
29.928471
  0
LINE
  8
0
  6
CONTINUOUS
 10
609.812622
 20
58.300110
 11
607.027405
 21
57.492390
  0
LINE
  8
0
  6
CONTINUOUS
 10
616.830811
 20
107.290619
 11
616.291382
 21
107.131935
  0
LINE
  8
0
  6
CONTINUOUS
 10
616.830811
 20
187.401886
 11
607.009216
 21
190.290604
  0
LINE
  8
0
  6
CONTINUOUS
 10
515.994385
 20
179.846252
 11
600.672607
 21
179.846252
  0
ARC
  8
0
  6
CONTINUOUS
 10
501.420013
 20
182.605087
 40
5.000000
 50
106.389900
 51
180.000000
  0
ARC
  8
0
  6
CONTINUOUS
 10
615.419983
 20
182.605057
 40
5.000000
 50
0.000000
 51
73.610527
  0
ARC
  8
0
  6
CONTINUOUS
 10
501.420013
 20
112.087479
 40
5.000000
 50
180.000000
 51
253.610794
  0
ARC
  8
0
  6
CONTINUOUS
 10
615.419983
 20
112.087433
 40
5.000000
 50
-73.610321
 51
0.000000
  0
ARC
  8
0
  6
CONTINUOUS
 10
608.419983
 20
63.102249
 40
5.000000
 50
-73.827698
 51
0.000000
  0
ARC
  8
0
  6
CONTINUOUS
 10
508.420013
 20
63.102291
 40
5.000000
 50
180.000000
 51
253.828201
  0
LINE
  8
0
  6
CONTINUOUS
 10
513.419983
 20
195.087448
 11
513.419983
 21
7.346250
  0
ARC
  8
0
  6
CONTINUOUS
 10
508.420013
 20
195.087433
 40
5.000000
 50
-73.610229
 51
0.000000
  0
ARC
  8
0
  6
CONTINUOUS
 10
499.420013
 20
103.294464
 40
4.000000
 50
0.000000
 51
73.610649
  0
ARC
  8
0
  6
CONTINUOUS
 10
508.420013
 20
52.690231
 40
5.000000
 50
0.000000
 51
73.827919
  0
ARC
  8
0
  6
CONTINUOUS
 10
608.419983
 20
52.690269
 40
5.000000
 50
106.172501
 51
180.000000
  0
ARC
  8
0
  6
CONTINUOUS
 10
617.419983
 20
103.294495
 40
4.000000
 50
106.389999
 51
180.000000
  0
ARC
  8
0
  6
CONTINUOUS
 10
608.419983
 20
195.087463
 40
5.000000
 50
180.000000
 51
253.610794
  0
ARC
  8
0
  6
CONTINUOUS
 10
510.420013
 20
32.887630
 40
3.000000
 50
-80.537483
 51
0.000000
  0
ARC
  8
0
  6
CONTINUOUS
 10
509.420013
 20
29.346210
 40
4.000000
 50
-90.000000
 51
0.000000
  0
ARC
  8
0
  6
CONTINUOUS
 10
485.920013
 20
22.846270
 40
2.500000
 50
90.000000
 51
180.000000
  0
LINE
  8
0
  6
CONTINUOUS
 10
528.419983
 20
7.346250
 11
529.919983
 21
8.846250
  0
LINE
  8
0
  6
CONTINUOUS
 10
588.419983
 20
7.346250
 11
586.919983
 21
8.846250
  0
ARC
  8
0
  6
CONTINUOUS
 10
606.419983
 20
32.887669
 40
3.000000
 50
180.000000
 51
260.537903
  0
ARC
  8
0
  6
CONTINUOUS
 10
607.419983
 20
29.346251
 40
4.000000
 50
180.000000
 51
270.000000
  0
ARC
  8
0
  6
CONTINUOUS
 10
630.919983
 20
22.846251
 40
2.500000
 50
0.000000
 51
90.000000
  0
LINE
  8
0
  6
CONTINUOUS
 10
438.420013
 20
131.346252
 11
438.420013
 21
163.346252
  0
LINE
  8
0
  6
CONTINUOUS
 10
493.420013
 20
163.346252
 11
438.420013
 21
163.346252
  0
LINE
  8
0
  6
CONTINUOUS
 10
493.420013
 20
131.346252
 11
438.420013
 21
131.346252
  0
LINE
  8
0
  6
CONTINUOUS
 10
493.420013
 20
164.846252
 11
493.420013
 21
129.846252
  0
LINE
  8
0
  6
CONTINUOUS
 10
496.420013
 20
164.846252
 11
493.420013
 21
164.846252
  0
LINE
  8
0
  6
CONTINUOUS
 10
496.420013
 20
129.846252
 11
493.420013
 21
129.846252
  0
ARC
  8
0
  6
CONTINUOUS
 10
483.420013
 20
147.346252
 40
5.000000
 50
-90.000000
 51
90.000000
  0
LINE
  8
0
  6
CONTINUOUS
 10
483.420013
 20
152.346252
 11
438.420013
 21
152.346252
  0
LINE
  8
0
  6
CONTINUOUS
 10
483.420013
 20
142.346252
 11
438.420013
 21
142.346252
  0
ARC
  8
0
  6
CONTINUOUS
 10
485.920013
 20
23.228451
 40
2.500000
 50
99.462753
 51
180.000000
  0
ARC
  8
0
  6
CONTINUOUS
 10
630.919983
 20
23.228430
 40
2.500000
 50
0.000000
 51
80.537682
  0
LINE
  8
0
  6
CONTINUOUS
 10
194.137375
 20
166.346252
 11
194.137375
 21
38.346249
  0
ARC
  8
0
  6
CONTINUOUS
 10
558.419983
 20
102.346252
 40
64.000000
 50
165.638489
 51
210.753525
  0
ARC
  8
0
  6
CONTINUOUS
 10
558.419983
 20
102.346252
 40
64.000000
 50
-30.753519
 51
14.361512
  0
ARC
  8
0
  6
CONTINUOUS
 10
517.407776
 20
61.334030
 40
8.000000
 50
211.001404
 51
233.216995
  0
ARC
  8
0
  6
CONTINUOUS
 10
511.420013
 20
53.324909
 40
2.000000
 50
30.947910
 51
53.217121
  0
ARC
  8
0
  6
CONTINUOUS
 10
599.432190
 20
61.334030
 40
8.000000
 50
-53.216999
 51
-31.001400
  0
ARC
  8
0
  6
CONTINUOUS
 10
605.419983
 20
53.324909
 40
2.000000
 50
126.782883
 51
149.052094
  0
LINE
  8
0
  6
CENTER
 10
-17.485470
 20
89.346252
 11
239.023743
 21
89.346252
  0
LINE
  8
0
  6
CENTER
 10
105.942497
 20
102.346252
 11
239.023743
 21
102.346252
  0
LINE
  8
0
  6
CONTINUOUS
 10
185.637375
 20
343.404175
 11
185.637375
 21
467.404175
  0
LINE
  8
0
  6
CONTINUOUS
 10
139.637375
 20
450.404175
 11
183.201004
 21
451.925446
  0
LINE
  8
0
  6
CONTINUOUS
 10
139.637375
 20
360.404175
 11
183.201004
 21
358.882904
  0
LINE
  8
0
  6
CONTINUOUS
 10
139.637375
 20
454.416168
 11
139.637375
 21
356.392181
  0
LINE
  8
0
  6
CONTINUOUS
 10
187.637375
 20
469.404175
 11
194.137375
 21
469.404175
  0
LINE
  8
0
  6
CONTINUOUS
 10
187.637375
 20
341.404175
 11
194.137375
 21
341.404175
  0
LINE
  8
0
  6
CONTINUOUS
 10
178.494385
 20
429.404175
 11
185.609360
 21
429.404175
  0
LINE
  8
0
  6
CONTINUOUS
 10
179.099533
 20
381.404175
 11
185.609360
 21
381.404175
  0
LINE
  8
0
  6
CONTINUOUS
 10
178.494385
 20
427.199677
 11
178.494385
 21
383.487091
  0
LINE
  8
0
  6
CONTINUOUS
 10
130.637375
 20
448.404175
 11
130.637375
 21
434.404175
  0
LINE
  8
0
  6
CONTINUOUS
 10
20.637383
 20
450.404175
 11
139.637375
 21
450.404175
  0
LINE
  8
0
  6
CONTINUOUS
 10
20.637383
 20
360.404175
 11
139.637375
 21
360.404175
  0
LINE
  8
0
  6
CONTINUOUS
 10
20.637383
 20
450.404175
 11
20.637383
 21
430.404175
  0
LINE
  8
0
  6
CONTINUOUS
 10
20.637383
 20
434.404175
 11
130.637375
 21
434.404175
  0
LINE
  8
0
  6
CONTINUOUS
 10
20.637383
 20
376.404175
 11
130.637375
 21
376.404175
  0
ARC
  8
0
  6
CONTINUOUS
 10
132.637375
 20
448.404205
 40
2.000000
 50
90.000000
 51
180.000000
  0
ARC
  8
0
  6
CONTINUOUS
 10
132.637375
 20
362.404175
 40
2.000000
 50
180.000000
 51
270.000000
  0
LINE
  8
0
  6
CONTINUOUS
 10
0.137382
 20
370.404175
 11
0.137382
 21
440.404175
  0
LINE
  8
0
  6
CONTINUOUS
 10
4.678824
 20
450.404175
 11
20.637383
 21
450.404175
  0
LINE
  8
0
  6
CONTINUOUS
 10
0.637382
 20
447.404175
 11
0.637382
 21
363.404175
  0
LINE
  8
0
  6
CONTINUOUS
 10
20.637383
 20
434.404175
 11
2.387382
 21
434.404175
  0
LINE
  8
0
  6
CONTINUOUS
 10
1.214728
 20
448.404175
 11
0.637382
 21
447.404175
  0
ARC
  8
0
  6
CONTINUOUS
 10
4.678840
 20
446.404175
 40
4.000000
 50
90.000000
 51
150.000397
  0
LINE
  8
0
  6
CONTINUOUS
 10
4.678824
 20
360.404175
 11
20.637383
 21
360.404175
  0
LINE
  8
0
  6
CONTINUOUS
 10
20.637383
 20
376.404175
 11
2.387382
 21
376.404175
  0
LINE
  8
0
  6
CONTINUOUS
 10
1.214728
 20
362.404175
 11
0.637382
 21
363.404175
  0
ARC
  8
0
  6
CONTINUOUS
 10
4.678840
 20
364.404175
 40
4.000000
 50
-150.000397
 51
-90.000000
  0
LINE
  8
0
  6
CONTINUOUS
 10
0.137382
 20
440.404175
 11
0.637382
 21
440.904175
  0
LINE
  8
0
  6
CONTINUOUS
 10
0.137382
 20
370.404175
 11
0.637382
 21
369.904175
  0
LINE
  8
0
  6
CONTINUOUS
 10
139.637375
 20
450.404175
 11
139.637375
 21
360.404175
  0
ARC
  8
0
  6
CONTINUOUS
 10
187.637375
 20
467.404175
 40
2.000000
 50
90.000000
 51
180.000000
  0
ARC
  8
0
  6
CONTINUOUS
 10
187.637375
 20
343.404175
 40
2.000000
 50
180.000000
 51
270.000000
  0
ARC
  8
0
  6
CONTINUOUS
 10
183.113754
 20
454.423920
 40
2.500000
 50
272.000000
 51
359.895721
  0
ARC
  8
0
  6
CONTINUOUS
 10
183.113754
 20
356.384430
 40
2.500000
 50
0.104292
 51
88.000000
  0
LINE
  8
0
  6
CONTINUOUS
 10
185.637375
 20
452.010529
 11
185.609360
 21
452.009552
  0
LINE
  8
0
  6
CONTINUOUS
 10
140.137070
 20
454.933624
 11
185.637375
 21
456.522522
  0
LINE
  8
0
  6
CONTINUOUS
 10
139.637375
 20
454.416168
 11
140.137070
 21
454.933624
  0
LINE
  8
0
  6
CONTINUOUS
 10
140.137070
 20
355.874725
 11
185.637375
 21
354.285828
  0
LINE
  8
0
  6
CONTINUOUS
 10
139.637375
 20
356.392181
 11
140.137070
 21
355.874725
  0
LINE
  8
0
  6
CONTINUOUS
 10
20.637383
 20
380.404175
 11
20.637383
 21
360.404175
  0
LINE
  8
0
  6
CONTINUOUS
 10
130.637375
 20
132.346252
 11
130.637375
 21
46.346230
  0
LINE
  8
0
  6
CONTINUOUS
 10
20.637383
 20
134.346252
 11
139.637375
 21
134.346252
  0
LINE
  8
0
  6
CONTINUOUS
 10
20.637383
 20
44.346249
 11
139.637375
 21
44.346249
  0
LINE
  8
0
  6
CONTINUOUS
 10
20.637383
 20
134.346252
 11
20.637383
 21
44.346249
  0
LINE
  8
0
  6
CONTINUOUS
 10
20.637383
 20
123.755547
 11
129.599701
 21
123.755547
  0
LINE
  8
0
  6
CONTINUOUS
 10
20.637383
 20
54.936951
 11
129.599701
 21
54.936951
  0
ARC
  8
0
  6
CONTINUOUS
 10
132.637375
 20
132.346268
 40
2.000000
 50
90.000000
 51
180.000000
  0
ARC
  8
0
  6
CONTINUOUS
 10
132.637375
 20
46.346249
 40
2.000000
 50
180.000000
 51
270.000000
  0
LINE
  8
0
  6
CONTINUOUS
 10
0.137382
 20
54.346249
 11
0.137382
 21
124.346252
  0
LINE
  8
0
  6
CONTINUOUS
 10
4.678824
 20
134.346252
 11
20.637383
 21
134.346252
  0
LINE
  8
0
  6
CONTINUOUS
 10
0.637382
 20
131.346252
 11
0.637382
 21
47.346249
  0
LINE
  8
0
  6
CONTINUOUS
 10
20.637383
 20
123.755547
 11
2.387382
 21
123.755547
  0
LINE
  8
0
  6
CONTINUOUS
 10
1.214728
 20
132.346237
 11
0.637382
 21
131.346252
  0
ARC
  8
0
  6
CONTINUOUS
 10
4.678840
 20
130.346252
 40
4.000000
 50
90.000000
 51
150.000397
  0
LINE
  8
0
  6
CONTINUOUS
 10
4.678824
 20
44.346249
 11
20.637383
 21
44.346249
  0
LINE
  8
0
  6
CONTINUOUS
 10
20.637383
 20
54.936951
 11
2.387382
 21
54.936951
  0
LINE
  8
0
  6
CONTINUOUS
 10
1.214728
 20
46.346249
 11
0.637382
 21
47.346249
  0
ARC
  8
0
  6
CONTINUOUS
 10
4.678840
 20
48.346230
 40
4.000000
 50
-150.000397
 51
-90.000000
  0
LINE
  8
0
  6
CONTINUOUS
 10
0.137382
 20
124.346252
 11
0.637382
 21
124.846252
  0
LINE
  8
0
  6
CONTINUOUS
 10
0.137382
 20
54.346249
 11
0.637382
 21
53.846249
  0
LINE
  8
0
  6
CONTINUOUS
 10
187.637375
 20
166.346359
 11
194.137375
 21
166.346359
  0
LINE
  8
0
  6
CONTINUOUS
 10
187.637375
 20
38.346153
 11
194.137375
 21
38.346153
  0
LINE
  8
0
  6
CONTINUOUS
 10
139.637375
 20
134.346252
 11
185.637375
 21
135.952606
  0
LINE
  8
0
  6
CONTINUOUS
 10
194.137375
 20
42.443069
 11
139.637375
 21
44.346249
  0
ARC
  8
0
  6
CONTINUOUS
 10
187.637405
 20
164.346375
 40
2.000000
 50
90.000000
 51
180.000000
  0
ARC
  8
0
  6
CONTINUOUS
 10
187.637375
 20
40.346153
 40
2.000000
 50
180.260773
 51
270.000000
  0
LINE
  8
0
  6
CONTINUOUS
 10
139.637375
 20
134.346252
 11
139.637375
 21
44.346249
  0
LINE
  8
0
  6
CONTINUOUS
 10
184.905151
 20
142.114014
 11
179.190643
 21
136.399506
  0
LINE
  8
0
  6
CONTINUOUS
 10
139.637375
 20
68.840248
 11
183.637375
 21
68.840248
  0
LINE
  8
0
  6
CONTINUOUS
 10
139.637375
 20
53.827251
 11
194.137375
 21
53.827251
  0
LINE
  8
0
  6
CONTINUOUS
 10
186.205353
 20
61.779251
 11
194.137375
 21
61.779251
  0
LINE
  8
0
  6
CONTINUOUS
 10
185.637375
 20
62.993984
 11
185.637375
 21
164.346375
  0
ARC
  8
0
  6
CONTINUOUS
 10
183.137421
 20
40.325672
 40
2.500000
 50
0.260773
 51
88.000000
  0
ARC
  8
0
  6
CONTINUOUS
 10
183.137375
 20
143.881790
 40
2.500000
 50
-45.000000
 51
0.000000
  0
ARC
  8
0
  6
CONTINUOUS
 10
177.422867
 20
138.167267
 40
2.500000
 50
272.000000
 51
315.000000
  0
LINE
  8
0
  6
CONTINUOUS
 10
10.637382
 20
412.904175
 11
11.637382
 21
412.904175
  0
ARC
  8
0
  6
CONTINUOUS
 10
10.637402
 20
411.904175
 40
1.000000
 50
90.000000
 51
180.000000
  0
LINE
  8
0
  6
CONTINUOUS
 10
6.137397
 20
409.404175
 11
6.137397
 21
401.404175
  0
LINE
  8
0
  6
CONTINUOUS
 10
6.137397
 20
409.404175
 11
9.637397
 21
410.904175
  0
LINE
  8
0
  6
CONTINUOUS
 10
6.137382
 20
401.404175
 11
9.637382
 21
399.904175
  0
LINE
  8
0
  6
CONTINUOUS
 10
9.637397
 20
411.904175
 11
9.637397
 21
398.904175
  0
LINE
  8
0
  6
CONTINUOUS
 10
10.637382
 20
397.904175
 11
11.637382
 21
397.904175
  0
ARC
  8
0
  6
CONTINUOUS
 10
10.637402
 20
398.904175
 40
1.000000
 50
-180.000000
 51
-90.000000
  0
LINE
  8
0
  6
CONTINUOUS
 10
11.637382
 20
382.404175
 11
11.637382
 21
428.404175
  0
LINE
  8
0
  6
CONTINUOUS
 10
13.637382
 20
430.404175
 11
11.637382
 21
428.404175
  0
LINE
  8
0
  6
CONTINUOUS
 10
13.637382
 20
430.404175
 11
59.637371
 21
430.404175
  0
LINE
  8
0
  6
CONTINUOUS
 10
54.137383
 20
425.904175
 11
54.137383
 21
430.404175
  0
ARC
  8
0
  6
CONTINUOUS
 10
57.137383
 20
425.904175
 40
3.000000
 50
180.000000
 51
270.000000
  0
LINE
  8
0
  6
CONTINUOUS
 10
57.137383
 20
422.904175
 11
61.637371
 21
422.904175
  0
CIRCLE
  8
0
  6
CONTINUOUS
 10
58.137383
 20
426.904175
 40
2.250000
  0
LINE
  8
0
  6
CONTINUOUS
 10
61.637375
 20
382.404175
 11
61.637371
 21
428.404175
  0
LINE
  8
0
  6
CONTINUOUS
 10
59.637371
 20
430.404175
 11
61.637371
 21
428.404175
  0
LINE
  8
0
  6
CONTINUOUS
 10
59.637375
 20
380.404175
 11
61.637375
 21
382.404175
  0
LINE
  8
0
  6
CONTINUOUS
 10
59.637375
 20
380.404175
 11
13.637382
 21
380.404175
  0
LINE
  8
0
  6
CONTINUOUS
 10
11.637382
 20
382.404175
 11
13.637382
 21
380.404175
  0
LINE
  8
0
  6
CONTINUOUS
 10
16.137383
 20
387.904175
 11
11.637392
 21
387.904175
  0
CIRCLE
  8
0
  6
CONTINUOUS
 10
15.137382
 20
383.904175
 40
2.250000
  0
ARC
  8
0
  6
CONTINUOUS
 10
16.137383
 20
384.904175
 40
3.000000
 50
0.000000
 51
90.000000
  0
LINE
  8
0
  6
CONTINUOUS
 10
19.137383
 20
384.904175
 11
19.137383
 21
380.404175
  0
LINE
  8
0
  6
CENTER
 10
36.637383
 20
372.938385
 11
36.637383
 21
437.070404
  0
LINE
  8
0
  6
CONTINUOUS
 10
14.051601
 20
429.404175
 11
12.637388
 21
427.989960
  0
LINE
  8
0
  6
CONTINUOUS
 10
12.637388
 20
387.904175
 11
12.637388
 21
427.989960
  0
LINE
  8
0
  6
CONTINUOUS
 10
54.137383
 20
429.404175
 11
14.051601
 21
429.404175
  0
LINE
  8
0
  6
CONTINUOUS
 10
60.637375
 20
422.904175
 11
60.637375
 21
382.818390
  0
LINE
  8
0
  6
CONTINUOUS
 10
19.137383
 20
381.404175
 11
59.223164
 21
381.404175
  0
LINE
  8
0
  6
CONTINUOUS
 10
59.223164
 20
381.404175
 11
60.637375
 21
382.818390
  0
LINE
  8
0
  6
CONTINUOUS
 10
13.137382
 20
135.846252
 11
59.637383
 21
135.846252
  0
LINE
  8
0
  6
CONTINUOUS
 10
61.637371
 20
165.846252
 11
61.637383
 21
137.846252
  0
LINE
  8
0
  6
CONTINUOUS
 10
11.637382
 20
165.846252
 11
11.637382
 21
137.846252
  0
LINE
  8
0
  6
CONTINUOUS
 10
9.637382
 20
147.846252
 11
61.637383
 21
147.846252
  0
LINE
  8
0
  6
CONTINUOUS
 10
59.637383
 20
135.846252
 11
61.637383
 21
137.846252
  0
LINE
  8
0
  6
CONTINUOUS
 10
11.637382
 20
137.846252
 11
13.637382
 21
135.846252
  0
LINE
  8
0
  6
CONTINUOUS
 10
11.637382
 20
137.846252
 11
61.637383
 21
137.846252
  0
LINE
  8
0
  6
CONTINUOUS
 10
12.637382
 20
166.846252
 11
60.637371
 21
166.846252
  0
LINE
  8
0
  6
CONTINUOUS
 10
60.637371
 20
166.846252
 11
61.637371
 21
165.846252
  0
LINE
  8
0
  6
CONTINUOUS
 10
12.637382
 20
166.846252
 11
11.637382
 21
165.846252
  0
LINE
  8
0
  6
CONTINUOUS
 10
11.637382
 20
165.846252
 11
61.637371
 21
165.846252
  0
LINE
  8
0
  6
CENTER
 10
3.693634
 20
157.346252
 11
15.768632
 21
157.346252
  0
LINE
  8
0
  6
CONTINUOUS
 10
9.637390
 20
163.846252
 11
9.637382
 21
147.846252
  0
LINE
  8
0
  6
CONTINUOUS
 10
10.637382
 20
164.846252
 11
11.637382
 21
164.846252
  0
ARC
  8
0
  6
CONTINUOUS
 10
10.637392
 20
163.846252
 40
1.000000
 50
90.000000
 51
180.000000
  0
LINE
  8
0
  6
CONTINUOUS
 10
6.137390
 20
161.346252
 11
6.137390
 21
153.346252
  0
LINE
  8
0
  6
CONTINUOUS
 10
6.137390
 20
161.346252
 11
9.637390
 21
162.846252
  0
LINE
  8
0
  6
CONTINUOUS
 10
6.137382
 20
153.346252
 11
9.637382
 21
151.846252
  0
LINE
  8
0
  6
CENTER
 10
36.637383
 20
131.152496
 11
36.637383
 21
172.233749
  0
LINE
  8
0
  6
CONTINUOUS
 10
13.137382
 20
135.846252
 11
13.137382
 21
134.346252
  0
LINE
  8
0
  6
CONTINUOUS
 10
59.137383
 20
135.846252
 11
59.137383
 21
134.346252
  0
LINE
  8
0
  6
CONTINUOUS
 10
130.637375
 20
376.404175
 11
130.637375
 21
362.404175
  0
TEXT
  8
0
 10
-17.000000
 20
-7.000000
 40
4.000000
 41
1.000000
  1
HLM-32R-1200~1800-S40WT
 50
0.000000
  0
ENDSEC
  0
EOF
