  0
SECTION
  2
HEADER
  9
$CLAYER
  8
1
  9
$LTSCALE
 40
3.0
  0
ENDSEC
  0
SECTION
  2
TABLES
  0
TABLE
  2
LTYPE
 70
     4
  0
LTYPE
  2
CONTINUOUS
  3
solid line
 70
    64
 72
    65
 73
     0
 40
0.0
  0
LTYPE
  2
DASHED
  3
__ __ __ __ __ __ __ __ __ __ __ __ __ __ __
 70
    64
 72
    65
 73
     2
 40
0.75
 49
0.5
 49
-0.25
  0
LTYPE
  2
CENTER
  3
____ _ ____ _ ____ _ ____ _ ____ _ ____ _ ____
 70
    64
 72
    65
 73
     4
 40
2.0
 49
1.25
 49
-0.25
 49
0.25
 49
-0.25
  0
LTYPE
  2
PHANTOM
  3
_____ _ _ _____ _ _ _____ _ _ _____ _ _ ____
 70
    64
 72
    65
 73
     6
 40
2.5
 49
1.25
 49
-0.25
 49
0.25
 49
-0.25
 49
0.25
 49
-0.25
  0
ENDTAB
  0
TABLE
  2
LAYER
 70
     1
  0
LAYER
  2
0
 70
    64
 62
     7
  6
CONTINUOUS
  0
ENDTAB
  0
TABLE
  2
STYLE
 70
     1
  0
STYLE
  2
STANDARD
 70
     0
 40
0.000000
 41
1.000000
 50
0.000000
 71
     0
 42
3.000000
  3
txt
  4
BIGFONT
  0
ENDTAB
  0
ENDSEC
  0
SECTION
  2
BLOCKS
  0
ENDSEC
  0
SECTION
  2
ENTITIES
  0
LINE
  8
0
  6
CENTER
 10
314.603638
 20
499.952515
 11
314.603638
 21
273.617493
  0
LINE
  8
0
  6
CONTINUOUS
 10
390.603821
 20
405.404175
 11
389.818359
 21
450.404175
  0
LINE
  8
0
  6
CONTINUOUS
 10
256.153564
 20
480.404175
 11
314.603638
 21
480.404175
  0
LINE
  8
0
  6
CONTINUOUS
 10
380.547211
 20
475.205383
 11
389.818359
 21
450.404175
  0
ARC
  8
0
  6
CONTINUOUS
 10
373.053680
 20
472.404175
 40
8.000000
 50
20.496618
 51
90.000000
  0
LINE
  8
0
  6
CONTINUOUS
 10
390.603821
 20
405.404175
 11
389.818359
 21
360.404175
  0
LINE
  8
0
  6
CONTINUOUS
 10
256.153564
 20
330.404175
 11
298.603638
 21
330.404175
  0
LINE
  8
0
  6
CONTINUOUS
 10
380.547211
 20
335.602966
 11
389.818359
 21
360.404175
  0
ARC
  8
0
  6
CONTINUOUS
 10
373.053680
 20
338.404175
 40
8.000000
 50
-90.000000
 51
-20.496618
  0
LINE
  8
0
  6
CONTINUOUS
 10
248.660034
 20
475.205383
 11
239.605240
 21
450.982910
  0
ARC
  8
0
  6
CONTINUOUS
 10
256.153564
 20
472.404175
 40
8.000000
 50
90.000000
 51
159.503387
  0
LINE
  8
0
  6
CONTINUOUS
 10
248.660034
 20
335.602966
 11
239.605240
 21
359.825470
  0
ARC
  8
0
  6
CONTINUOUS
 10
256.153564
 20
338.404175
 40
8.000000
 50
200.496613
 51
270.000000
  0
LINE
  8
0
  6
CONTINUOUS
 10
241.940262
 20
450.404175
 11
386.870270
 21
450.404175
  0
LINE
  8
0
  6
CONTINUOUS
 10
386.870270
 20
360.404175
 11
241.940262
 21
360.404175
  0
LINE
  8
0
  6
CONTINUOUS
 10
314.603638
 20
467.404175
 11
349.862427
 21
467.404175
  0
ARC
  8
0
  6
CONTINUOUS
 10
386.870270
 20
447.404175
 40
3.000000
 50
1.000000
 51
90.000000
  0
ARC
  8
0
  6
CONTINUOUS
 10
386.870270
 20
363.404175
 40
3.000000
 50
270.000000
 51
359.000000
  0
LINE
  8
0
  6
CONTINUOUS
 10
343.603638
 20
447.404175
 11
343.603638
 21
363.404175
  0
LINE
  8
0
  6
CONTINUOUS
 10
285.603638
 20
447.404175
 11
285.603638
 21
363.404175
  0
LINE
  8
0
  6
CONTINUOUS
 10
226.603638
 20
469.404175
 11
226.603638
 21
341.404175
  0
LINE
  8
0
  6
CONTINUOUS
 10
229.175964
 20
469.404175
 11
226.603638
 21
469.404175
  0
LINE
  8
0
  6
CONTINUOUS
 10
354.659271
 20
463.815002
 11
355.662445
 21
460.404175
  0
ARC
  8
0
  6
CONTINUOUS
 10
349.862427
 20
462.404175
 40
5.000000
 50
16.389540
 51
90.000000
  0
LINE
  8
0
  6
CONTINUOUS
 10
370.149780
 20
456.796814
 11
370.957489
 21
454.011566
  0
LINE
  8
0
  6
CONTINUOUS
 10
365.347626
 20
460.404175
 11
355.662445
 21
460.404175
  0
LINE
  8
0
  6
CONTINUOUS
 10
314.603638
 20
467.404175
 11
279.344818
 21
467.404175
  0
LINE
  8
0
  6
CONTINUOUS
 10
314.603638
 20
343.404175
 11
349.862427
 21
343.404175
  0
LINE
  8
0
  6
CONTINUOUS
 10
314.603638
 20
343.404175
 11
279.344818
 21
343.404175
  0
LINE
  8
0
  6
CONTINUOUS
 10
314.603638
 20
480.404175
 11
373.053680
 21
480.404175
  0
LINE
  8
0
  6
CONTINUOUS
 10
333.603638
 20
285.404175
 11
298.603638
 21
285.404175
  0
LINE
  8
0
  6
CONTINUOUS
 10
298.603638
 20
340.404175
 11
298.603638
 21
285.404175
  0
LINE
  8
0
  6
CONTINUOUS
 10
330.603638
 20
340.404175
 11
330.603638
 21
335.404175
  0
LINE
  8
0
  6
CONTINUOUS
 10
297.103638
 20
340.404175
 11
332.103638
 21
340.404175
  0
LINE
  8
0
  6
CONTINUOUS
 10
297.103638
 20
343.404175
 11
297.103638
 21
340.404175
  0
LINE
  8
0
  6
CONTINUOUS
 10
332.103638
 20
343.404175
 11
332.103638
 21
340.404175
  0
LINE
  8
0
  6
CONTINUOUS
 10
333.603638
 20
285.404175
 11
333.603638
 21
335.404175
  0
LINE
  8
0
  6
CONTINUOUS
 10
329.802307
 20
335.404175
 11
333.603638
 21
335.404175
  0
LINE
  8
0
  6
CONTINUOUS
 10
329.802307
 20
335.404175
 11
329.802307
 21
285.404175
  0
LINE
  8
0
  6
CONTINUOUS
 10
333.603638
 20
330.404175
 11
373.053680
 21
330.404175
  0
LINE
  8
0
  6
CENTER
 10
352.227295
 20
465.404175
 11
371.164795
 21
465.404175
  0
LINE
  8
0
  6
CENTER
 10
362.103638
 20
456.251831
 11
362.103638
 21
475.751831
  0
ARC
  8
0
  6
CONTINUOUS
 10
362.103638
 20
465.404175
 40
6.500000
 50
-51.240688
 51
230.284866
  0
ARC
  8
0
  6
CONTINUOUS
 10
267.103638
 20
465.404175
 40
6.500000
 50
-50.284863
 51
231.240692
  0
LINE
  8
0
  6
CENTER
 10
267.103638
 20
456.251831
 11
267.103638
 21
475.751831
  0
LINE
  8
0
  6
CENTER
 10
276.979950
 20
465.404175
 11
258.042450
 21
465.404175
  0
LINE
  8
0
  6
CENTER
 10
-21.359375
 20
405.404175
 11
402.024658
 21
405.404175
  0
LINE
  8
0
  6
CONTINUOUS
 10
234.005585
 20
465.698273
 11
237.110641
 21
454.110077
  0
ARC
  8
0
  6
CONTINUOUS
 10
241.940262
 20
455.404175
 40
5.000000
 50
195.000000
 51
270.000000
  0
ARC
  8
0
  6
CONTINUOUS
 10
229.175964
 20
464.404175
 40
5.000000
 50
15.000000
 51
90.000000
  0
LINE
  8
0
  6
CONTINUOUS
 10
229.175964
 20
341.404175
 11
226.603638
 21
341.404175
  0
LINE
  8
0
  6
CONTINUOUS
 10
234.005585
 20
345.110077
 11
237.110641
 21
356.698273
  0
ARC
  8
0
  6
CONTINUOUS
 10
229.175964
 20
346.404175
 40
5.000000
 50
-90.000000
 51
-15.000000
  0
ARC
  8
0
  6
CONTINUOUS
 10
241.940262
 20
355.404175
 40
5.000000
 50
-270.000000
 51
-195.000000
  0
LINE
  8
0
  6
CONTINUOUS
 10
238.603439
 20
405.404175
 11
239.337463
 21
447.456543
  0
LINE
  8
0
  6
CONTINUOUS
 10
238.603439
 20
405.404175
 11
239.337463
 21
363.351837
  0
ARC
  8
0
  6
CONTINUOUS
 10
242.337006
 20
447.404175
 40
3.000000
 50
90.000000
 51
179.000000
  0
ARC
  8
0
  6
CONTINUOUS
 10
242.337006
 20
363.404175
 40
3.000000
 50
-179.000000
 51
-90.000000
  0
ARC
  8
0
  6
CONTINUOUS
 10
365.347626
 20
455.404175
 40
5.000000
 50
16.172159
 51
90.000000
  0
ARC
  8
0
  6
CONTINUOUS
 10
375.759644
 20
455.404175
 40
5.000000
 50
196.172165
 51
270.000000
  0
LINE
  8
0
  6
CONTINUOUS
 10
372.003632
 20
450.404175
 11
372.006836
 21
450.393097
  0
ARC
  8
0
  6
CONTINUOUS
 10
279.344818
 20
462.404175
 40
5.000000
 50
90.000000
 51
163.610458
  0
LINE
  8
0
  6
CONTINUOUS
 10
274.548004
 20
463.815002
 11
273.544800
 21
460.404175
  0
LINE
  8
0
  6
CONTINUOUS
 10
259.057495
 20
456.796814
 11
258.249786
 21
454.011566
  0
LINE
  8
0
  6
CONTINUOUS
 10
263.859650
 20
460.404175
 11
273.544800
 21
460.404175
  0
ARC
  8
0
  6
CONTINUOUS
 10
263.859650
 20
455.404175
 40
5.000000
 50
90.000000
 51
163.827835
  0
ARC
  8
0
  6
CONTINUOUS
 10
253.447632
 20
455.404175
 40
5.000000
 50
-90.000000
 51
-16.172159
  0
LINE
  8
0
  6
CONTINUOUS
 10
257.203644
 20
450.404175
 11
257.200409
 21
450.393097
  0
ARC
  8
0
  6
CONTINUOUS
 10
267.103638
 20
345.404175
 40
6.500000
 50
-231.240692
 51
50.284863
  0
LINE
  8
0
  6
CENTER
 10
276.979950
 20
345.404175
 11
258.042450
 21
345.404175
  0
ARC
  8
0
  6
CONTINUOUS
 10
279.344818
 20
348.404175
 40
5.000000
 50
196.389542
 51
270.000000
  0
LINE
  8
0
  6
CONTINUOUS
 10
274.548004
 20
346.993347
 11
273.544800
 21
350.404175
  0
LINE
  8
0
  6
CONTINUOUS
 10
259.057495
 20
354.011566
 11
258.249786
 21
356.796814
  0
LINE
  8
0
  6
CONTINUOUS
 10
263.859650
 20
350.404175
 11
273.544800
 21
350.404175
  0
ARC
  8
0
  6
CONTINUOUS
 10
263.859650
 20
355.404175
 40
5.000000
 50
-163.827835
 51
-90.000000
  0
ARC
  8
0
  6
CONTINUOUS
 10
253.447632
 20
355.404175
 40
5.000000
 50
16.172159
 51
90.000000
  0
LINE
  8
0
  6
CONTINUOUS
 10
257.203644
 20
360.404175
 11
257.200409
 21
360.415283
  0
LINE
  8
0
  6
CENTER
 10
267.103638
 20
354.556519
 11
267.103638
 21
335.056519
  0
LINE
  8
0
  6
CONTINUOUS
 10
354.659271
 20
346.993347
 11
355.662445
 21
350.404175
  0
ARC
  8
0
  6
CONTINUOUS
 10
349.862427
 20
348.404175
 40
5.000000
 50
-90.000000
 51
-16.389540
  0
LINE
  8
0
  6
CONTINUOUS
 10
370.149780
 20
354.011566
 11
370.957489
 21
356.796814
  0
LINE
  8
0
  6
CONTINUOUS
 10
365.347626
 20
350.404175
 11
355.662445
 21
350.404175
  0
LINE
  8
0
  6
CENTER
 10
352.227295
 20
345.404175
 11
371.164795
 21
345.404175
  0
LINE
  8
0
  6
CENTER
 10
362.103638
 20
354.556519
 11
362.103638
 21
335.056519
  0
ARC
  8
0
  6
CONTINUOUS
 10
362.103638
 20
345.404175
 40
6.500000
 50
-230.284866
 51
51.240688
  0
ARC
  8
0
  6
CONTINUOUS
 10
365.347626
 20
355.404175
 40
5.000000
 50
-90.000000
 51
-16.172159
  0
ARC
  8
0
  6
CONTINUOUS
 10
375.759644
 20
355.404175
 40
5.000000
 50
-270.000000
 51
-196.172165
  0
LINE
  8
0
  6
CONTINUOUS
 10
372.003632
 20
360.404175
 11
372.006836
 21
360.415283
  0
LINE
  8
0
  6
CENTER
 10
314.603638
 20
226.217499
 11
314.603638
 21
-3.286630
  0
LINE
  8
0
  6
CENTER
 10
250.719025
 20
147.346252
 11
367.288635
 21
147.346252
  0
LINE
  8
0
  6
CENTER
 10
362.103638
 20
32.621689
 11
362.103638
 21
-1.243050
  0
LINE
  8
0
  6
CENTER
 10
267.103638
 20
32.621689
 11
267.103638
 21
-1.534990
  0
LINE
  8
0
  6
CONTINUOUS
 10
238.603638
 20
7.346250
 11
390.603638
 21
7.346250
  0
LINE
  8
0
  6
CONTINUOUS
 10
238.603638
 20
25.346251
 11
390.603638
 21
25.346251
  0
LINE
  8
0
  6
CONTINUOUS
 10
390.603638
 20
175.651810
 11
390.603638
 21
7.346250
  0
LINE
  8
0
  6
CONTINUOUS
 10
238.603638
 20
170.846252
 11
238.603638
 21
175.651810
  0
LINE
  8
0
  6
CONTINUOUS
 10
288.100220
 20
212.346252
 11
341.107025
 21
212.346252
  0
LINE
  8
0
  6
CONTINUOUS
 10
233.603638
 20
166.346252
 11
226.603638
 21
166.346252
  0
LINE
  8
0
  6
CONTINUOUS
 10
233.603638
 20
38.346249
 11
226.603638
 21
38.346249
  0
LINE
  8
0
  6
CONTINUOUS
 10
387.153625
 20
182.231873
 11
345.657043
 21
210.926315
  0
LINE
  8
0
  6
CONTINUOUS
 10
242.053589
 20
182.231873
 11
283.550232
 21
210.926315
  0
ARC
  8
0
  6
CONTINUOUS
 10
341.107025
 20
204.346252
 40
8.000000
 50
55.336689
 51
90.000000
  0
ARC
  8
0
  6
CONTINUOUS
 10
382.603638
 20
175.651764
 40
8.000000
 50
0.000000
 51
55.336739
  0
ARC
  8
0
  6
CONTINUOUS
 10
288.100220
 20
204.346252
 40
8.000000
 50
90.000000
 51
124.663696
  0
ARC
  8
0
  6
CONTINUOUS
 10
246.603638
 20
175.651855
 40
8.000000
 50
124.663803
 51
180.000000
  0
LINE
  8
0
  6
CONTINUOUS
 10
238.603638
 20
33.846249
 11
238.603638
 21
7.346250
  0
ARC
  8
0
  6
CONTINUOUS
 10
233.603607
 20
171.346252
 40
5.000000
 50
-90.000000
 51
0.000000
  0
LINE
  8
0
  6
CONTINUOUS
 10
238.603638
 20
33.846249
 11
238.603638
 21
170.846252
  0
ARC
  8
0
  6
CONTINUOUS
 10
233.603653
 20
33.346230
 40
5.000000
 50
0.000000
 51
90.000000
  0
LINE
  8
0
  6
DASHED
 10
260.603638
 20
25.346251
 11
260.603638
 21
7.346250
  0
LINE
  8
0
  6
DASHED
 10
273.603638
 20
25.346251
 11
273.603638
 21
7.346250
  0
LINE
  8
0
  6
DASHED
 10
355.603638
 20
25.346251
 11
355.603638
 21
7.346250
  0
LINE
  8
0
  6
DASHED
 10
368.603638
 20
25.346251
 11
368.603638
 21
7.346250
  0
CIRCLE
  8
0
  6
CONTINUOUS
 10
314.603638
 20
147.346252
 40
39.000000
  0
ARC
  8
0
  6
CONTINUOUS
 10
314.603638
 20
147.346252
 40
44.000000
 50
12.523240
 51
167.476898
  0
ARC
  8
0
  6
CONTINUOUS
 10
289.103638
 20
88.346252
 40
29.000000
 50
167.476898
 51
270.000000
  0
ARC
  8
0
  6
CONTINUOUS
 10
340.103638
 20
88.346252
 40
29.000000
 50
-90.000000
 51
12.523240
  0
ARC
  8
0
  6
CONTINUOUS
 10
289.103638
 20
88.346252
 40
31.900000
 50
167.476898
 51
270.000000
  0
ARC
  8
0
  6
CONTINUOUS
 10
340.103638
 20
88.346252
 40
31.900000
 50
-90.000000
 51
12.523240
  0
ARC
  8
0
  6
CONTINUOUS
 10
314.603638
 20
147.346252
 40
41.099998
 50
-192.523102
 51
12.523240
  0
LINE
  8
0
  6
CONTINUOUS
 10
257.962646
 20
95.263252
 11
271.650421
 21
156.886948
  0
LINE
  8
0
  6
CONTINUOUS
 10
260.793640
 20
94.634438
 11
274.481445
 21
156.258133
  0
LINE
  8
0
  6
CONTINUOUS
 10
289.103638
 20
56.446251
 11
340.103638
 21
56.446251
  0
LINE
  8
0
  6
CONTINUOUS
 10
340.103638
 20
59.346249
 11
289.103638
 21
59.346249
  0
LINE
  8
0
  6
CONTINUOUS
 10
357.556824
 20
156.887024
 11
371.244629
 21
95.263313
  0
LINE
  8
0
  6
CONTINUOUS
 10
354.725830
 20
156.258209
 11
368.413635
 21
94.634491
  0
LINE
  8
0
  6
CONTINUOUS
 10
302.376617
 20
71.346252
 11
297.436218
 21
71.346252
  0
LINE
  8
0
  6
CONTINUOUS
 10
305.103638
 20
79.621651
 11
305.103638
 21
71.346252
  0
LINE
  8
0
  6
CONTINUOUS
 10
309.853638
 20
82.627502
 11
309.853638
 21
85.596252
  0
LINE
  8
0
  6
CONTINUOUS
 10
319.353638
 20
82.627502
 11
319.353638
 21
85.596252
  0
LINE
  8
0
  6
CONTINUOUS
 10
313.675842
 20
83.852112
 11
313.675842
 21
72.904846
  0
LINE
  8
0
  6
CONTINUOUS
 10
315.457245
 20
83.852112
 11
315.457245
 21
72.904846
  0
LINE
  8
0
  6
CONTINUOUS
 10
324.808838
 20
83.852112
 11
324.808838
 21
72.830627
  0
LINE
  8
0
  6
CONTINUOUS
 10
326.441620
 20
78.007393
 11
326.441620
 21
72.830627
  0
LINE
  8
0
  6
CONTINUOUS
 10
302.849640
 20
83.703674
 11
298.272034
 21
83.703674
  0
LINE
  8
0
  6
CONTINUOUS
 10
298.272034
 20
83.703674
 11
297.199432
 21
82.373672
  0
LINE
  8
0
  6
CONTINUOUS
 10
297.328430
 20
85.596252
 11
295.603638
 21
83.387787
  0
LINE
  8
0
  6
CONTINUOUS
 10
297.199432
 20
74.164093
 11
298.289246
 21
73.016167
  0
LINE
  8
0
  6
CONTINUOUS
 10
295.603638
 20
73.195374
 11
297.436218
 21
71.346252
  0
LINE
  8
0
  6
CONTINUOUS
 10
295.603638
 20
83.387787
 11
295.603638
 21
73.195374
  0
LINE
  8
0
  6
CONTINUOUS
 10
297.199432
 20
82.373672
 11
297.199432
 21
74.164093
  0
LINE
  8
0
  6
CONTINUOUS
 10
303.730621
 20
82.852112
 11
302.831635
 21
83.703674
  0
LINE
  8
0
  6
CONTINUOUS
 10
303.716431
 20
85.596252
 11
305.103638
 21
84.056671
  0
LINE
  8
0
  6
CONTINUOUS
 10
303.730621
 20
82.627502
 11
305.103638
 21
82.627502
  0
LINE
  8
0
  6
CONTINUOUS
 10
297.328430
 20
85.596252
 11
303.716431
 21
85.596252
  0
LINE
  8
0
  6
CONTINUOUS
 10
301.244232
 20
79.621651
 11
305.103638
 21
79.621651
  0
LINE
  8
0
  6
CONTINUOUS
 10
303.730621
 20
78.063049
 11
301.244232
 21
78.063049
  0
LINE
  8
0
  6
CONTINUOUS
 10
300.761841
 20
73.016167
 11
298.289246
 21
73.016167
  0
LINE
  8
0
  6
CONTINUOUS
 10
303.730621
 20
76.578667
 11
303.730621
 21
77.766167
  0
ARC
  8
0
  6
CONTINUOUS
 10
300.761841
 20
75.984909
 40
2.968750
 50
-89.999786
 51
0.000109
  0
LINE
  8
0
  6
CONTINUOUS
 10
303.730621
 20
72.482170
 11
303.730621
 21
71.346252
  0
LINE
  8
0
  6
CONTINUOUS
 10
305.103638
 20
84.056671
 11
305.103638
 21
82.627502
  0
LINE
  8
0
  6
CONTINUOUS
 10
303.730621
 20
78.063049
 11
303.730621
 21
75.984909
  0
LINE
  8
0
  6
CONTINUOUS
 10
301.244232
 20
79.621651
 11
301.244232
 21
78.063049
  0
LINE
  8
0
  6
CONTINUOUS
 10
303.730621
 20
71.346252
 11
305.103638
 21
71.346252
  0
LINE
  8
0
  6
CONTINUOUS
 10
303.730621
 20
72.482170
 11
302.376617
 21
71.346252
  0
LINE
  8
0
  6
CONTINUOUS
 10
315.457245
 20
72.904846
 11
316.050842
 21
72.904846
  0
LINE
  8
0
  6
CONTINUOUS
 10
312.970825
 20
72.904846
 11
312.970825
 21
71.346252
  0
LINE
  8
0
  6
CONTINUOUS
 10
316.050842
 20
72.904846
 11
316.050842
 21
71.346252
  0
LINE
  8
0
  6
CONTINUOUS
 10
318.362640
 20
82.627502
 11
319.353638
 21
82.627502
  0
LINE
  8
0
  6
CONTINUOUS
 10
309.853638
 20
82.627502
 11
310.908234
 21
82.627502
  0
LINE
  8
0
  6
CONTINUOUS
 10
309.853638
 20
85.596252
 11
319.353638
 21
85.596252
  0
LINE
  8
0
  6
CONTINUOUS
 10
312.970825
 20
71.346252
 11
316.050842
 21
71.346252
  0
LINE
  8
0
  6
CONTINUOUS
 10
312.970825
 20
72.904846
 11
313.675842
 21
72.904846
  0
ARC
  8
0
  6
CONTINUOUS
 10
329.799835
 20
81.792526
 40
3.803712
 50
-73.981873
 51
90.003510
  0
ARC
  8
0
  6
CONTINUOUS
 10
329.799835
 20
81.792526
 40
2.320524
 50
-82.585274
 51
62.411850
  0
LINE
  8
0
  6
CONTINUOUS
 10
324.103638
 20
85.596252
 11
329.799835
 21
85.596252
  0
LINE
  8
0
  6
CONTINUOUS
 10
330.099426
 20
79.491409
 11
326.441620
 21
79.491409
  0
LINE
  8
0
  6
CONTINUOUS
 10
324.103638
 20
85.596252
 11
324.103638
 21
83.852112
  0
LINE
  8
0
  6
CONTINUOUS
 10
326.441620
 20
83.852112
 11
326.441620
 21
79.491409
  0
LINE
  8
0
  6
CONTINUOUS
 10
330.849426
 20
78.136513
 11
333.203827
 21
72.830627
  0
LINE
  8
0
  6
CONTINUOUS
 10
329.482239
 20
78.007393
 11
331.710236
 21
72.830627
  0
LINE
  8
0
  6
CONTINUOUS
 10
324.103638
 20
72.830627
 11
324.808838
 21
72.830627
  0
LINE
  8
0
  6
CONTINUOUS
 10
326.441620
 20
72.830627
 11
327.091034
 21
72.830627
  0
LINE
  8
0
  6
CONTINUOUS
 10
327.091034
 20
71.346252
 11
324.103638
 21
71.346252
  0
LINE
  8
0
  6
CONTINUOUS
 10
331.414246
 20
72.830627
 11
331.710236
 21
72.830627
  0
LINE
  8
0
  6
CONTINUOUS
 10
333.203827
 20
72.830627
 11
333.603638
 21
72.830627
  0
LINE
  8
0
  6
CONTINUOUS
 10
331.414246
 20
71.346252
 11
333.603638
 21
71.346252
  0
LINE
  8
0
  6
CONTINUOUS
 10
333.603638
 20
72.830627
 11
333.603638
 21
71.346252
  0
LINE
  8
0
  6
CONTINUOUS
 10
331.414246
 20
72.830627
 11
331.414246
 21
71.346252
  0
LINE
  8
0
  6
CONTINUOUS
 10
327.091034
 20
72.830627
 11
327.091034
 21
71.346252
  0
LINE
  8
0
  6
CONTINUOUS
 10
324.103638
 20
72.830627
 11
324.103638
 21
71.346252
  0
LINE
  8
0
  6
CONTINUOUS
 10
311.418427
 20
83.852112
 11
310.908234
 21
82.627502
  0
LINE
  8
0
  6
CONTINUOUS
 10
317.932434
 20
83.852112
 11
318.362640
 21
82.627502
  0
LINE
  8
0
  6
CONTINUOUS
 10
315.457245
 20
83.852112
 11
317.932434
 21
83.852112
  0
LINE
  8
0
  6
CONTINUOUS
 10
313.675842
 20
83.852112
 11
311.418427
 21
83.852112
  0
LINE
  8
0
  6
CONTINUOUS
 10
326.441620
 20
78.007393
 11
329.482239
 21
78.007393
  0
LINE
  8
0
  6
CONTINUOUS
 10
324.103638
 20
83.852112
 11
324.808838
 21
83.852112
  0
LINE
  8
0
  6
CONTINUOUS
 10
326.441620
 20
83.852112
 11
330.874634
 21
83.849220
  0
LINE
  8
0
  6
CONTINUOUS
 10
303.730621
 20
82.852112
 11
303.730621
 21
82.627502
  0
ARC
  8
0
  6
CONTINUOUS
 10
418.312439
 20
102.346252
 40
185.208893
 50
166.001907
 51
193.998093
  0
LINE
  8
0
  6
CONTINUOUS
 10
252.603638
 20
23.279690
 11
252.603638
 21
7.346250
  0
LINE
  8
0
  6
CONTINUOUS
 10
376.603638
 20
23.279690
 11
376.603638
 21
7.346250
  0
LINE
  8
0
  6
CONTINUOUS
 10
338.361023
 20
30.346251
 11
290.846222
 21
30.346251
  0
LINE
  8
0
  6
CONTINUOUS
 10
289.603638
 20
29.410370
 11
289.603638
 21
26.346251
  0
LINE
  8
0
  6
CONTINUOUS
 10
340.482239
 20
29.467569
 11
343.139221
 21
26.810711
  0
LINE
  8
0
  6
CONTINUOUS
 10
288.725037
 20
29.467569
 11
286.068237
 21
26.810749
  0
LINE
  8
0
  6
CONTINUOUS
 10
339.603638
 20
29.410370
 11
339.603638
 21
26.346251
  0
ARC
  8
0
  6
CONTINUOUS
 10
282.532623
 20
30.346251
 40
5.000000
 50
270.000000
 51
315.000092
  0
ARC
  8
0
  6
CONTINUOUS
 10
290.846222
 20
27.346251
 40
3.000000
 50
90.000000
 51
135.000305
  0
ARC
  8
0
  6
CONTINUOUS
 10
288.603638
 20
26.346251
 40
1.000000
 50
-90.000000
 51
0.000000
  0
ARC
  8
0
  6
CONTINUOUS
 10
346.674622
 20
30.346251
 40
5.000000
 50
225.000000
 51
270.000000
  0
ARC
  8
0
  6
CONTINUOUS
 10
338.361023
 20
27.346251
 40
3.000000
 50
45.000160
 51
90.000000
  0
ARC
  8
0
  6
CONTINUOUS
 10
340.603638
 20
26.346251
 40
1.000000
 50
180.000000
 51
270.000000
  0
LINE
  8
0
  6
CONTINUOUS
 10
325.603638
 20
142.346283
 11
325.603638
 21
152.346283
  0
LINE
  8
0
  6
CONTINUOUS
 10
333.603638
 20
142.346313
 11
333.603638
 21
152.346313
  0
LINE
  8
0
  6
CONTINUOUS
 10
333.603638
 20
142.346313
 11
325.603638
 21
142.346283
  0
LINE
  8
0
  6
CONTINUOUS
 10
333.603638
 20
152.346313
 11
325.603638
 21
152.346283
  0
ARC
  8
0
  6
CONTINUOUS
 10
314.603638
 20
147.346252
 40
16.000000
 50
18.209900
 51
341.790100
  0
LINE
  8
0
  6
CENTER
 10
594.929993
 20
-7.773750
 11
594.929993
 21
230.957504
  0
LINE
  8
0
  6
CENTER
 10
514.342590
 20
102.346252
 11
671.157593
 21
102.346252
  0
LINE
  8
0
  6
CENTER
 10
460.279999
 20
147.346252
 11
665.627625
 21
147.346252
  0
LINE
  8
0
  6
CENTER
 10
654.929993
 20
33.944988
 11
654.929993
 21
-3.954130
  0
LINE
  8
0
  6
CENTER
 10
534.929993
 20
33.944988
 11
534.929993
 21
-3.954130
  0
LINE
  8
0
  6
CONTINUOUS
 10
519.929993
 20
7.346250
 11
564.929993
 21
7.346250
  0
LINE
  8
0
  6
CONTINUOUS
 10
624.929993
 20
7.346250
 11
669.929993
 21
7.346250
  0
LINE
  8
0
  6
CONTINUOUS
 10
667.429993
 20
25.346251
 11
643.929993
 21
25.346251
  0
LINE
  8
0
  6
CONTINUOUS
 10
522.429993
 20
25.346251
 11
545.929993
 21
25.346251
  0
LINE
  8
0
  6
CONTINUOUS
 10
639.929993
 20
208.613007
 11
639.929993
 21
7.346250
  0
LINE
  8
0
  6
CONTINUOUS
 10
549.929993
 20
195.087448
 11
549.929993
 21
208.612534
  0
LINE
  8
0
  6
CONTINUOUS
 10
669.929993
 20
23.228430
 11
669.929993
 21
7.346250
  0
LINE
  8
0
  6
CONTINUOUS
 10
519.929993
 20
23.228430
 11
519.929993
 21
7.346250
  0
LINE
  8
0
  6
CONTINUOUS
 10
566.429993
 20
8.846250
 11
623.429993
 21
8.846250
  0
LINE
  8
0
  6
CONTINUOUS
 10
636.982422
 20
211.612549
 11
594.929993
 21
212.346252
  0
LINE
  8
0
  6
CONTINUOUS
 10
552.877625
 20
211.612076
 11
594.929993
 21
212.346252
  0
LINE
  8
0
  6
CONTINUOUS
 10
532.929993
 20
112.087440
 11
532.929993
 21
182.605072
  0
LINE
  8
0
  6
CONTINUOUS
 10
656.929993
 20
112.087440
 11
656.929993
 21
182.605072
  0
LINE
  8
0
  6
CONTINUOUS
 10
539.929993
 20
63.102249
 11
539.929993
 21
151.256653
  0
LINE
  8
0
  6
CONTINUOUS
 10
649.929993
 20
63.102268
 11
649.929993
 21
151.256653
  0
LINE
  8
0
  6
DASHED
 10
661.429993
 20
25.346251
 11
661.429993
 21
7.346250
  0
LINE
  8
0
  6
DASHED
 10
648.429993
 20
25.346251
 11
648.429993
 21
7.346250
  0
LINE
  8
0
  6
DASHED
 10
541.429993
 20
25.346251
 11
541.429993
 21
7.346250
  0
LINE
  8
0
  6
DASHED
 10
528.429993
 20
25.346251
 11
528.429993
 21
7.346250
  0
ARC
  8
0
  6
CONTINUOUS
 10
552.929993
 20
208.612534
 40
3.000000
 50
91.000603
 51
180.000000
  0
ARC
  8
0
  6
CONTINUOUS
 10
636.929993
 20
208.612991
 40
3.000000
 50
0.000000
 51
89.000580
  0
LINE
  8
0
  6
CONTINUOUS
 10
546.340820
 20
190.290604
 11
536.519226
 21
187.401871
  0
LINE
  8
0
  6
CONTINUOUS
 10
536.519226
 20
107.290619
 11
537.058594
 21
107.131943
  0
LINE
  8
0
  6
CONTINUOUS
 10
543.537415
 20
58.300110
 11
546.322571
 21
57.492390
  0
LINE
  8
0
  6
CONTINUOUS
 10
522.018982
 20
25.694410
 11
547.423218
 21
29.928450
  0
LINE
  8
0
  6
CONTINUOUS
 10
667.841003
 20
25.694429
 11
642.436829
 21
29.928471
  0
LINE
  8
0
  6
CONTINUOUS
 10
646.322571
 20
58.300110
 11
643.537415
 21
57.492390
  0
LINE
  8
0
  6
CONTINUOUS
 10
653.340820
 20
107.290619
 11
652.801392
 21
107.131935
  0
LINE
  8
0
  6
CONTINUOUS
 10
653.340820
 20
187.401886
 11
643.519226
 21
190.290604
  0
LINE
  8
0
  6
CONTINUOUS
 10
552.504395
 20
179.846252
 11
637.182617
 21
179.846252
  0
ARC
  8
0
  6
CONTINUOUS
 10
537.929993
 20
182.605087
 40
5.000000
 50
106.389900
 51
180.000000
  0
ARC
  8
0
  6
CONTINUOUS
 10
651.929993
 20
182.605057
 40
5.000000
 50
0.000000
 51
73.610527
  0
ARC
  8
0
  6
CONTINUOUS
 10
537.929993
 20
112.087479
 40
5.000000
 50
180.000000
 51
253.610794
  0
ARC
  8
0
  6
CONTINUOUS
 10
651.929993
 20
112.087433
 40
5.000000
 50
-73.610321
 51
0.000000
  0
ARC
  8
0
  6
CONTINUOUS
 10
644.929993
 20
63.102249
 40
5.000000
 50
-73.827698
 51
0.000000
  0
ARC
  8
0
  6
CONTINUOUS
 10
544.929993
 20
63.102291
 40
5.000000
 50
180.000000
 51
253.828201
  0
LINE
  8
0
  6
CONTINUOUS
 10
549.929993
 20
195.087448
 11
549.929993
 21
7.346250
  0
ARC
  8
0
  6
CONTINUOUS
 10
544.929993
 20
195.087433
 40
5.000000
 50
-73.610229
 51
0.000000
  0
ARC
  8
0
  6
CONTINUOUS
 10
535.929993
 20
103.294464
 40
4.000000
 50
0.000000
 51
73.610649
  0
ARC
  8
0
  6
CONTINUOUS
 10
544.929993
 20
52.690231
 40
5.000000
 50
0.000000
 51
73.827919
  0
ARC
  8
0
  6
CONTINUOUS
 10
644.929993
 20
52.690269
 40
5.000000
 50
106.172501
 51
180.000000
  0
ARC
  8
0
  6
CONTINUOUS
 10
653.929993
 20
103.294495
 40
4.000000
 50
106.389999
 51
180.000000
  0
ARC
  8
0
  6
CONTINUOUS
 10
644.929993
 20
195.087463
 40
5.000000
 50
180.000000
 51
253.610794
  0
ARC
  8
0
  6
CONTINUOUS
 10
546.929993
 20
32.887630
 40
3.000000
 50
-80.537483
 51
0.000000
  0
ARC
  8
0
  6
CONTINUOUS
 10
545.929993
 20
29.346210
 40
4.000000
 50
-90.000000
 51
0.000000
  0
ARC
  8
0
  6
CONTINUOUS
 10
522.429993
 20
22.846270
 40
2.500000
 50
90.000000
 51
180.000000
  0
LINE
  8
0
  6
CONTINUOUS
 10
564.929993
 20
7.346250
 11
566.429993
 21
8.846250
  0
LINE
  8
0
  6
CONTINUOUS
 10
624.929993
 20
7.346250
 11
623.429993
 21
8.846250
  0
ARC
  8
0
  6
CONTINUOUS
 10
642.929993
 20
32.887669
 40
3.000000
 50
180.000000
 51
260.537903
  0
ARC
  8
0
  6
CONTINUOUS
 10
643.929993
 20
29.346251
 40
4.000000
 50
180.000000
 51
270.000000
  0
ARC
  8
0
  6
CONTINUOUS
 10
667.429993
 20
22.846251
 40
2.500000
 50
0.000000
 51
90.000000
  0
LINE
  8
0
  6
CONTINUOUS
 10
474.929993
 20
131.346252
 11
474.929993
 21
163.346252
  0
LINE
  8
0
  6
CONTINUOUS
 10
529.929993
 20
163.346252
 11
474.929993
 21
163.346252
  0
LINE
  8
0
  6
CONTINUOUS
 10
529.929993
 20
131.346252
 11
474.929993
 21
131.346252
  0
LINE
  8
0
  6
CONTINUOUS
 10
529.929993
 20
164.846252
 11
529.929993
 21
129.846252
  0
LINE
  8
0
  6
CONTINUOUS
 10
532.929993
 20
164.846252
 11
529.929993
 21
164.846252
  0
LINE
  8
0
  6
CONTINUOUS
 10
532.929993
 20
129.846252
 11
529.929993
 21
129.846252
  0
ARC
  8
0
  6
CONTINUOUS
 10
519.929993
 20
147.346252
 40
5.000000
 50
-90.000000
 51
90.000000
  0
LINE
  8
0
  6
CONTINUOUS
 10
519.929993
 20
152.346252
 11
474.929993
 21
152.346252
  0
LINE
  8
0
  6
CONTINUOUS
 10
519.929993
 20
142.346252
 11
474.929993
 21
142.346252
  0
ARC
  8
0
  6
CONTINUOUS
 10
522.429993
 20
23.228451
 40
2.500000
 50
99.462753
 51
180.000000
  0
ARC
  8
0
  6
CONTINUOUS
 10
667.429993
 20
23.228430
 40
2.500000
 50
0.000000
 51
80.537682
  0
LINE
  8
0
  6
CONTINUOUS
 10
226.603638
 20
166.346252
 11
226.603638
 21
38.346249
  0
ARC
  8
0
  6
CONTINUOUS
 10
594.929993
 20
102.346252
 40
64.000000
 50
165.638489
 51
210.753525
  0
ARC
  8
0
  6
CONTINUOUS
 10
594.929993
 20
102.346252
 40
64.000000
 50
-30.753519
 51
14.361512
  0
ARC
  8
0
  6
CONTINUOUS
 10
553.917786
 20
61.334030
 40
8.000000
 50
211.001404
 51
233.216995
  0
ARC
  8
0
  6
CONTINUOUS
 10
547.929993
 20
53.324909
 40
2.000000
 50
30.947910
 51
53.217121
  0
ARC
  8
0
  6
CONTINUOUS
 10
635.942200
 20
61.334030
 40
8.000000
 50
-53.216999
 51
-31.001400
  0
ARC
  8
0
  6
CONTINUOUS
 10
641.929993
 20
53.324909
 40
2.000000
 50
126.782883
 51
149.052094
  0
LINE
  8
0
  6
CENTER
 10
-21.238125
 20
89.346252
 11
271.489990
 21
89.346252
  0
LINE
  8
0
  6
CENTER
 10
140.544693
 20
102.346252
 11
271.489990
 21
102.346252
  0
LINE
  8
0
  6
CONTINUOUS
 10
218.103638
 20
343.404175
 11
218.103638
 21
467.404175
  0
LINE
  8
0
  6
CONTINUOUS
 10
172.103638
 20
450.404175
 11
215.667252
 21
451.925446
  0
LINE
  8
0
  6
CONTINUOUS
 10
172.103638
 20
360.404175
 11
215.667252
 21
358.882904
  0
LINE
  8
0
  6
CONTINUOUS
 10
172.103638
 20
454.416168
 11
172.103638
 21
356.392181
  0
LINE
  8
0
  6
CONTINUOUS
 10
220.103638
 20
469.404175
 11
226.603638
 21
469.404175
  0
LINE
  8
0
  6
CONTINUOUS
 10
220.103638
 20
341.404175
 11
226.603638
 21
341.404175
  0
LINE
  8
0
  6
CONTINUOUS
 10
210.960632
 20
429.404175
 11
218.075607
 21
429.404175
  0
LINE
  8
0
  6
CONTINUOUS
 10
211.565781
 20
381.404175
 11
218.075607
 21
381.404175
  0
LINE
  8
0
  6
CONTINUOUS
 10
210.960632
 20
427.199677
 11
210.960632
 21
383.487091
  0
LINE
  8
0
  6
CONTINUOUS
 10
163.103638
 20
448.404175
 11
163.103638
 21
434.404175
  0
LINE
  8
0
  6
CONTINUOUS
 10
53.103634
 20
450.404175
 11
172.103638
 21
450.404175
  0
LINE
  8
0
  6
CONTINUOUS
 10
53.103634
 20
360.404175
 11
172.103638
 21
360.404175
  0
LINE
  8
0
  6
CONTINUOUS
 10
53.103634
 20
434.404175
 11
163.103638
 21
434.404175
  0
LINE
  8
0
  6
CONTINUOUS
 10
53.103634
 20
376.404175
 11
163.103638
 21
376.404175
  0
ARC
  8
0
  6
CONTINUOUS
 10
165.103638
 20
448.404205
 40
2.000000
 50
90.000000
 51
180.000000
  0
ARC
  8
0
  6
CONTINUOUS
 10
165.103638
 20
362.404175
 40
2.000000
 50
180.000000
 51
270.000000
  0
LINE
  8
0
  6
CONTINUOUS
 10
172.103638
 20
450.404175
 11
172.103638
 21
360.404175
  0
ARC
  8
0
  6
CONTINUOUS
 10
220.103638
 20
467.404175
 40
2.000000
 50
90.000000
 51
180.000000
  0
ARC
  8
0
  6
CONTINUOUS
 10
220.103638
 20
343.404175
 40
2.000000
 50
180.000000
 51
270.000000
  0
ARC
  8
0
  6
CONTINUOUS
 10
215.580002
 20
454.423920
 40
2.500000
 50
272.000000
 51
359.895721
  0
ARC
  8
0
  6
CONTINUOUS
 10
215.580002
 20
356.384430
 40
2.500000
 50
0.104292
 51
88.000000
  0
LINE
  8
0
  6
CONTINUOUS
 10
218.103638
 20
452.010529
 11
218.075607
 21
452.009552
  0
LINE
  8
0
  6
CONTINUOUS
 10
172.603333
 20
454.933624
 11
218.103638
 21
456.522522
  0
LINE
  8
0
  6
CONTINUOUS
 10
172.103638
 20
454.416168
 11
172.603333
 21
454.933624
  0
LINE
  8
0
  6
CONTINUOUS
 10
172.603333
 20
355.874725
 11
218.103638
 21
354.285828
  0
LINE
  8
0
  6
CONTINUOUS
 10
172.103638
 20
356.392181
 11
172.603333
 21
355.874725
  0
LINE
  8
0
  6
CONTINUOUS
 10
163.103638
 20
132.346252
 11
163.103638
 21
46.346230
  0
LINE
  8
0
  6
CONTINUOUS
 10
53.103634
 20
134.346252
 11
172.103638
 21
134.346252
  0
LINE
  8
0
  6
CONTINUOUS
 10
53.103634
 20
44.346249
 11
172.103638
 21
44.346249
  0
LINE
  8
0
  6
CONTINUOUS
 10
53.103634
 20
123.755547
 11
162.065948
 21
123.755547
  0
LINE
  8
0
  6
CONTINUOUS
 10
53.103634
 20
54.936951
 11
162.065948
 21
54.936951
  0
ARC
  8
0
  6
CONTINUOUS
 10
165.103638
 20
132.346268
 40
2.000000
 50
90.000000
 51
180.000000
  0
ARC
  8
0
  6
CONTINUOUS
 10
165.103638
 20
46.346249
 40
2.000000
 50
180.000000
 51
270.000000
  0
LINE
  8
0
  6
CONTINUOUS
 10
220.103638
 20
166.346359
 11
226.603638
 21
166.346359
  0
LINE
  8
0
  6
CONTINUOUS
 10
220.103638
 20
38.346153
 11
226.603638
 21
38.346153
  0
LINE
  8
0
  6
CONTINUOUS
 10
172.103638
 20
134.346252
 11
218.103638
 21
135.952606
  0
LINE
  8
0
  6
CONTINUOUS
 10
226.603638
 20
42.443069
 11
172.103638
 21
44.346249
  0
ARC
  8
0
  6
CONTINUOUS
 10
220.103653
 20
164.346375
 40
2.000000
 50
90.000000
 51
180.000000
  0
ARC
  8
0
  6
CONTINUOUS
 10
220.103638
 20
40.346153
 40
2.000000
 50
180.260773
 51
270.000000
  0
LINE
  8
0
  6
CONTINUOUS
 10
172.103638
 20
134.346252
 11
172.103638
 21
44.346249
  0
LINE
  8
0
  6
CONTINUOUS
 10
217.371399
 20
142.114014
 11
211.656891
 21
136.399506
  0
LINE
  8
0
  6
CONTINUOUS
 10
172.103638
 20
68.840248
 11
216.103638
 21
68.840248
  0
LINE
  8
0
  6
CONTINUOUS
 10
172.103638
 20
53.827251
 11
226.603638
 21
53.827251
  0
LINE
  8
0
  6
CONTINUOUS
 10
218.671600
 20
61.779251
 11
226.603638
 21
61.779251
  0
LINE
  8
0
  6
CONTINUOUS
 10
218.103638
 20
62.993984
 11
218.103638
 21
164.346375
  0
ARC
  8
0
  6
CONTINUOUS
 10
215.603683
 20
40.325672
 40
2.500000
 50
0.260773
 51
88.000000
  0
ARC
  8
0
  6
CONTINUOUS
 10
215.603638
 20
143.881790
 40
2.500000
 50
-45.000000
 51
0.000000
  0
ARC
  8
0
  6
CONTINUOUS
 10
209.889114
 20
138.167267
 40
2.500000
 50
272.000000
 51
315.000000
  0
LINE
  8
0
  6
CONTINUOUS
 10
43.603634
 20
450.404175
 11
53.103634
 21
450.404175
  0
LINE
  8
0
  6
CONTINUOUS
 10
53.103634
 20
434.404175
 11
43.603634
 21
434.404175
  0
LINE
  8
0
  6
CONTINUOUS
 10
43.603634
 20
360.404175
 11
53.103634
 21
360.404175
  0
LINE
  8
0
  6
CONTINUOUS
 10
53.103634
 20
360.404175
 11
53.103634
 21
398.538147
  0
LINE
  8
0
  6
CONTINUOUS
 10
53.103634
 20
376.404175
 11
43.603634
 21
376.404175
  0
LINE
  8
0
  6
CONTINUOUS
 10
46.603634
 20
399.404175
 11
46.603634
 21
411.404175
  0
LINE
  8
0
  6
CONTINUOUS
 10
53.603634
 20
399.404175
 11
53.603634
 21
411.404175
  0
LINE
  8
0
  6
CONTINUOUS
 10
47.603634
 20
412.404175
 11
52.603634
 21
412.404175
  0
LINE
  8
0
  6
CONTINUOUS
 10
52.603634
 20
398.404175
 11
47.603634
 21
398.404175
  0
ARC
  8
0
  6
CONTINUOUS
 10
52.603634
 20
411.404175
 40
1.000000
 50
0.000000
 51
90.000000
  0
ARC
  8
0
  6
CONTINUOUS
 10
47.603634
 20
411.404175
 40
1.000000
 50
90.000000
 51
180.000000
  0
ARC
  8
0
  6
CONTINUOUS
 10
47.603634
 20
399.404175
 40
1.000000
 50
180.000000
 51
270.000000
  0
ARC
  8
0
  6
CONTINUOUS
 10
52.603634
 20
399.404175
 40
1.000000
 50
-90.000000
 51
0.000000
  0
LINE
  8
0
  6
CONTINUOUS
 10
51.103634
 20
401.904175
 11
51.103634
 21
408.904175
  0
LINE
  8
0
  6
CONTINUOUS
 10
49.103634
 20
401.904175
 11
49.103634
 21
408.904175
  0
ARC
  8
0
  6
CONTINUOUS
 10
50.103634
 20
408.904175
 40
1.000000
 50
90.000000
 51
180.000000
  0
ARC
  8
0
  6
CONTINUOUS
 10
50.103634
 20
408.904175
 40
1.000000
 50
0.000000
 51
90.000000
  0
ARC
  8
0
  6
CONTINUOUS
 10
50.103634
 20
401.904175
 40
1.000000
 50
180.000000
 51
270.000000
  0
ARC
  8
0
  6
CONTINUOUS
 10
50.103634
 20
401.904175
 40
1.000000
 50
-90.000000
 51
0.000000
  0
LINE
  8
0
  6
CONTINUOUS
 10
53.103634
 20
412.270203
 11
53.103634
 21
450.404175
  0
LINE
  8
0
  6
CONTINUOUS
 10
43.603634
 20
452.404175
 11
43.603634
 21
358.404175
  0
LINE
  8
0
  6
CONTINUOUS
 10
43.603634
 20
434.404175
 11
-0.371398
 21
434.404175
  0
LINE
  8
0
  6
CONTINUOUS
 10
43.603634
 20
376.404175
 11
-0.371398
 21
376.404175
  0
LINE
  8
0
  6
CONTINUOUS
 10
1.103612
 20
452.404175
 11
43.603634
 21
452.404175
  0
LINE
  8
0
  6
CONTINUOUS
 10
1.103612
 20
358.404175
 11
43.603634
 21
358.404175
  0
ARC
  8
0
  6
CONTINUOUS
 10
1.103642
 20
447.404175
 40
5.000000
 50
90.000000
 51
180.000000
  0
ARC
  8
0
  6
CONTINUOUS
 10
1.103612
 20
363.404175
 40
5.000000
 50
180.000000
 51
270.000000
  0
LINE
  8
0
  6
CONTINUOUS
 10
-3.896358
 20
447.404175
 11
-3.896388
 21
363.404175
  0
LINE
  8
0
  6
CONTINUOUS
 10
43.603634
 20
134.346252
 11
53.103634
 21
134.346252
  0
LINE
  8
0
  6
CONTINUOUS
 10
53.103634
 20
123.755547
 11
43.603634
 21
123.755547
  0
LINE
  8
0
  6
CONTINUOUS
 10
43.603634
 20
44.346249
 11
53.103634
 21
44.346249
  0
LINE
  8
0
  6
CONTINUOUS
 10
53.103634
 20
54.936958
 11
43.603634
 21
54.936958
  0
LINE
  8
0
  6
CONTINUOUS
 10
43.603634
 20
136.346252
 11
43.603634
 21
42.346249
  0
LINE
  8
0
  6
CONTINUOUS
 10
43.603634
 20
118.346252
 11
-0.371398
 21
118.346252
  0
LINE
  8
0
  6
CONTINUOUS
 10
43.603634
 20
60.346249
 11
-0.371398
 21
60.346249
  0
LINE
  8
0
  6
CONTINUOUS
 10
53.603634
 20
135.846252
 11
53.603634
 21
134.346252
  0
LINE
  8
0
  6
CONTINUOUS
 10
46.603634
 20
135.846252
 11
46.603634
 21
134.346252
  0
LINE
  8
0
  6
CONTINUOUS
 10
46.603634
 20
135.846252
 11
53.603634
 21
135.846252
  0
LINE
  8
0
  6
CONTINUOUS
 10
51.003620
 20
148.846252
 11
51.003620
 21
135.846252
  0
LINE
  8
0
  6
CONTINUOUS
 10
49.203621
 20
149.471252
 11
49.203621
 21
135.846252
  0
LINE
  8
0
  6
CONTINUOUS
 10
47.403622
 20
147.408752
 11
47.403622
 21
135.846252
  0
LINE
  8
0
  6
CONTINUOUS
 10
52.803631
 20
148.221252
 11
52.803631
 21
135.846252
  0
LINE
  8
0
  6
CONTINUOUS
 10
49.203621
 20
149.471252
 11
51.003620
 21
148.846252
  0
LINE
  8
0
  6
CONTINUOUS
 10
47.403622
 20
147.408752
 11
49.203621
 21
148.033752
  0
LINE
  8
0
  6
CONTINUOUS
 10
52.803631
 20
148.221252
 11
51.004631
 21
147.773544
  0
LINE
  8
0
  6
CONTINUOUS
 10
1.103612
 20
136.346252
 11
43.603634
 21
136.346252
  0
LINE
  8
0
  6
CONTINUOUS
 10
1.103612
 20
42.346249
 11
43.603634
 21
42.346249
  0
ARC
  8
0
  6
CONTINUOUS
 10
1.103642
 20
131.346252
 40
5.000000
 50
90.000000
 51
180.000000
  0
ARC
  8
0
  6
CONTINUOUS
 10
1.103612
 20
47.346249
 40
5.000000
 50
180.000000
 51
270.000000
  0
LINE
  8
0
  6
CONTINUOUS
 10
-3.896358
 20
131.346252
 11
-3.896388
 21
47.346241
  0
LINE
  8
0
  6
CONTINUOUS
 10
53.103634
 20
44.346249
 11
53.103634
 21
134.346252
  0
LINE
  8
0
  6
CONTINUOUS
 10
163.103638
 20
376.404175
 11
163.103638
 21
362.404175
  0
TEXT
  8
0
 10
-21.000000
 20
-7.000000
 40
4.000000
 41
1.000000
  1
HLM-32R-1200~1800-S60W
 50
0.000000
  0
ENDSEC
  0
EOF
