  0
SECTION
  2
HEADER
  9
$CLAYER
  8
1
  9
$LTSCALE
 40
3.0
  0
ENDSEC
  0
SECTION
  2
TABLES
  0
TABLE
  2
LTYPE
 70
     4
  0
LTYPE
  2
CONTINUOUS
  3
solid line
 70
    64
 72
    65
 73
     0
 40
0.0
  0
LTYPE
  2
DASHED
  3
__ __ __ __ __ __ __ __ __ __ __ __ __ __ __
 70
    64
 72
    65
 73
     2
 40
0.75
 49
0.5
 49
-0.25
  0
LTYPE
  2
CENTER
  3
____ _ ____ _ ____ _ ____ _ ____ _ ____ _ ____
 70
    64
 72
    65
 73
     4
 40
2.0
 49
1.25
 49
-0.25
 49
0.25
 49
-0.25
  0
LTYPE
  2
PHANTOM
  3
_____ _ _ _____ _ _ _____ _ _ _____ _ _ ____
 70
    64
 72
    65
 73
     6
 40
2.5
 49
1.25
 49
-0.25
 49
0.25
 49
-0.25
 49
0.25
 49
-0.25
  0
ENDTAB
  0
TABLE
  2
LAYER
 70
     1
  0
LAYER
  2
0
 70
    64
 62
     7
  6
CONTINUOUS
  0
ENDTAB
  0
TABLE
  2
STYLE
 70
     1
  0
STYLE
  2
STANDARD
 70
     0
 40
0.000000
 41
1.000000
 50
0.000000
 71
     0
 42
3.000000
  3
txt
  4
BIGFONT
  0
ENDTAB
  0
ENDSEC
  0
SECTION
  2
BLOCKS
  0
ENDSEC
  0
SECTION
  2
ENTITIES
  0
LINE
  8
0
  6
CENTER
 10
312.894867
 20
503.369995
 11
312.894867
 21
277.035004
  0
LINE
  8
0
  6
CONTINUOUS
 10
388.895081
 20
408.821686
 11
388.109619
 21
453.821686
  0
LINE
  8
0
  6
CONTINUOUS
 10
254.444824
 20
483.821686
 11
312.894867
 21
483.821686
  0
LINE
  8
0
  6
CONTINUOUS
 10
378.838470
 20
478.622894
 11
388.109619
 21
453.821686
  0
ARC
  8
0
  6
CONTINUOUS
 10
371.344940
 20
475.821686
 40
8.000000
 50
20.496618
 51
90.000000
  0
LINE
  8
0
  6
CONTINUOUS
 10
388.895081
 20
408.821686
 11
388.109619
 21
363.821686
  0
LINE
  8
0
  6
CONTINUOUS
 10
254.444824
 20
333.821686
 11
296.894867
 21
333.821686
  0
LINE
  8
0
  6
CONTINUOUS
 10
378.838470
 20
339.020477
 11
388.109619
 21
363.821686
  0
ARC
  8
0
  6
CONTINUOUS
 10
371.344940
 20
341.821686
 40
8.000000
 50
-90.000000
 51
-20.496618
  0
LINE
  8
0
  6
CONTINUOUS
 10
246.951279
 20
478.622894
 11
237.896500
 21
454.400391
  0
ARC
  8
0
  6
CONTINUOUS
 10
254.444824
 20
475.821686
 40
8.000000
 50
90.000000
 51
159.503387
  0
LINE
  8
0
  6
CONTINUOUS
 10
246.951279
 20
339.020477
 11
237.896500
 21
363.242950
  0
ARC
  8
0
  6
CONTINUOUS
 10
254.444824
 20
341.821686
 40
8.000000
 50
200.496613
 51
270.000000
  0
LINE
  8
0
  6
CONTINUOUS
 10
240.231522
 20
453.821686
 11
385.161499
 21
453.821686
  0
LINE
  8
0
  6
CONTINUOUS
 10
385.161499
 20
363.821686
 11
240.231522
 21
363.821686
  0
LINE
  8
0
  6
CONTINUOUS
 10
312.894867
 20
470.821686
 11
348.153687
 21
470.821686
  0
ARC
  8
0
  6
CONTINUOUS
 10
385.161499
 20
450.821686
 40
3.000000
 50
1.000000
 51
90.000000
  0
ARC
  8
0
  6
CONTINUOUS
 10
385.161499
 20
366.821686
 40
3.000000
 50
270.000000
 51
359.000000
  0
LINE
  8
0
  6
CONTINUOUS
 10
341.894867
 20
450.821686
 11
341.894867
 21
366.821686
  0
LINE
  8
0
  6
CONTINUOUS
 10
283.894867
 20
450.821686
 11
283.894867
 21
366.821686
  0
LINE
  8
0
  6
CONTINUOUS
 10
224.894882
 20
472.821686
 11
224.894882
 21
344.821686
  0
LINE
  8
0
  6
CONTINUOUS
 10
227.467209
 20
472.821686
 11
224.894882
 21
472.821686
  0
LINE
  8
0
  6
CONTINUOUS
 10
352.950531
 20
467.232513
 11
353.953705
 21
463.821686
  0
ARC
  8
0
  6
CONTINUOUS
 10
348.153687
 20
465.821686
 40
5.000000
 50
16.389540
 51
90.000000
  0
LINE
  8
0
  6
CONTINUOUS
 10
368.441010
 20
460.214294
 11
369.248749
 21
457.429047
  0
LINE
  8
0
  6
CONTINUOUS
 10
363.638885
 20
463.821686
 11
353.953705
 21
463.821686
  0
LINE
  8
0
  6
CONTINUOUS
 10
312.894867
 20
470.821686
 11
277.636078
 21
470.821686
  0
LINE
  8
0
  6
CONTINUOUS
 10
312.894867
 20
346.821686
 11
348.153687
 21
346.821686
  0
LINE
  8
0
  6
CONTINUOUS
 10
312.894867
 20
346.821686
 11
277.636078
 21
346.821686
  0
LINE
  8
0
  6
CONTINUOUS
 10
312.894867
 20
483.821686
 11
371.344940
 21
483.821686
  0
LINE
  8
0
  6
CONTINUOUS
 10
331.894867
 20
288.821686
 11
296.894867
 21
288.821686
  0
LINE
  8
0
  6
CONTINUOUS
 10
296.894867
 20
343.821686
 11
296.894867
 21
288.821686
  0
LINE
  8
0
  6
CONTINUOUS
 10
328.894867
 20
343.821686
 11
328.894867
 21
338.821686
  0
LINE
  8
0
  6
CONTINUOUS
 10
295.394867
 20
343.821686
 11
330.394867
 21
343.821686
  0
LINE
  8
0
  6
CONTINUOUS
 10
295.394867
 20
346.821686
 11
295.394867
 21
343.821686
  0
LINE
  8
0
  6
CONTINUOUS
 10
330.394867
 20
346.821686
 11
330.394867
 21
343.821686
  0
LINE
  8
0
  6
CONTINUOUS
 10
331.894867
 20
288.821686
 11
331.894867
 21
338.821686
  0
LINE
  8
0
  6
CONTINUOUS
 10
328.093567
 20
338.821686
 11
331.894867
 21
338.821686
  0
LINE
  8
0
  6
CONTINUOUS
 10
328.093567
 20
338.821686
 11
328.093567
 21
288.821686
  0
LINE
  8
0
  6
CONTINUOUS
 10
331.894867
 20
333.821686
 11
371.344940
 21
333.821686
  0
LINE
  8
0
  6
CENTER
 10
350.518555
 20
468.821686
 11
369.456055
 21
468.821686
  0
LINE
  8
0
  6
CENTER
 10
360.394867
 20
459.669342
 11
360.394867
 21
479.169342
  0
ARC
  8
0
  6
CONTINUOUS
 10
360.394867
 20
468.821686
 40
6.500000
 50
-51.240688
 51
230.284866
  0
ARC
  8
0
  6
CONTINUOUS
 10
265.394867
 20
468.821686
 40
6.500000
 50
-50.284863
 51
231.240692
  0
LINE
  8
0
  6
CENTER
 10
265.394867
 20
459.669342
 11
265.394867
 21
479.169342
  0
LINE
  8
0
  6
CENTER
 10
275.271210
 20
468.821686
 11
256.333710
 21
468.821686
  0
LINE
  8
0
  6
CENTER
 10
-23.068125
 20
408.821686
 11
400.315918
 21
408.821686
  0
LINE
  8
0
  6
CONTINUOUS
 10
232.296844
 20
469.115784
 11
235.401886
 21
457.527588
  0
ARC
  8
0
  6
CONTINUOUS
 10
240.231522
 20
458.821686
 40
5.000000
 50
195.000000
 51
270.000000
  0
ARC
  8
0
  6
CONTINUOUS
 10
227.467209
 20
467.821686
 40
5.000000
 50
15.000000
 51
90.000000
  0
LINE
  8
0
  6
CONTINUOUS
 10
227.467209
 20
344.821686
 11
224.894882
 21
344.821686
  0
LINE
  8
0
  6
CONTINUOUS
 10
232.296844
 20
348.527588
 11
235.401886
 21
360.115784
  0
ARC
  8
0
  6
CONTINUOUS
 10
227.467209
 20
349.821686
 40
5.000000
 50
-90.000000
 51
-15.000000
  0
ARC
  8
0
  6
CONTINUOUS
 10
240.231522
 20
358.821686
 40
5.000000
 50
-270.000000
 51
-195.000000
  0
LINE
  8
0
  6
CONTINUOUS
 10
236.894684
 20
408.821686
 11
237.628708
 21
450.874023
  0
LINE
  8
0
  6
CONTINUOUS
 10
236.894684
 20
408.821686
 11
237.628708
 21
366.769318
  0
ARC
  8
0
  6
CONTINUOUS
 10
240.628250
 20
450.821686
 40
3.000000
 50
90.000000
 51
179.000000
  0
ARC
  8
0
  6
CONTINUOUS
 10
240.628250
 20
366.821686
 40
3.000000
 50
-179.000000
 51
-90.000000
  0
ARC
  8
0
  6
CONTINUOUS
 10
363.638885
 20
458.821686
 40
5.000000
 50
16.172159
 51
90.000000
  0
ARC
  8
0
  6
CONTINUOUS
 10
374.050873
 20
458.821686
 40
5.000000
 50
196.172165
 51
270.000000
  0
LINE
  8
0
  6
CONTINUOUS
 10
370.294891
 20
453.821686
 11
370.298096
 21
453.810577
  0
ARC
  8
0
  6
CONTINUOUS
 10
277.636078
 20
465.821686
 40
5.000000
 50
90.000000
 51
163.610458
  0
LINE
  8
0
  6
CONTINUOUS
 10
272.839233
 20
467.232513
 11
271.836060
 21
463.821686
  0
LINE
  8
0
  6
CONTINUOUS
 10
257.348755
 20
460.214294
 11
256.541016
 21
457.429047
  0
LINE
  8
0
  6
CONTINUOUS
 10
262.150879
 20
463.821686
 11
271.836060
 21
463.821686
  0
ARC
  8
0
  6
CONTINUOUS
 10
262.150879
 20
458.821686
 40
5.000000
 50
90.000000
 51
163.827835
  0
ARC
  8
0
  6
CONTINUOUS
 10
251.738876
 20
458.821686
 40
5.000000
 50
-90.000000
 51
-16.172159
  0
LINE
  8
0
  6
CONTINUOUS
 10
255.494888
 20
453.821686
 11
255.491669
 21
453.810577
  0
ARC
  8
0
  6
CONTINUOUS
 10
265.394867
 20
348.821686
 40
6.500000
 50
-231.240692
 51
50.284863
  0
LINE
  8
0
  6
CENTER
 10
275.271210
 20
348.821686
 11
256.333710
 21
348.821686
  0
ARC
  8
0
  6
CONTINUOUS
 10
277.636078
 20
351.821686
 40
5.000000
 50
196.389542
 51
270.000000
  0
LINE
  8
0
  6
CONTINUOUS
 10
272.839233
 20
350.410858
 11
271.836060
 21
353.821686
  0
LINE
  8
0
  6
CONTINUOUS
 10
257.348755
 20
357.429047
 11
256.541016
 21
360.214294
  0
LINE
  8
0
  6
CONTINUOUS
 10
262.150879
 20
353.821686
 11
271.836060
 21
353.821686
  0
ARC
  8
0
  6
CONTINUOUS
 10
262.150879
 20
358.821686
 40
5.000000
 50
-163.827835
 51
-90.000000
  0
ARC
  8
0
  6
CONTINUOUS
 10
251.738876
 20
358.821686
 40
5.000000
 50
16.172159
 51
90.000000
  0
LINE
  8
0
  6
CONTINUOUS
 10
255.494888
 20
363.821686
 11
255.491669
 21
363.832764
  0
LINE
  8
0
  6
CENTER
 10
265.394867
 20
357.974030
 11
265.394867
 21
338.474030
  0
LINE
  8
0
  6
CONTINUOUS
 10
352.950531
 20
350.410858
 11
353.953705
 21
353.821686
  0
ARC
  8
0
  6
CONTINUOUS
 10
348.153687
 20
351.821686
 40
5.000000
 50
-90.000000
 51
-16.389540
  0
LINE
  8
0
  6
CONTINUOUS
 10
368.441010
 20
357.429047
 11
369.248749
 21
360.214294
  0
LINE
  8
0
  6
CONTINUOUS
 10
363.638885
 20
353.821686
 11
353.953705
 21
353.821686
  0
LINE
  8
0
  6
CENTER
 10
350.518555
 20
348.821686
 11
369.456055
 21
348.821686
  0
LINE
  8
0
  6
CENTER
 10
360.394867
 20
357.974030
 11
360.394867
 21
338.474030
  0
ARC
  8
0
  6
CONTINUOUS
 10
360.394867
 20
348.821686
 40
6.500000
 50
-230.284866
 51
51.240688
  0
ARC
  8
0
  6
CONTINUOUS
 10
363.638885
 20
358.821686
 40
5.000000
 50
-90.000000
 51
-16.172159
  0
ARC
  8
0
  6
CONTINUOUS
 10
374.050873
 20
358.821686
 40
5.000000
 50
-270.000000
 51
-196.172165
  0
LINE
  8
0
  6
CONTINUOUS
 10
370.294891
 20
363.821686
 11
370.298096
 21
363.832764
  0
LINE
  8
0
  6
CENTER
 10
312.894867
 20
229.634995
 11
312.894867
 21
0.130870
  0
LINE
  8
0
  6
CENTER
 10
249.010284
 20
150.763748
 11
365.579895
 21
150.763748
  0
LINE
  8
0
  6
CENTER
 10
360.394867
 20
36.039188
 11
360.394867
 21
2.174450
  0
LINE
  8
0
  6
CENTER
 10
265.394867
 20
36.039188
 11
265.394867
 21
1.882510
  0
LINE
  8
0
  6
CONTINUOUS
 10
236.894882
 20
10.763750
 11
388.894867
 21
10.763750
  0
LINE
  8
0
  6
CONTINUOUS
 10
236.894882
 20
28.763750
 11
388.894867
 21
28.763750
  0
LINE
  8
0
  6
CONTINUOUS
 10
388.894867
 20
179.069305
 11
388.894867
 21
10.763750
  0
LINE
  8
0
  6
CONTINUOUS
 10
236.894882
 20
174.263748
 11
236.894882
 21
179.069305
  0
LINE
  8
0
  6
CONTINUOUS
 10
286.391479
 20
215.763748
 11
339.398285
 21
215.763748
  0
LINE
  8
0
  6
CONTINUOUS
 10
231.894882
 20
169.763748
 11
224.894882
 21
169.763748
  0
LINE
  8
0
  6
CONTINUOUS
 10
231.894882
 20
41.763748
 11
224.894882
 21
41.763748
  0
LINE
  8
0
  6
CONTINUOUS
 10
385.444885
 20
185.649368
 11
343.948273
 21
214.343811
  0
LINE
  8
0
  6
CONTINUOUS
 10
240.344849
 20
185.649368
 11
281.841492
 21
214.343811
  0
ARC
  8
0
  6
CONTINUOUS
 10
339.398285
 20
207.763748
 40
8.000000
 50
55.336689
 51
90.000000
  0
ARC
  8
0
  6
CONTINUOUS
 10
380.894867
 20
179.069275
 40
8.000000
 50
0.000000
 51
55.336739
  0
ARC
  8
0
  6
CONTINUOUS
 10
286.391479
 20
207.763748
 40
8.000000
 50
90.000000
 51
124.663696
  0
ARC
  8
0
  6
CONTINUOUS
 10
244.894882
 20
179.069351
 40
8.000000
 50
124.663803
 51
180.000000
  0
LINE
  8
0
  6
CONTINUOUS
 10
236.894882
 20
37.263748
 11
236.894882
 21
10.763750
  0
ARC
  8
0
  6
CONTINUOUS
 10
231.894867
 20
174.763748
 40
5.000000
 50
-90.000000
 51
0.000000
  0
LINE
  8
0
  6
CONTINUOUS
 10
236.894882
 20
37.263748
 11
236.894882
 21
174.263748
  0
ARC
  8
0
  6
CONTINUOUS
 10
231.894897
 20
36.763729
 40
5.000000
 50
0.000000
 51
90.000000
  0
LINE
  8
0
  6
DASHED
 10
258.894867
 20
28.763750
 11
258.894867
 21
10.763750
  0
LINE
  8
0
  6
DASHED
 10
271.894867
 20
28.763750
 11
271.894867
 21
10.763750
  0
LINE
  8
0
  6
DASHED
 10
353.894867
 20
28.763750
 11
353.894867
 21
10.763750
  0
LINE
  8
0
  6
DASHED
 10
366.894867
 20
28.763750
 11
366.894867
 21
10.763750
  0
CIRCLE
  8
0
  6
CONTINUOUS
 10
312.894867
 20
150.763748
 40
39.000000
  0
ARC
  8
0
  6
CONTINUOUS
 10
312.894867
 20
150.763748
 40
44.000000
 50
12.523240
 51
167.476898
  0
ARC
  8
0
  6
CONTINUOUS
 10
287.394867
 20
91.763748
 40
29.000000
 50
167.476898
 51
270.000000
  0
ARC
  8
0
  6
CONTINUOUS
 10
338.394867
 20
91.763748
 40
29.000000
 50
-90.000000
 51
12.523240
  0
ARC
  8
0
  6
CONTINUOUS
 10
287.394867
 20
91.763748
 40
31.900000
 50
167.476898
 51
270.000000
  0
ARC
  8
0
  6
CONTINUOUS
 10
338.394867
 20
91.763748
 40
31.900000
 50
-90.000000
 51
12.523240
  0
ARC
  8
0
  6
CONTINUOUS
 10
312.894867
 20
150.763748
 40
41.099998
 50
-192.523102
 51
12.523240
  0
LINE
  8
0
  6
CONTINUOUS
 10
256.253876
 20
98.680756
 11
269.941681
 21
160.304443
  0
LINE
  8
0
  6
CONTINUOUS
 10
259.084869
 20
98.051933
 11
272.772675
 21
159.675629
  0
LINE
  8
0
  6
CONTINUOUS
 10
287.394867
 20
59.863750
 11
338.394867
 21
59.863750
  0
LINE
  8
0
  6
CONTINUOUS
 10
338.394867
 20
62.763748
 11
287.394867
 21
62.763748
  0
LINE
  8
0
  6
CONTINUOUS
 10
355.848083
 20
160.304535
 11
369.535889
 21
98.680817
  0
LINE
  8
0
  6
CONTINUOUS
 10
353.017090
 20
159.675705
 11
366.704895
 21
98.051987
  0
LINE
  8
0
  6
CONTINUOUS
 10
300.667877
 20
74.763748
 11
295.727478
 21
74.763748
  0
LINE
  8
0
  6
CONTINUOUS
 10
303.394867
 20
83.039146
 11
303.394867
 21
74.763748
  0
LINE
  8
0
  6
CONTINUOUS
 10
308.144867
 20
86.044998
 11
308.144867
 21
89.013748
  0
LINE
  8
0
  6
CONTINUOUS
 10
317.644867
 20
86.044998
 11
317.644867
 21
89.013748
  0
LINE
  8
0
  6
CONTINUOUS
 10
311.967072
 20
87.269608
 11
311.967072
 21
76.322350
  0
LINE
  8
0
  6
CONTINUOUS
 10
313.748474
 20
87.269608
 11
313.748474
 21
76.322350
  0
LINE
  8
0
  6
CONTINUOUS
 10
323.100067
 20
87.269608
 11
323.100067
 21
76.248131
  0
LINE
  8
0
  6
CONTINUOUS
 10
324.732880
 20
81.424889
 11
324.732880
 21
76.248131
  0
LINE
  8
0
  6
CONTINUOUS
 10
301.140869
 20
87.121170
 11
296.563293
 21
87.121170
  0
LINE
  8
0
  6
CONTINUOUS
 10
296.563293
 20
87.121170
 11
295.490692
 21
85.791168
  0
LINE
  8
0
  6
CONTINUOUS
 10
295.619690
 20
89.013748
 11
293.894867
 21
86.805283
  0
LINE
  8
0
  6
CONTINUOUS
 10
295.490692
 20
77.581589
 11
296.580475
 21
76.433670
  0
LINE
  8
0
  6
CONTINUOUS
 10
293.894867
 20
76.612869
 11
295.727478
 21
74.763748
  0
LINE
  8
0
  6
CONTINUOUS
 10
293.894867
 20
86.805283
 11
293.894867
 21
76.612869
  0
LINE
  8
0
  6
CONTINUOUS
 10
295.490692
 20
85.791168
 11
295.490692
 21
77.581589
  0
LINE
  8
0
  6
CONTINUOUS
 10
302.021881
 20
86.269608
 11
301.122894
 21
87.121170
  0
LINE
  8
0
  6
CONTINUOUS
 10
302.007690
 20
89.013748
 11
303.394867
 21
87.474167
  0
LINE
  8
0
  6
CONTINUOUS
 10
302.021881
 20
86.044998
 11
303.394867
 21
86.044998
  0
LINE
  8
0
  6
CONTINUOUS
 10
295.619690
 20
89.013748
 11
302.007690
 21
89.013748
  0
LINE
  8
0
  6
CONTINUOUS
 10
299.535492
 20
83.039146
 11
303.394867
 21
83.039146
  0
LINE
  8
0
  6
CONTINUOUS
 10
302.021881
 20
81.480553
 11
299.535492
 21
81.480553
  0
LINE
  8
0
  6
CONTINUOUS
 10
299.053070
 20
76.433670
 11
296.580475
 21
76.433670
  0
LINE
  8
0
  6
CONTINUOUS
 10
302.021881
 20
79.996170
 11
302.021881
 21
81.183670
  0
ARC
  8
0
  6
CONTINUOUS
 10
299.053070
 20
79.402412
 40
2.968750
 50
-89.999786
 51
0.000109
  0
LINE
  8
0
  6
CONTINUOUS
 10
302.021881
 20
75.899673
 11
302.021881
 21
74.763748
  0
LINE
  8
0
  6
CONTINUOUS
 10
303.394867
 20
87.474167
 11
303.394867
 21
86.044998
  0
LINE
  8
0
  6
CONTINUOUS
 10
302.021881
 20
81.480553
 11
302.021881
 21
79.402412
  0
LINE
  8
0
  6
CONTINUOUS
 10
299.535492
 20
83.039146
 11
299.535492
 21
81.480553
  0
LINE
  8
0
  6
CONTINUOUS
 10
302.021881
 20
74.763748
 11
303.394867
 21
74.763748
  0
LINE
  8
0
  6
CONTINUOUS
 10
302.021881
 20
75.899673
 11
300.667877
 21
74.763748
  0
LINE
  8
0
  6
CONTINUOUS
 10
313.748474
 20
76.322350
 11
314.342072
 21
76.322350
  0
LINE
  8
0
  6
CONTINUOUS
 10
311.262085
 20
76.322350
 11
311.262085
 21
74.763748
  0
LINE
  8
0
  6
CONTINUOUS
 10
314.342072
 20
76.322350
 11
314.342072
 21
74.763748
  0
LINE
  8
0
  6
CONTINUOUS
 10
316.653870
 20
86.044998
 11
317.644867
 21
86.044998
  0
LINE
  8
0
  6
CONTINUOUS
 10
308.144867
 20
86.044998
 11
309.199493
 21
86.044998
  0
LINE
  8
0
  6
CONTINUOUS
 10
308.144867
 20
89.013748
 11
317.644867
 21
89.013748
  0
LINE
  8
0
  6
CONTINUOUS
 10
311.262085
 20
74.763748
 11
314.342072
 21
74.763748
  0
LINE
  8
0
  6
CONTINUOUS
 10
311.262085
 20
76.322350
 11
311.967072
 21
76.322350
  0
ARC
  8
0
  6
CONTINUOUS
 10
328.091095
 20
85.210030
 40
3.803712
 50
-73.981873
 51
90.003510
  0
ARC
  8
0
  6
CONTINUOUS
 10
328.091095
 20
85.210030
 40
2.320524
 50
-82.585274
 51
62.411850
  0
LINE
  8
0
  6
CONTINUOUS
 10
322.394867
 20
89.013748
 11
328.091095
 21
89.013748
  0
LINE
  8
0
  6
CONTINUOUS
 10
328.390686
 20
82.908913
 11
324.732880
 21
82.908913
  0
LINE
  8
0
  6
CONTINUOUS
 10
322.394867
 20
89.013748
 11
322.394867
 21
87.269608
  0
LINE
  8
0
  6
CONTINUOUS
 10
324.732880
 20
87.269608
 11
324.732880
 21
82.908913
  0
LINE
  8
0
  6
CONTINUOUS
 10
329.140686
 20
81.554008
 11
331.495087
 21
76.248131
  0
LINE
  8
0
  6
CONTINUOUS
 10
327.773468
 20
81.424889
 11
330.001495
 21
76.248131
  0
LINE
  8
0
  6
CONTINUOUS
 10
322.394867
 20
76.248131
 11
323.100067
 21
76.248131
  0
LINE
  8
0
  6
CONTINUOUS
 10
324.732880
 20
76.248131
 11
325.382294
 21
76.248131
  0
LINE
  8
0
  6
CONTINUOUS
 10
325.382294
 20
74.763748
 11
322.394867
 21
74.763748
  0
LINE
  8
0
  6
CONTINUOUS
 10
329.705475
 20
76.248131
 11
330.001495
 21
76.248131
  0
LINE
  8
0
  6
CONTINUOUS
 10
331.495087
 20
76.248131
 11
331.894867
 21
76.248131
  0
LINE
  8
0
  6
CONTINUOUS
 10
329.705475
 20
74.763748
 11
331.894867
 21
74.763748
  0
LINE
  8
0
  6
CONTINUOUS
 10
331.894867
 20
76.248131
 11
331.894867
 21
74.763748
  0
LINE
  8
0
  6
CONTINUOUS
 10
329.705475
 20
76.248131
 11
329.705475
 21
74.763748
  0
LINE
  8
0
  6
CONTINUOUS
 10
325.382294
 20
76.248131
 11
325.382294
 21
74.763748
  0
LINE
  8
0
  6
CONTINUOUS
 10
322.394867
 20
76.248131
 11
322.394867
 21
74.763748
  0
LINE
  8
0
  6
CONTINUOUS
 10
309.709686
 20
87.269608
 11
309.199493
 21
86.044998
  0
LINE
  8
0
  6
CONTINUOUS
 10
316.223694
 20
87.269608
 11
316.653870
 21
86.044998
  0
LINE
  8
0
  6
CONTINUOUS
 10
313.748474
 20
87.269608
 11
316.223694
 21
87.269608
  0
LINE
  8
0
  6
CONTINUOUS
 10
311.967072
 20
87.269608
 11
309.709686
 21
87.269608
  0
LINE
  8
0
  6
CONTINUOUS
 10
324.732880
 20
81.424889
 11
327.773468
 21
81.424889
  0
LINE
  8
0
  6
CONTINUOUS
 10
322.394867
 20
87.269608
 11
323.100067
 21
87.269608
  0
LINE
  8
0
  6
CONTINUOUS
 10
324.732880
 20
87.269608
 11
329.165894
 21
87.266724
  0
LINE
  8
0
  6
CONTINUOUS
 10
302.021881
 20
86.269608
 11
302.021881
 21
86.044998
  0
ARC
  8
0
  6
CONTINUOUS
 10
416.603668
 20
105.763748
 40
185.208893
 50
166.001907
 51
193.998093
  0
LINE
  8
0
  6
CONTINUOUS
 10
250.894882
 20
26.697189
 11
250.894882
 21
10.763750
  0
LINE
  8
0
  6
CONTINUOUS
 10
374.894867
 20
26.697189
 11
374.894867
 21
10.763750
  0
LINE
  8
0
  6
CONTINUOUS
 10
336.652283
 20
33.763748
 11
289.137482
 21
33.763748
  0
LINE
  8
0
  6
CONTINUOUS
 10
287.894867
 20
32.827869
 11
287.894867
 21
29.763750
  0
LINE
  8
0
  6
CONTINUOUS
 10
338.773468
 20
32.885071
 11
341.430481
 21
30.228210
  0
LINE
  8
0
  6
CONTINUOUS
 10
287.016296
 20
32.885071
 11
284.359497
 21
30.228251
  0
LINE
  8
0
  6
CONTINUOUS
 10
337.894867
 20
32.827869
 11
337.894867
 21
29.763750
  0
ARC
  8
0
  6
CONTINUOUS
 10
280.823883
 20
33.763748
 40
5.000000
 50
270.000000
 51
315.000092
  0
ARC
  8
0
  6
CONTINUOUS
 10
289.137482
 20
30.763750
 40
3.000000
 50
90.000000
 51
135.000305
  0
ARC
  8
0
  6
CONTINUOUS
 10
286.894867
 20
29.763750
 40
1.000000
 50
-90.000000
 51
0.000000
  0
ARC
  8
0
  6
CONTINUOUS
 10
344.965881
 20
33.763748
 40
5.000000
 50
225.000000
 51
270.000000
  0
ARC
  8
0
  6
CONTINUOUS
 10
336.652283
 20
30.763750
 40
3.000000
 50
45.000160
 51
90.000000
  0
ARC
  8
0
  6
CONTINUOUS
 10
338.894867
 20
29.763750
 40
1.000000
 50
180.000000
 51
270.000000
  0
LINE
  8
0
  6
CONTINUOUS
 10
323.894867
 20
145.763794
 11
323.894867
 21
155.763794
  0
LINE
  8
0
  6
CONTINUOUS
 10
331.894867
 20
145.763809
 11
331.894867
 21
155.763809
  0
LINE
  8
0
  6
CONTINUOUS
 10
331.894867
 20
145.763809
 11
323.894867
 21
145.763794
  0
LINE
  8
0
  6
CONTINUOUS
 10
331.894867
 20
155.763809
 11
323.894867
 21
155.763794
  0
ARC
  8
0
  6
CONTINUOUS
 10
312.894867
 20
150.763748
 40
16.000000
 50
18.209900
 51
341.790100
  0
LINE
  8
0
  6
CENTER
 10
592.594971
 20
-4.356250
 11
592.594971
 21
234.375000
  0
LINE
  8
0
  6
CENTER
 10
512.007629
 20
105.763748
 11
668.822632
 21
105.763748
  0
LINE
  8
0
  6
CENTER
 10
457.945007
 20
150.763748
 11
663.292603
 21
150.763748
  0
LINE
  8
0
  6
CENTER
 10
652.594971
 20
37.362492
 11
652.594971
 21
-0.536630
  0
LINE
  8
0
  6
CENTER
 10
532.594971
 20
37.362492
 11
532.594971
 21
-0.536630
  0
LINE
  8
0
  6
CONTINUOUS
 10
517.594971
 20
10.763750
 11
562.594971
 21
10.763750
  0
LINE
  8
0
  6
CONTINUOUS
 10
622.594971
 20
10.763750
 11
667.594971
 21
10.763750
  0
LINE
  8
0
  6
CONTINUOUS
 10
665.094971
 20
28.763750
 11
641.594971
 21
28.763750
  0
LINE
  8
0
  6
CONTINUOUS
 10
520.094971
 20
28.763750
 11
543.594971
 21
28.763750
  0
LINE
  8
0
  6
CONTINUOUS
 10
637.594971
 20
212.030518
 11
637.594971
 21
10.763750
  0
LINE
  8
0
  6
CONTINUOUS
 10
547.594971
 20
198.504944
 11
547.594971
 21
212.030029
  0
LINE
  8
0
  6
CONTINUOUS
 10
667.594971
 20
26.645929
 11
667.594971
 21
10.763750
  0
LINE
  8
0
  6
CONTINUOUS
 10
517.594971
 20
26.645929
 11
517.594971
 21
10.763750
  0
LINE
  8
0
  6
CONTINUOUS
 10
564.094971
 20
12.263750
 11
621.094971
 21
12.263750
  0
LINE
  8
0
  6
CONTINUOUS
 10
634.647400
 20
215.030045
 11
592.594971
 21
215.763748
  0
LINE
  8
0
  6
CONTINUOUS
 10
550.542603
 20
215.029572
 11
592.594971
 21
215.763748
  0
LINE
  8
0
  6
CONTINUOUS
 10
530.594971
 20
115.504944
 11
530.594971
 21
186.022568
  0
LINE
  8
0
  6
CONTINUOUS
 10
654.594971
 20
115.504944
 11
654.594971
 21
186.022568
  0
LINE
  8
0
  6
CONTINUOUS
 10
537.594971
 20
66.519753
 11
537.594971
 21
154.674149
  0
LINE
  8
0
  6
CONTINUOUS
 10
647.594971
 20
66.519768
 11
647.594971
 21
154.674149
  0
LINE
  8
0
  6
DASHED
 10
659.094971
 20
28.763750
 11
659.094971
 21
10.763750
  0
LINE
  8
0
  6
DASHED
 10
646.094971
 20
28.763750
 11
646.094971
 21
10.763750
  0
LINE
  8
0
  6
DASHED
 10
539.094971
 20
28.763750
 11
539.094971
 21
10.763750
  0
LINE
  8
0
  6
DASHED
 10
526.094971
 20
28.763750
 11
526.094971
 21
10.763750
  0
ARC
  8
0
  6
CONTINUOUS
 10
550.594971
 20
212.030029
 40
3.000000
 50
91.000603
 51
180.000000
  0
ARC
  8
0
  6
CONTINUOUS
 10
634.594971
 20
212.030487
 40
3.000000
 50
0.000000
 51
89.000580
  0
LINE
  8
0
  6
CONTINUOUS
 10
544.005798
 20
193.708115
 11
534.184204
 21
190.819366
  0
LINE
  8
0
  6
CONTINUOUS
 10
534.184204
 20
110.708115
 11
534.723572
 21
110.549446
  0
LINE
  8
0
  6
CONTINUOUS
 10
541.202393
 20
61.717609
 11
543.987610
 21
60.909889
  0
LINE
  8
0
  6
CONTINUOUS
 10
519.684021
 20
29.111910
 11
545.088196
 21
33.345951
  0
LINE
  8
0
  6
CONTINUOUS
 10
665.505981
 20
29.111931
 11
640.101807
 21
33.345970
  0
LINE
  8
0
  6
CONTINUOUS
 10
643.987610
 20
61.717609
 11
641.202393
 21
60.909889
  0
LINE
  8
0
  6
CONTINUOUS
 10
651.005798
 20
110.708115
 11
650.466370
 21
110.549438
  0
LINE
  8
0
  6
CONTINUOUS
 10
651.005798
 20
190.819397
 11
641.184204
 21
193.708115
  0
LINE
  8
0
  6
CONTINUOUS
 10
550.169373
 20
183.263748
 11
634.847595
 21
183.263748
  0
ARC
  8
0
  6
CONTINUOUS
 10
535.594971
 20
186.022583
 40
5.000000
 50
106.389900
 51
180.000000
  0
ARC
  8
0
  6
CONTINUOUS
 10
649.594971
 20
186.022552
 40
5.000000
 50
0.000000
 51
73.610527
  0
ARC
  8
0
  6
CONTINUOUS
 10
535.594971
 20
115.504974
 40
5.000000
 50
180.000000
 51
253.610794
  0
ARC
  8
0
  6
CONTINUOUS
 10
649.594971
 20
115.504936
 40
5.000000
 50
-73.610321
 51
0.000000
  0
ARC
  8
0
  6
CONTINUOUS
 10
642.594971
 20
66.519753
 40
5.000000
 50
-73.827698
 51
0.000000
  0
ARC
  8
0
  6
CONTINUOUS
 10
542.594971
 20
66.519791
 40
5.000000
 50
180.000000
 51
253.828201
  0
LINE
  8
0
  6
CONTINUOUS
 10
547.594971
 20
198.504944
 11
547.594971
 21
10.763750
  0
ARC
  8
0
  6
CONTINUOUS
 10
542.594971
 20
198.504929
 40
5.000000
 50
-73.610229
 51
0.000000
  0
ARC
  8
0
  6
CONTINUOUS
 10
533.594971
 20
106.711967
 40
4.000000
 50
0.000000
 51
73.610649
  0
ARC
  8
0
  6
CONTINUOUS
 10
542.594971
 20
56.107731
 40
5.000000
 50
0.000000
 51
73.827919
  0
ARC
  8
0
  6
CONTINUOUS
 10
642.594971
 20
56.107769
 40
5.000000
 50
106.172501
 51
180.000000
  0
ARC
  8
0
  6
CONTINUOUS
 10
651.594971
 20
106.711998
 40
4.000000
 50
106.389999
 51
180.000000
  0
ARC
  8
0
  6
CONTINUOUS
 10
642.594971
 20
198.504974
 40
5.000000
 50
180.000000
 51
253.610794
  0
ARC
  8
0
  6
CONTINUOUS
 10
544.594971
 20
36.305130
 40
3.000000
 50
-80.537483
 51
0.000000
  0
ARC
  8
0
  6
CONTINUOUS
 10
543.594971
 20
32.763710
 40
4.000000
 50
-90.000000
 51
0.000000
  0
ARC
  8
0
  6
CONTINUOUS
 10
520.094971
 20
26.263769
 40
2.500000
 50
90.000000
 51
180.000000
  0
LINE
  8
0
  6
CONTINUOUS
 10
562.594971
 20
10.763750
 11
564.094971
 21
12.263750
  0
LINE
  8
0
  6
CONTINUOUS
 10
622.594971
 20
10.763750
 11
621.094971
 21
12.263750
  0
ARC
  8
0
  6
CONTINUOUS
 10
640.594971
 20
36.305168
 40
3.000000
 50
180.000000
 51
260.537903
  0
ARC
  8
0
  6
CONTINUOUS
 10
641.594971
 20
32.763748
 40
4.000000
 50
180.000000
 51
270.000000
  0
ARC
  8
0
  6
CONTINUOUS
 10
665.094971
 20
26.263750
 40
2.500000
 50
0.000000
 51
90.000000
  0
LINE
  8
0
  6
CONTINUOUS
 10
472.595001
 20
134.763748
 11
472.595001
 21
166.763748
  0
LINE
  8
0
  6
CONTINUOUS
 10
527.594971
 20
166.763748
 11
472.595001
 21
166.763748
  0
LINE
  8
0
  6
CONTINUOUS
 10
527.594971
 20
134.763748
 11
472.595001
 21
134.763748
  0
LINE
  8
0
  6
CONTINUOUS
 10
527.594971
 20
168.263748
 11
527.594971
 21
133.263748
  0
LINE
  8
0
  6
CONTINUOUS
 10
530.594971
 20
168.263748
 11
527.594971
 21
168.263748
  0
LINE
  8
0
  6
CONTINUOUS
 10
530.594971
 20
133.263748
 11
527.594971
 21
133.263748
  0
ARC
  8
0
  6
CONTINUOUS
 10
517.594971
 20
150.763748
 40
5.000000
 50
-90.000000
 51
90.000000
  0
LINE
  8
0
  6
CONTINUOUS
 10
517.594971
 20
155.763748
 11
472.595001
 21
155.763748
  0
LINE
  8
0
  6
CONTINUOUS
 10
517.594971
 20
145.763748
 11
472.595001
 21
145.763748
  0
ARC
  8
0
  6
CONTINUOUS
 10
520.094971
 20
26.645950
 40
2.500000
 50
99.462753
 51
180.000000
  0
ARC
  8
0
  6
CONTINUOUS
 10
665.094971
 20
26.645929
 40
2.500000
 50
0.000000
 51
80.537682
  0
LINE
  8
0
  6
CONTINUOUS
 10
224.894882
 20
169.763748
 11
224.894882
 21
41.763748
  0
ARC
  8
0
  6
CONTINUOUS
 10
592.594971
 20
105.763748
 40
64.000000
 50
165.638489
 51
210.753525
  0
ARC
  8
0
  6
CONTINUOUS
 10
592.594971
 20
105.763748
 40
64.000000
 50
-30.753519
 51
14.361512
  0
ARC
  8
0
  6
CONTINUOUS
 10
551.582825
 20
64.751534
 40
8.000000
 50
211.001404
 51
233.216995
  0
ARC
  8
0
  6
CONTINUOUS
 10
545.594971
 20
56.742409
 40
2.000000
 50
30.947910
 51
53.217121
  0
ARC
  8
0
  6
CONTINUOUS
 10
633.607178
 20
64.751534
 40
8.000000
 50
-53.216999
 51
-31.001400
  0
ARC
  8
0
  6
CONTINUOUS
 10
639.594971
 20
56.742409
 40
2.000000
 50
126.782883
 51
149.052094
  0
LINE
  8
0
  6
CENTER
 10
-22.946875
 20
92.763748
 11
269.781250
 21
92.763748
  0
LINE
  8
0
  6
CENTER
 10
138.835938
 20
105.763748
 11
269.781250
 21
105.763748
  0
LINE
  8
0
  6
CONTINUOUS
 10
216.394882
 20
346.821686
 11
216.394882
 21
470.821686
  0
LINE
  8
0
  6
CONTINUOUS
 10
170.394882
 20
453.821686
 11
213.958496
 21
455.342957
  0
LINE
  8
0
  6
CONTINUOUS
 10
170.394882
 20
363.821686
 11
213.958496
 21
362.300415
  0
LINE
  8
0
  6
CONTINUOUS
 10
170.394882
 20
457.833679
 11
170.394882
 21
359.809692
  0
LINE
  8
0
  6
CONTINUOUS
 10
218.394882
 20
472.821686
 11
224.894882
 21
472.821686
  0
LINE
  8
0
  6
CONTINUOUS
 10
218.394882
 20
344.821686
 11
224.894882
 21
344.821686
  0
LINE
  8
0
  6
CONTINUOUS
 10
209.251877
 20
432.821686
 11
216.366867
 21
432.821686
  0
LINE
  8
0
  6
CONTINUOUS
 10
209.857025
 20
384.821686
 11
216.366867
 21
384.821686
  0
LINE
  8
0
  6
CONTINUOUS
 10
209.251877
 20
430.617188
 11
209.251877
 21
386.904602
  0
LINE
  8
0
  6
CONTINUOUS
 10
161.394882
 20
451.821686
 11
161.394882
 21
437.821686
  0
LINE
  8
0
  6
CONTINUOUS
 10
51.394882
 20
453.821686
 11
170.394882
 21
453.821686
  0
LINE
  8
0
  6
CONTINUOUS
 10
51.394882
 20
363.821686
 11
170.394882
 21
363.821686
  0
LINE
  8
0
  6
CONTINUOUS
 10
51.394882
 20
437.821686
 11
161.394882
 21
437.821686
  0
LINE
  8
0
  6
CONTINUOUS
 10
51.394882
 20
379.821686
 11
161.394882
 21
379.821686
  0
ARC
  8
0
  6
CONTINUOUS
 10
163.394882
 20
451.821686
 40
2.000000
 50
90.000000
 51
180.000000
  0
ARC
  8
0
  6
CONTINUOUS
 10
163.394882
 20
365.821686
 40
2.000000
 50
180.000000
 51
270.000000
  0
LINE
  8
0
  6
CONTINUOUS
 10
170.394882
 20
453.821686
 11
170.394882
 21
363.821686
  0
ARC
  8
0
  6
CONTINUOUS
 10
218.394882
 20
470.821686
 40
2.000000
 50
90.000000
 51
180.000000
  0
ARC
  8
0
  6
CONTINUOUS
 10
218.394882
 20
346.821686
 40
2.000000
 50
180.000000
 51
270.000000
  0
ARC
  8
0
  6
CONTINUOUS
 10
213.871246
 20
457.841431
 40
2.500000
 50
272.000000
 51
359.895721
  0
ARC
  8
0
  6
CONTINUOUS
 10
213.871246
 20
359.801941
 40
2.500000
 50
0.104292
 51
88.000000
  0
LINE
  8
0
  6
CONTINUOUS
 10
216.394882
 20
455.428040
 11
216.366867
 21
455.427063
  0
LINE
  8
0
  6
CONTINUOUS
 10
170.894577
 20
458.351135
 11
216.394882
 21
459.940033
  0
LINE
  8
0
  6
CONTINUOUS
 10
170.394882
 20
457.833679
 11
170.894577
 21
458.351135
  0
LINE
  8
0
  6
CONTINUOUS
 10
170.894577
 20
359.292236
 11
216.394882
 21
357.703339
  0
LINE
  8
0
  6
CONTINUOUS
 10
170.394882
 20
359.809692
 11
170.894577
 21
359.292236
  0
LINE
  8
0
  6
CONTINUOUS
 10
161.394882
 20
135.763748
 11
161.394882
 21
49.763729
  0
LINE
  8
0
  6
CONTINUOUS
 10
51.394882
 20
137.763748
 11
170.394882
 21
137.763748
  0
LINE
  8
0
  6
CONTINUOUS
 10
51.394882
 20
47.763748
 11
170.394882
 21
47.763748
  0
LINE
  8
0
  6
CONTINUOUS
 10
51.394882
 20
127.173050
 11
160.357208
 21
127.173050
  0
LINE
  8
0
  6
CONTINUOUS
 10
51.394882
 20
58.354450
 11
160.357208
 21
58.354450
  0
ARC
  8
0
  6
CONTINUOUS
 10
163.394882
 20
135.763763
 40
2.000000
 50
90.000000
 51
180.000000
  0
ARC
  8
0
  6
CONTINUOUS
 10
163.394882
 20
49.763748
 40
2.000000
 50
180.000000
 51
270.000000
  0
LINE
  8
0
  6
CONTINUOUS
 10
218.394882
 20
169.763855
 11
224.894882
 21
169.763855
  0
LINE
  8
0
  6
CONTINUOUS
 10
218.394882
 20
41.763653
 11
224.894882
 21
41.763653
  0
LINE
  8
0
  6
CONTINUOUS
 10
170.394882
 20
137.763748
 11
216.394882
 21
139.370102
  0
LINE
  8
0
  6
CONTINUOUS
 10
224.894882
 20
45.860569
 11
170.394882
 21
47.763748
  0
ARC
  8
0
  6
CONTINUOUS
 10
218.394897
 20
167.763870
 40
2.000000
 50
90.000000
 51
180.000000
  0
ARC
  8
0
  6
CONTINUOUS
 10
218.394882
 20
43.763653
 40
2.000000
 50
180.260773
 51
270.000000
  0
LINE
  8
0
  6
CONTINUOUS
 10
170.394882
 20
137.763748
 11
170.394882
 21
47.763748
  0
LINE
  8
0
  6
CONTINUOUS
 10
215.662643
 20
145.531509
 11
209.948135
 21
139.817001
  0
LINE
  8
0
  6
CONTINUOUS
 10
170.394882
 20
72.257751
 11
214.394882
 21
72.257751
  0
LINE
  8
0
  6
CONTINUOUS
 10
170.394882
 20
57.244751
 11
224.894882
 21
57.244751
  0
LINE
  8
0
  6
CONTINUOUS
 10
216.962845
 20
65.196747
 11
224.894882
 21
65.196747
  0
LINE
  8
0
  6
CONTINUOUS
 10
216.394882
 20
66.411484
 11
216.394882
 21
167.763870
  0
ARC
  8
0
  6
CONTINUOUS
 10
213.894928
 20
43.743172
 40
2.500000
 50
0.260773
 51
88.000000
  0
ARC
  8
0
  6
CONTINUOUS
 10
213.894882
 20
147.299286
 40
2.500000
 50
-45.000000
 51
0.000000
  0
ARC
  8
0
  6
CONTINUOUS
 10
208.180374
 20
141.584778
 40
2.500000
 50
272.000000
 51
315.000000
  0
LINE
  8
0
  6
CONTINUOUS
 10
41.894882
 20
453.821686
 11
51.394882
 21
453.821686
  0
LINE
  8
0
  6
CONTINUOUS
 10
51.394882
 20
437.821686
 11
41.894882
 21
437.821686
  0
LINE
  8
0
  6
CONTINUOUS
 10
41.894882
 20
363.821686
 11
51.394882
 21
363.821686
  0
LINE
  8
0
  6
CONTINUOUS
 10
51.394882
 20
363.821686
 11
51.394882
 21
383.821655
  0
LINE
  8
0
  6
CONTINUOUS
 10
51.394882
 20
379.821686
 11
41.894882
 21
379.821686
  0
LINE
  8
0
  6
CONTINUOUS
 10
51.394882
 20
433.821655
 11
51.394882
 21
453.821686
  0
LINE
  8
0
  6
CONTINUOUS
 10
41.894882
 20
455.821686
 11
41.894882
 21
361.821686
  0
LINE
  8
0
  6
CONTINUOUS
 10
41.894882
 20
437.821686
 11
-2.080148
 21
437.821686
  0
LINE
  8
0
  6
CONTINUOUS
 10
41.894882
 20
379.821686
 11
-2.080148
 21
379.821686
  0
LINE
  8
0
  6
CONTINUOUS
 10
-0.605138
 20
455.821686
 11
41.894882
 21
455.821686
  0
LINE
  8
0
  6
CONTINUOUS
 10
-0.605138
 20
361.821686
 11
41.894882
 21
361.821686
  0
ARC
  8
0
  6
CONTINUOUS
 10
-0.605108
 20
450.821686
 40
5.000000
 50
90.000000
 51
180.000000
  0
ARC
  8
0
  6
CONTINUOUS
 10
-0.605138
 20
366.821686
 40
5.000000
 50
180.000000
 51
270.000000
  0
LINE
  8
0
  6
CONTINUOUS
 10
-5.605108
 20
450.821686
 11
-5.605138
 21
366.821655
  0
LINE
  8
0
  6
CONTINUOUS
 10
41.894882
 20
137.763748
 11
51.394882
 21
137.763748
  0
LINE
  8
0
  6
CONTINUOUS
 10
51.394882
 20
127.173050
 11
41.894882
 21
127.173050
  0
LINE
  8
0
  6
CONTINUOUS
 10
41.894882
 20
47.763748
 11
51.394882
 21
47.763748
  0
LINE
  8
0
  6
CONTINUOUS
 10
51.394882
 20
58.354462
 11
41.894882
 21
58.354462
  0
LINE
  8
0
  6
CONTINUOUS
 10
41.894882
 20
139.763748
 11
41.894882
 21
45.763748
  0
LINE
  8
0
  6
CONTINUOUS
 10
41.894882
 20
121.763748
 11
-2.080148
 21
121.763748
  0
LINE
  8
0
  6
CONTINUOUS
 10
41.894882
 20
63.763748
 11
-2.080148
 21
63.763748
  0
LINE
  8
0
  6
CONTINUOUS
 10
-0.605138
 20
139.763748
 11
41.894882
 21
139.763748
  0
LINE
  8
0
  6
CONTINUOUS
 10
-0.605138
 20
45.763748
 11
41.894882
 21
45.763748
  0
ARC
  8
0
  6
CONTINUOUS
 10
-0.605108
 20
134.763748
 40
5.000000
 50
90.000000
 51
180.000000
  0
ARC
  8
0
  6
CONTINUOUS
 10
-0.605138
 20
50.763748
 40
5.000000
 50
180.000000
 51
270.000000
  0
LINE
  8
0
  6
CONTINUOUS
 10
-5.605108
 20
134.763748
 11
-5.605138
 21
50.763741
  0
LINE
  8
0
  6
CONTINUOUS
 10
51.394882
 20
47.763748
 11
51.394882
 21
137.763748
  0
LINE
  8
0
  6
CONTINUOUS
 10
42.394882
 20
385.821655
 11
42.394882
 21
431.821655
  0
LINE
  8
0
  6
CONTINUOUS
 10
44.394882
 20
433.821655
 11
42.394882
 21
431.821655
  0
LINE
  8
0
  6
CONTINUOUS
 10
44.394882
 20
433.821655
 11
90.394875
 21
433.821655
  0
LINE
  8
0
  6
CONTINUOUS
 10
84.894882
 20
429.321655
 11
84.894882
 21
433.821655
  0
ARC
  8
0
  6
CONTINUOUS
 10
87.894882
 20
429.321655
 40
3.000000
 50
180.000000
 51
270.000000
  0
LINE
  8
0
  6
CONTINUOUS
 10
87.894882
 20
426.321655
 11
92.394875
 21
426.321655
  0
CIRCLE
  8
0
  6
CONTINUOUS
 10
88.894882
 20
430.321655
 40
2.250000
  0
LINE
  8
0
  6
CONTINUOUS
 10
92.394875
 20
385.821655
 11
92.394875
 21
431.821655
  0
LINE
  8
0
  6
CONTINUOUS
 10
90.394875
 20
433.821655
 11
92.394875
 21
431.821655
  0
LINE
  8
0
  6
CONTINUOUS
 10
90.394875
 20
383.821655
 11
92.394875
 21
385.821655
  0
LINE
  8
0
  6
CONTINUOUS
 10
90.394875
 20
383.821655
 11
44.394882
 21
383.821655
  0
LINE
  8
0
  6
CONTINUOUS
 10
42.394882
 20
385.821655
 11
44.394882
 21
383.821655
  0
LINE
  8
0
  6
CONTINUOUS
 10
46.894882
 20
391.321655
 11
42.394894
 21
391.321655
  0
CIRCLE
  8
0
  6
CONTINUOUS
 10
45.894882
 20
387.321655
 40
2.250000
  0
ARC
  8
0
  6
CONTINUOUS
 10
46.894882
 20
388.321655
 40
3.000000
 50
0.000000
 51
90.000000
  0
LINE
  8
0
  6
CONTINUOUS
 10
49.894882
 20
388.321655
 11
49.894882
 21
383.821655
  0
LINE
  8
0
  6
CENTER
 10
67.394882
 20
376.355865
 11
67.394882
 21
440.487915
  0
LINE
  8
0
  6
CONTINUOUS
 10
43.394890
 20
391.321686
 11
43.394890
 21
426.321686
  0
LINE
  8
0
  6
CONTINUOUS
 10
84.894882
 20
432.821686
 11
49.894901
 21
432.821686
  0
LINE
  8
0
  6
CONTINUOUS
 10
91.394875
 20
426.321686
 11
91.394875
 21
391.321686
  0
LINE
  8
0
  6
CONTINUOUS
 10
49.894882
 20
384.821686
 11
84.894859
 21
384.821686
  0
LINE
  8
0
  6
CONTINUOUS
 10
46.894901
 20
426.321686
 11
42.394901
 21
426.321686
  0
ARC
  8
0
  6
CONTINUOUS
 10
46.894901
 20
429.321686
 40
3.000000
 50
-90.000000
 51
0.000000
  0
LINE
  8
0
  6
CONTINUOUS
 10
49.894901
 20
429.321686
 11
49.894901
 21
433.821655
  0
CIRCLE
  8
0
  6
CONTINUOUS
 10
45.894901
 20
430.321686
 40
2.250000
  0
LINE
  8
0
  6
CONTINUOUS
 10
87.894859
 20
391.321686
 11
92.394859
 21
391.321686
  0
ARC
  8
0
  6
CONTINUOUS
 10
87.894859
 20
388.321686
 40
3.000000
 50
90.000000
 51
180.000000
  0
LINE
  8
0
  6
CONTINUOUS
 10
84.894859
 20
388.321686
 11
84.894859
 21
383.821686
  0
CIRCLE
  8
0
  6
CONTINUOUS
 10
88.894859
 20
387.321686
 40
2.250000
  0
LINE
  8
0
  6
CONTINUOUS
 10
43.894882
 20
139.263748
 11
90.394882
 21
139.263748
  0
LINE
  8
0
  6
CONTINUOUS
 10
92.394859
 20
183.263748
 11
92.394882
 21
141.263748
  0
LINE
  8
0
  6
CONTINUOUS
 10
42.394882
 20
183.263748
 11
42.394882
 21
141.263748
  0
LINE
  8
0
  6
CONTINUOUS
 10
42.394882
 20
151.263748
 11
92.394882
 21
151.263748
  0
LINE
  8
0
  6
CONTINUOUS
 10
90.394882
 20
139.263748
 11
92.394882
 21
141.263748
  0
LINE
  8
0
  6
CONTINUOUS
 10
42.394882
 20
141.263748
 11
44.394882
 21
139.263748
  0
LINE
  8
0
  6
CONTINUOUS
 10
42.394882
 20
141.263748
 11
92.394882
 21
141.263748
  0
LINE
  8
0
  6
CONTINUOUS
 10
42.394882
 20
152.263748
 11
92.394875
 21
152.263748
  0
LINE
  8
0
  6
CONTINUOUS
 10
43.394882
 20
184.263748
 11
91.394859
 21
184.263748
  0
LINE
  8
0
  6
CONTINUOUS
 10
91.394859
 20
184.263748
 11
92.394859
 21
183.263748
  0
LINE
  8
0
  6
CONTINUOUS
 10
43.394882
 20
184.263748
 11
42.394882
 21
183.263748
  0
LINE
  8
0
  6
CONTINUOUS
 10
42.394882
 20
183.263748
 11
92.394859
 21
183.263748
  0
LINE
  8
0
  6
CENTER
 10
67.394882
 20
132.874237
 11
67.394882
 21
189.574234
  0
LINE
  8
0
  6
CENTER
 10
40.019882
 20
167.263748
 11
44.644882
 21
167.263748
  0
LINE
  8
0
  6
CONTINUOUS
 10
43.894882
 20
139.263748
 11
43.894882
 21
137.763748
  0
LINE
  8
0
  6
CONTINUOUS
 10
89.894882
 20
139.263748
 11
89.894882
 21
137.763748
  0
LINE
  8
0
  6
CONTINUOUS
 10
41.519882
 20
177.763748
 11
43.519882
 21
177.763748
  0
LINE
  8
0
  6
CONTINUOUS
 10
41.519882
 20
156.763748
 11
43.519882
 21
156.763748
  0
LINE
  8
0
  6
CONTINUOUS
 10
161.394882
 20
379.821686
 11
161.394882
 21
365.821655
  0
TEXT
  8
0
 10
-23.000000
 20
-4.000000
 40
4.000000
 41
1.000000
  1
HLM-32R-1200~1800-S60WK
 50
0.000000
  0
ENDSEC
  0
EOF
