  0
SECTION
  2
HEADER
  9
$CLAYER
  8
1
  9
$LTSCALE
 40
3.0
  0
ENDSEC
  0
SECTION
  2
TABLES
  0
TABLE
  2
LTYPE
 70
     4
  0
LTYPE
  2
CONTINUOUS
  3
solid line
 70
    64
 72
    65
 73
     0
 40
0.0
  0
LTYPE
  2
DASHED
  3
__ __ __ __ __ __ __ __ __ __ __ __ __ __ __
 70
    64
 72
    65
 73
     2
 40
0.75
 49
0.5
 49
-0.25
  0
LTYPE
  2
CENTER
  3
____ _ ____ _ ____ _ ____ _ ____ _ ____ _ ____
 70
    64
 72
    65
 73
     4
 40
2.0
 49
1.25
 49
-0.25
 49
0.25
 49
-0.25
  0
LTYPE
  2
PHANTOM
  3
_____ _ _ _____ _ _ _____ _ _ _____ _ _ ____
 70
    64
 72
    65
 73
     6
 40
2.5
 49
1.25
 49
-0.25
 49
0.25
 49
-0.25
 49
0.25
 49
-0.25
  0
ENDTAB
  0
TABLE
  2
LAYER
 70
     1
  0
LAYER
  2
0
 70
    64
 62
     7
  6
CONTINUOUS
  0
ENDTAB
  0
TABLE
  2
STYLE
 70
     1
  0
STYLE
  2
STANDARD
 70
     0
 40
0.000000
 41
1.000000
 50
0.000000
 71
     0
 42
3.000000
  3
txt
  4
BIGFONT
  0
ENDTAB
  0
ENDSEC
  0
SECTION
  2
BLOCKS
  0
ENDSEC
  0
SECTION
  2
ENTITIES
  0
LINE
  8
0
  6
CENTER
 10
312.894867
 20
506.787506
 11
312.894867
 21
280.452515
  0
LINE
  8
0
  6
CONTINUOUS
 10
388.895081
 20
412.239166
 11
388.109619
 21
457.239166
  0
LINE
  8
0
  6
CONTINUOUS
 10
254.444824
 20
487.239166
 11
312.894867
 21
487.239166
  0
LINE
  8
0
  6
CONTINUOUS
 10
378.838470
 20
482.040405
 11
388.109619
 21
457.239166
  0
ARC
  8
0
  6
CONTINUOUS
 10
371.344940
 20
479.239166
 40
8.000000
 50
20.496618
 51
90.000000
  0
LINE
  8
0
  6
CONTINUOUS
 10
388.895081
 20
412.239166
 11
388.109619
 21
367.239166
  0
LINE
  8
0
  6
CONTINUOUS
 10
254.444824
 20
337.239166
 11
296.894867
 21
337.239166
  0
LINE
  8
0
  6
CONTINUOUS
 10
378.838470
 20
342.437958
 11
388.109619
 21
367.239166
  0
ARC
  8
0
  6
CONTINUOUS
 10
371.344940
 20
345.239166
 40
8.000000
 50
-90.000000
 51
-20.496618
  0
LINE
  8
0
  6
CONTINUOUS
 10
246.951279
 20
482.040405
 11
237.896500
 21
457.817902
  0
ARC
  8
0
  6
CONTINUOUS
 10
254.444824
 20
479.239166
 40
8.000000
 50
90.000000
 51
159.503387
  0
LINE
  8
0
  6
CONTINUOUS
 10
246.951279
 20
342.437958
 11
237.896500
 21
366.660461
  0
ARC
  8
0
  6
CONTINUOUS
 10
254.444824
 20
345.239166
 40
8.000000
 50
200.496613
 51
270.000000
  0
LINE
  8
0
  6
CONTINUOUS
 10
240.231522
 20
457.239166
 11
385.161499
 21
457.239166
  0
LINE
  8
0
  6
CONTINUOUS
 10
385.161499
 20
367.239166
 11
240.231522
 21
367.239166
  0
LINE
  8
0
  6
CONTINUOUS
 10
312.894867
 20
474.239166
 11
348.153687
 21
474.239166
  0
ARC
  8
0
  6
CONTINUOUS
 10
385.161499
 20
454.239166
 40
3.000000
 50
1.000000
 51
90.000000
  0
ARC
  8
0
  6
CONTINUOUS
 10
385.161499
 20
370.239166
 40
3.000000
 50
270.000000
 51
359.000000
  0
LINE
  8
0
  6
CONTINUOUS
 10
341.894867
 20
454.239166
 11
341.894867
 21
370.239166
  0
LINE
  8
0
  6
CONTINUOUS
 10
283.894867
 20
454.239166
 11
283.894867
 21
370.239166
  0
LINE
  8
0
  6
CONTINUOUS
 10
224.894882
 20
476.239166
 11
224.894882
 21
348.239166
  0
LINE
  8
0
  6
CONTINUOUS
 10
227.467209
 20
476.239166
 11
224.894882
 21
476.239166
  0
LINE
  8
0
  6
CONTINUOUS
 10
352.950531
 20
470.650024
 11
353.953705
 21
467.239166
  0
ARC
  8
0
  6
CONTINUOUS
 10
348.153687
 20
469.239166
 40
5.000000
 50
16.389540
 51
90.000000
  0
LINE
  8
0
  6
CONTINUOUS
 10
368.441010
 20
463.631805
 11
369.248749
 21
460.846558
  0
LINE
  8
0
  6
CONTINUOUS
 10
363.638885
 20
467.239166
 11
353.953705
 21
467.239166
  0
LINE
  8
0
  6
CONTINUOUS
 10
312.894867
 20
474.239166
 11
277.636078
 21
474.239166
  0
LINE
  8
0
  6
CONTINUOUS
 10
312.894867
 20
350.239166
 11
348.153687
 21
350.239166
  0
LINE
  8
0
  6
CONTINUOUS
 10
312.894867
 20
350.239166
 11
277.636078
 21
350.239166
  0
LINE
  8
0
  6
CONTINUOUS
 10
312.894867
 20
487.239166
 11
371.344940
 21
487.239166
  0
LINE
  8
0
  6
CONTINUOUS
 10
331.894867
 20
292.239166
 11
296.894867
 21
292.239166
  0
LINE
  8
0
  6
CONTINUOUS
 10
296.894867
 20
347.239166
 11
296.894867
 21
292.239166
  0
LINE
  8
0
  6
CONTINUOUS
 10
328.894867
 20
347.239166
 11
328.894867
 21
342.239166
  0
LINE
  8
0
  6
CONTINUOUS
 10
295.394867
 20
347.239166
 11
330.394867
 21
347.239166
  0
LINE
  8
0
  6
CONTINUOUS
 10
295.394867
 20
350.239166
 11
295.394867
 21
347.239166
  0
LINE
  8
0
  6
CONTINUOUS
 10
330.394867
 20
350.239166
 11
330.394867
 21
347.239166
  0
LINE
  8
0
  6
CONTINUOUS
 10
331.894867
 20
292.239166
 11
331.894867
 21
342.239166
  0
LINE
  8
0
  6
CONTINUOUS
 10
328.093567
 20
342.239166
 11
331.894867
 21
342.239166
  0
LINE
  8
0
  6
CONTINUOUS
 10
328.093567
 20
342.239166
 11
328.093567
 21
292.239166
  0
LINE
  8
0
  6
CONTINUOUS
 10
331.894867
 20
337.239166
 11
371.344940
 21
337.239166
  0
LINE
  8
0
  6
CENTER
 10
350.518555
 20
472.239166
 11
369.456055
 21
472.239166
  0
LINE
  8
0
  6
CENTER
 10
360.394867
 20
463.086853
 11
360.394867
 21
482.586853
  0
ARC
  8
0
  6
CONTINUOUS
 10
360.394867
 20
472.239166
 40
6.500000
 50
-51.240688
 51
230.284866
  0
ARC
  8
0
  6
CONTINUOUS
 10
265.394867
 20
472.239166
 40
6.500000
 50
-50.284863
 51
231.240692
  0
LINE
  8
0
  6
CENTER
 10
265.394867
 20
463.086853
 11
265.394867
 21
482.586853
  0
LINE
  8
0
  6
CENTER
 10
275.271210
 20
472.239166
 11
256.333710
 21
472.239166
  0
LINE
  8
0
  6
CENTER
 10
-23.068125
 20
412.239166
 11
400.315918
 21
412.239166
  0
LINE
  8
0
  6
CONTINUOUS
 10
232.296844
 20
472.533264
 11
235.401886
 21
460.945099
  0
ARC
  8
0
  6
CONTINUOUS
 10
240.231522
 20
462.239166
 40
5.000000
 50
195.000000
 51
270.000000
  0
ARC
  8
0
  6
CONTINUOUS
 10
227.467209
 20
471.239166
 40
5.000000
 50
15.000000
 51
90.000000
  0
LINE
  8
0
  6
CONTINUOUS
 10
227.467209
 20
348.239166
 11
224.894882
 21
348.239166
  0
LINE
  8
0
  6
CONTINUOUS
 10
232.296844
 20
351.945099
 11
235.401886
 21
363.533264
  0
ARC
  8
0
  6
CONTINUOUS
 10
227.467209
 20
353.239166
 40
5.000000
 50
-90.000000
 51
-15.000000
  0
ARC
  8
0
  6
CONTINUOUS
 10
240.231522
 20
362.239166
 40
5.000000
 50
-270.000000
 51
-195.000000
  0
LINE
  8
0
  6
CONTINUOUS
 10
236.894684
 20
412.239166
 11
237.628708
 21
454.291534
  0
LINE
  8
0
  6
CONTINUOUS
 10
236.894684
 20
412.239166
 11
237.628708
 21
370.186829
  0
ARC
  8
0
  6
CONTINUOUS
 10
240.628250
 20
454.239166
 40
3.000000
 50
90.000000
 51
179.000000
  0
ARC
  8
0
  6
CONTINUOUS
 10
240.628250
 20
370.239166
 40
3.000000
 50
-179.000000
 51
-90.000000
  0
ARC
  8
0
  6
CONTINUOUS
 10
363.638885
 20
462.239166
 40
5.000000
 50
16.172159
 51
90.000000
  0
ARC
  8
0
  6
CONTINUOUS
 10
374.050873
 20
462.239166
 40
5.000000
 50
196.172165
 51
270.000000
  0
LINE
  8
0
  6
CONTINUOUS
 10
370.294891
 20
457.239166
 11
370.298096
 21
457.228088
  0
ARC
  8
0
  6
CONTINUOUS
 10
277.636078
 20
469.239166
 40
5.000000
 50
90.000000
 51
163.610458
  0
LINE
  8
0
  6
CONTINUOUS
 10
272.839233
 20
470.650024
 11
271.836060
 21
467.239166
  0
LINE
  8
0
  6
CONTINUOUS
 10
257.348755
 20
463.631805
 11
256.541016
 21
460.846558
  0
LINE
  8
0
  6
CONTINUOUS
 10
262.150879
 20
467.239166
 11
271.836060
 21
467.239166
  0
ARC
  8
0
  6
CONTINUOUS
 10
262.150879
 20
462.239166
 40
5.000000
 50
90.000000
 51
163.827835
  0
ARC
  8
0
  6
CONTINUOUS
 10
251.738876
 20
462.239166
 40
5.000000
 50
-90.000000
 51
-16.172159
  0
LINE
  8
0
  6
CONTINUOUS
 10
255.494888
 20
457.239166
 11
255.491669
 21
457.228088
  0
ARC
  8
0
  6
CONTINUOUS
 10
265.394867
 20
352.239166
 40
6.500000
 50
-231.240692
 51
50.284863
  0
LINE
  8
0
  6
CENTER
 10
275.271210
 20
352.239166
 11
256.333710
 21
352.239166
  0
ARC
  8
0
  6
CONTINUOUS
 10
277.636078
 20
355.239166
 40
5.000000
 50
196.389542
 51
270.000000
  0
LINE
  8
0
  6
CONTINUOUS
 10
272.839233
 20
353.828339
 11
271.836060
 21
357.239166
  0
LINE
  8
0
  6
CONTINUOUS
 10
257.348755
 20
360.846558
 11
256.541016
 21
363.631805
  0
LINE
  8
0
  6
CONTINUOUS
 10
262.150879
 20
357.239166
 11
271.836060
 21
357.239166
  0
ARC
  8
0
  6
CONTINUOUS
 10
262.150879
 20
362.239166
 40
5.000000
 50
-163.827835
 51
-90.000000
  0
ARC
  8
0
  6
CONTINUOUS
 10
251.738876
 20
362.239166
 40
5.000000
 50
16.172159
 51
90.000000
  0
LINE
  8
0
  6
CONTINUOUS
 10
255.494888
 20
367.239166
 11
255.491669
 21
367.250275
  0
LINE
  8
0
  6
CENTER
 10
265.394867
 20
361.391510
 11
265.394867
 21
341.891510
  0
LINE
  8
0
  6
CONTINUOUS
 10
352.950531
 20
353.828339
 11
353.953705
 21
357.239166
  0
ARC
  8
0
  6
CONTINUOUS
 10
348.153687
 20
355.239166
 40
5.000000
 50
-90.000000
 51
-16.389540
  0
LINE
  8
0
  6
CONTINUOUS
 10
368.441010
 20
360.846558
 11
369.248749
 21
363.631805
  0
LINE
  8
0
  6
CONTINUOUS
 10
363.638885
 20
357.239166
 11
353.953705
 21
357.239166
  0
LINE
  8
0
  6
CENTER
 10
350.518555
 20
352.239166
 11
369.456055
 21
352.239166
  0
LINE
  8
0
  6
CENTER
 10
360.394867
 20
361.391510
 11
360.394867
 21
341.891510
  0
ARC
  8
0
  6
CONTINUOUS
 10
360.394867
 20
352.239166
 40
6.500000
 50
-230.284866
 51
51.240688
  0
ARC
  8
0
  6
CONTINUOUS
 10
363.638885
 20
362.239166
 40
5.000000
 50
-90.000000
 51
-16.172159
  0
ARC
  8
0
  6
CONTINUOUS
 10
374.050873
 20
362.239166
 40
5.000000
 50
-270.000000
 51
-196.172165
  0
LINE
  8
0
  6
CONTINUOUS
 10
370.294891
 20
367.239166
 11
370.298096
 21
367.250275
  0
LINE
  8
0
  6
CENTER
 10
312.894867
 20
233.052505
 11
312.894867
 21
3.548370
  0
LINE
  8
0
  6
CENTER
 10
249.010284
 20
154.181244
 11
365.579895
 21
154.181244
  0
LINE
  8
0
  6
CENTER
 10
360.394867
 20
39.456692
 11
360.394867
 21
5.591950
  0
LINE
  8
0
  6
CENTER
 10
265.394867
 20
39.456692
 11
265.394867
 21
5.300010
  0
LINE
  8
0
  6
CONTINUOUS
 10
236.894882
 20
14.181250
 11
388.894867
 21
14.181250
  0
LINE
  8
0
  6
CONTINUOUS
 10
236.894882
 20
32.181252
 11
388.894867
 21
32.181252
  0
LINE
  8
0
  6
CONTINUOUS
 10
388.894867
 20
182.486816
 11
388.894867
 21
14.181250
  0
LINE
  8
0
  6
CONTINUOUS
 10
236.894882
 20
177.681244
 11
236.894882
 21
182.486816
  0
LINE
  8
0
  6
CONTINUOUS
 10
286.391479
 20
219.181244
 11
339.398285
 21
219.181244
  0
LINE
  8
0
  6
CONTINUOUS
 10
231.894882
 20
173.181244
 11
224.894882
 21
173.181244
  0
LINE
  8
0
  6
CONTINUOUS
 10
231.894882
 20
45.181252
 11
224.894882
 21
45.181252
  0
LINE
  8
0
  6
CONTINUOUS
 10
385.444885
 20
189.066864
 11
343.948273
 21
217.761307
  0
LINE
  8
0
  6
CONTINUOUS
 10
240.344849
 20
189.066864
 11
281.841492
 21
217.761307
  0
ARC
  8
0
  6
CONTINUOUS
 10
339.398285
 20
211.181244
 40
8.000000
 50
55.336689
 51
90.000000
  0
ARC
  8
0
  6
CONTINUOUS
 10
380.894867
 20
182.486771
 40
8.000000
 50
0.000000
 51
55.336739
  0
ARC
  8
0
  6
CONTINUOUS
 10
286.391479
 20
211.181244
 40
8.000000
 50
90.000000
 51
124.663696
  0
ARC
  8
0
  6
CONTINUOUS
 10
244.894882
 20
182.486847
 40
8.000000
 50
124.663803
 51
180.000000
  0
LINE
  8
0
  6
CONTINUOUS
 10
236.894882
 20
40.681252
 11
236.894882
 21
14.181250
  0
ARC
  8
0
  6
CONTINUOUS
 10
231.894867
 20
178.181244
 40
5.000000
 50
-90.000000
 51
0.000000
  0
LINE
  8
0
  6
CONTINUOUS
 10
236.894882
 20
40.681252
 11
236.894882
 21
177.681244
  0
ARC
  8
0
  6
CONTINUOUS
 10
231.894897
 20
40.181229
 40
5.000000
 50
0.000000
 51
90.000000
  0
LINE
  8
0
  6
DASHED
 10
258.894867
 20
32.181252
 11
258.894867
 21
14.181250
  0
LINE
  8
0
  6
DASHED
 10
271.894867
 20
32.181252
 11
271.894867
 21
14.181250
  0
LINE
  8
0
  6
DASHED
 10
353.894867
 20
32.181252
 11
353.894867
 21
14.181250
  0
LINE
  8
0
  6
DASHED
 10
366.894867
 20
32.181252
 11
366.894867
 21
14.181250
  0
CIRCLE
  8
0
  6
CONTINUOUS
 10
312.894867
 20
154.181244
 40
39.000000
  0
ARC
  8
0
  6
CONTINUOUS
 10
312.894867
 20
154.181244
 40
44.000000
 50
12.523240
 51
167.476898
  0
ARC
  8
0
  6
CONTINUOUS
 10
287.394867
 20
95.181252
 40
29.000000
 50
167.476898
 51
270.000000
  0
ARC
  8
0
  6
CONTINUOUS
 10
338.394867
 20
95.181252
 40
29.000000
 50
-90.000000
 51
12.523240
  0
ARC
  8
0
  6
CONTINUOUS
 10
287.394867
 20
95.181252
 40
31.900000
 50
167.476898
 51
270.000000
  0
ARC
  8
0
  6
CONTINUOUS
 10
338.394867
 20
95.181252
 40
31.900000
 50
-90.000000
 51
12.523240
  0
ARC
  8
0
  6
CONTINUOUS
 10
312.894867
 20
154.181244
 40
41.099998
 50
-192.523102
 51
12.523240
  0
LINE
  8
0
  6
CONTINUOUS
 10
256.253876
 20
102.098251
 11
269.941681
 21
163.721954
  0
LINE
  8
0
  6
CONTINUOUS
 10
259.084869
 20
101.469437
 11
272.772675
 21
163.093124
  0
LINE
  8
0
  6
CONTINUOUS
 10
287.394867
 20
63.281250
 11
338.394867
 21
63.281250
  0
LINE
  8
0
  6
CONTINUOUS
 10
338.394867
 20
66.181252
 11
287.394867
 21
66.181252
  0
LINE
  8
0
  6
CONTINUOUS
 10
355.848083
 20
163.722031
 11
369.535889
 21
102.098312
  0
LINE
  8
0
  6
CONTINUOUS
 10
353.017090
 20
163.093216
 11
366.704895
 21
101.469490
  0
LINE
  8
0
  6
CONTINUOUS
 10
300.667877
 20
78.181252
 11
295.727478
 21
78.181252
  0
LINE
  8
0
  6
CONTINUOUS
 10
303.394867
 20
86.456650
 11
303.394867
 21
78.181252
  0
LINE
  8
0
  6
CONTINUOUS
 10
308.144867
 20
89.462502
 11
308.144867
 21
92.431252
  0
LINE
  8
0
  6
CONTINUOUS
 10
317.644867
 20
89.462502
 11
317.644867
 21
92.431252
  0
LINE
  8
0
  6
CONTINUOUS
 10
311.967072
 20
90.687111
 11
311.967072
 21
79.739853
  0
LINE
  8
0
  6
CONTINUOUS
 10
313.748474
 20
90.687111
 11
313.748474
 21
79.739853
  0
LINE
  8
0
  6
CONTINUOUS
 10
323.100067
 20
90.687111
 11
323.100067
 21
79.665627
  0
LINE
  8
0
  6
CONTINUOUS
 10
324.732880
 20
84.842392
 11
324.732880
 21
79.665627
  0
LINE
  8
0
  6
CONTINUOUS
 10
301.140869
 20
90.538673
 11
296.563293
 21
90.538673
  0
LINE
  8
0
  6
CONTINUOUS
 10
296.563293
 20
90.538673
 11
295.490692
 21
89.208672
  0
LINE
  8
0
  6
CONTINUOUS
 10
295.619690
 20
92.431252
 11
293.894867
 21
90.222786
  0
LINE
  8
0
  6
CONTINUOUS
 10
295.490692
 20
80.999092
 11
296.580475
 21
79.851173
  0
LINE
  8
0
  6
CONTINUOUS
 10
293.894867
 20
80.030373
 11
295.727478
 21
78.181252
  0
LINE
  8
0
  6
CONTINUOUS
 10
293.894867
 20
90.222786
 11
293.894867
 21
80.030373
  0
LINE
  8
0
  6
CONTINUOUS
 10
295.490692
 20
89.208672
 11
295.490692
 21
80.999092
  0
LINE
  8
0
  6
CONTINUOUS
 10
302.021881
 20
89.687111
 11
301.122894
 21
90.538673
  0
LINE
  8
0
  6
CONTINUOUS
 10
302.007690
 20
92.431252
 11
303.394867
 21
90.891670
  0
LINE
  8
0
  6
CONTINUOUS
 10
302.021881
 20
89.462502
 11
303.394867
 21
89.462502
  0
LINE
  8
0
  6
CONTINUOUS
 10
295.619690
 20
92.431252
 11
302.007690
 21
92.431252
  0
LINE
  8
0
  6
CONTINUOUS
 10
299.535492
 20
86.456650
 11
303.394867
 21
86.456650
  0
LINE
  8
0
  6
CONTINUOUS
 10
302.021881
 20
84.898048
 11
299.535492
 21
84.898048
  0
LINE
  8
0
  6
CONTINUOUS
 10
299.053070
 20
79.851173
 11
296.580475
 21
79.851173
  0
LINE
  8
0
  6
CONTINUOUS
 10
302.021881
 20
83.413673
 11
302.021881
 21
84.601173
  0
ARC
  8
0
  6
CONTINUOUS
 10
299.053070
 20
82.819908
 40
2.968750
 50
-89.999786
 51
0.000109
  0
LINE
  8
0
  6
CONTINUOUS
 10
302.021881
 20
79.317169
 11
302.021881
 21
78.181252
  0
LINE
  8
0
  6
CONTINUOUS
 10
303.394867
 20
90.891670
 11
303.394867
 21
89.462502
  0
LINE
  8
0
  6
CONTINUOUS
 10
302.021881
 20
84.898048
 11
302.021881
 21
82.819908
  0
LINE
  8
0
  6
CONTINUOUS
 10
299.535492
 20
86.456650
 11
299.535492
 21
84.898048
  0
LINE
  8
0
  6
CONTINUOUS
 10
302.021881
 20
78.181252
 11
303.394867
 21
78.181252
  0
LINE
  8
0
  6
CONTINUOUS
 10
302.021881
 20
79.317169
 11
300.667877
 21
78.181252
  0
LINE
  8
0
  6
CONTINUOUS
 10
313.748474
 20
79.739853
 11
314.342072
 21
79.739853
  0
LINE
  8
0
  6
CONTINUOUS
 10
311.262085
 20
79.739853
 11
311.262085
 21
78.181252
  0
LINE
  8
0
  6
CONTINUOUS
 10
314.342072
 20
79.739853
 11
314.342072
 21
78.181252
  0
LINE
  8
0
  6
CONTINUOUS
 10
316.653870
 20
89.462502
 11
317.644867
 21
89.462502
  0
LINE
  8
0
  6
CONTINUOUS
 10
308.144867
 20
89.462502
 11
309.199493
 21
89.462502
  0
LINE
  8
0
  6
CONTINUOUS
 10
308.144867
 20
92.431252
 11
317.644867
 21
92.431252
  0
LINE
  8
0
  6
CONTINUOUS
 10
311.262085
 20
78.181252
 11
314.342072
 21
78.181252
  0
LINE
  8
0
  6
CONTINUOUS
 10
311.262085
 20
79.739853
 11
311.967072
 21
79.739853
  0
ARC
  8
0
  6
CONTINUOUS
 10
328.091095
 20
88.627533
 40
3.803712
 50
-73.981873
 51
90.003510
  0
ARC
  8
0
  6
CONTINUOUS
 10
328.091095
 20
88.627533
 40
2.320524
 50
-82.585274
 51
62.411850
  0
LINE
  8
0
  6
CONTINUOUS
 10
322.394867
 20
92.431252
 11
328.091095
 21
92.431252
  0
LINE
  8
0
  6
CONTINUOUS
 10
328.390686
 20
86.326408
 11
324.732880
 21
86.326408
  0
LINE
  8
0
  6
CONTINUOUS
 10
322.394867
 20
92.431252
 11
322.394867
 21
90.687111
  0
LINE
  8
0
  6
CONTINUOUS
 10
324.732880
 20
90.687111
 11
324.732880
 21
86.326408
  0
LINE
  8
0
  6
CONTINUOUS
 10
329.140686
 20
84.971512
 11
331.495087
 21
79.665627
  0
LINE
  8
0
  6
CONTINUOUS
 10
327.773468
 20
84.842392
 11
330.001495
 21
79.665627
  0
LINE
  8
0
  6
CONTINUOUS
 10
322.394867
 20
79.665627
 11
323.100067
 21
79.665627
  0
LINE
  8
0
  6
CONTINUOUS
 10
324.732880
 20
79.665627
 11
325.382294
 21
79.665627
  0
LINE
  8
0
  6
CONTINUOUS
 10
325.382294
 20
78.181252
 11
322.394867
 21
78.181252
  0
LINE
  8
0
  6
CONTINUOUS
 10
329.705475
 20
79.665627
 11
330.001495
 21
79.665627
  0
LINE
  8
0
  6
CONTINUOUS
 10
331.495087
 20
79.665627
 11
331.894867
 21
79.665627
  0
LINE
  8
0
  6
CONTINUOUS
 10
329.705475
 20
78.181252
 11
331.894867
 21
78.181252
  0
LINE
  8
0
  6
CONTINUOUS
 10
331.894867
 20
79.665627
 11
331.894867
 21
78.181252
  0
LINE
  8
0
  6
CONTINUOUS
 10
329.705475
 20
79.665627
 11
329.705475
 21
78.181252
  0
LINE
  8
0
  6
CONTINUOUS
 10
325.382294
 20
79.665627
 11
325.382294
 21
78.181252
  0
LINE
  8
0
  6
CONTINUOUS
 10
322.394867
 20
79.665627
 11
322.394867
 21
78.181252
  0
LINE
  8
0
  6
CONTINUOUS
 10
309.709686
 20
90.687111
 11
309.199493
 21
89.462502
  0
LINE
  8
0
  6
CONTINUOUS
 10
316.223694
 20
90.687111
 11
316.653870
 21
89.462502
  0
LINE
  8
0
  6
CONTINUOUS
 10
313.748474
 20
90.687111
 11
316.223694
 21
90.687111
  0
LINE
  8
0
  6
CONTINUOUS
 10
311.967072
 20
90.687111
 11
309.709686
 21
90.687111
  0
LINE
  8
0
  6
CONTINUOUS
 10
324.732880
 20
84.842392
 11
327.773468
 21
84.842392
  0
LINE
  8
0
  6
CONTINUOUS
 10
322.394867
 20
90.687111
 11
323.100067
 21
90.687111
  0
LINE
  8
0
  6
CONTINUOUS
 10
324.732880
 20
90.687111
 11
329.165894
 21
90.684227
  0
LINE
  8
0
  6
CONTINUOUS
 10
302.021881
 20
89.687111
 11
302.021881
 21
89.462502
  0
ARC
  8
0
  6
CONTINUOUS
 10
416.603668
 20
109.181252
 40
185.208893
 50
166.001907
 51
193.998093
  0
LINE
  8
0
  6
CONTINUOUS
 10
250.894882
 20
30.114691
 11
250.894882
 21
14.181250
  0
LINE
  8
0
  6
CONTINUOUS
 10
374.894867
 20
30.114691
 11
374.894867
 21
14.181250
  0
LINE
  8
0
  6
CONTINUOUS
 10
336.652283
 20
37.181252
 11
289.137482
 21
37.181252
  0
LINE
  8
0
  6
CONTINUOUS
 10
287.894867
 20
36.245369
 11
287.894867
 21
33.181252
  0
LINE
  8
0
  6
CONTINUOUS
 10
338.773468
 20
36.302570
 11
341.430481
 21
33.645710
  0
LINE
  8
0
  6
CONTINUOUS
 10
287.016296
 20
36.302570
 11
284.359497
 21
33.645748
  0
LINE
  8
0
  6
CONTINUOUS
 10
337.894867
 20
36.245369
 11
337.894867
 21
33.181252
  0
ARC
  8
0
  6
CONTINUOUS
 10
280.823883
 20
37.181252
 40
5.000000
 50
270.000000
 51
315.000092
  0
ARC
  8
0
  6
CONTINUOUS
 10
289.137482
 20
34.181252
 40
3.000000
 50
90.000000
 51
135.000305
  0
ARC
  8
0
  6
CONTINUOUS
 10
286.894867
 20
33.181252
 40
1.000000
 50
-90.000000
 51
0.000000
  0
ARC
  8
0
  6
CONTINUOUS
 10
344.965881
 20
37.181252
 40
5.000000
 50
225.000000
 51
270.000000
  0
ARC
  8
0
  6
CONTINUOUS
 10
336.652283
 20
34.181252
 40
3.000000
 50
45.000160
 51
90.000000
  0
ARC
  8
0
  6
CONTINUOUS
 10
338.894867
 20
33.181252
 40
1.000000
 50
180.000000
 51
270.000000
  0
LINE
  8
0
  6
CONTINUOUS
 10
323.894867
 20
149.181290
 11
323.894867
 21
159.181290
  0
LINE
  8
0
  6
CONTINUOUS
 10
331.894867
 20
149.181305
 11
331.894867
 21
159.181305
  0
LINE
  8
0
  6
CONTINUOUS
 10
331.894867
 20
149.181305
 11
323.894867
 21
149.181290
  0
LINE
  8
0
  6
CONTINUOUS
 10
331.894867
 20
159.181305
 11
323.894867
 21
159.181290
  0
ARC
  8
0
  6
CONTINUOUS
 10
312.894867
 20
154.181244
 40
16.000000
 50
18.209900
 51
341.790100
  0
LINE
  8
0
  6
CENTER
 10
597.721252
 20
-0.938750
 11
597.721252
 21
237.792496
  0
LINE
  8
0
  6
CENTER
 10
517.133850
 20
109.181252
 11
673.948853
 21
109.181252
  0
LINE
  8
0
  6
CENTER
 10
463.071259
 20
154.181244
 11
668.418884
 21
154.181244
  0
LINE
  8
0
  6
CENTER
 10
657.721252
 20
40.779991
 11
657.721252
 21
2.880870
  0
LINE
  8
0
  6
CENTER
 10
537.721252
 20
40.779991
 11
537.721252
 21
2.880870
  0
LINE
  8
0
  6
CONTINUOUS
 10
522.721252
 20
14.181250
 11
567.721252
 21
14.181250
  0
LINE
  8
0
  6
CONTINUOUS
 10
627.721252
 20
14.181250
 11
672.721252
 21
14.181250
  0
LINE
  8
0
  6
CONTINUOUS
 10
670.221252
 20
32.181252
 11
646.721252
 21
32.181252
  0
LINE
  8
0
  6
CONTINUOUS
 10
525.221252
 20
32.181252
 11
548.721252
 21
32.181252
  0
LINE
  8
0
  6
CONTINUOUS
 10
642.721252
 20
215.448013
 11
642.721252
 21
14.181250
  0
LINE
  8
0
  6
CONTINUOUS
 10
552.721252
 20
201.922455
 11
552.721252
 21
215.447525
  0
LINE
  8
0
  6
CONTINUOUS
 10
672.721252
 20
30.063431
 11
672.721252
 21
14.181250
  0
LINE
  8
0
  6
CONTINUOUS
 10
522.721252
 20
30.063431
 11
522.721252
 21
14.181250
  0
LINE
  8
0
  6
CONTINUOUS
 10
569.221252
 20
15.681250
 11
626.221252
 21
15.681250
  0
LINE
  8
0
  6
CONTINUOUS
 10
639.773621
 20
218.447556
 11
597.721252
 21
219.181244
  0
LINE
  8
0
  6
CONTINUOUS
 10
555.668823
 20
218.447067
 11
597.721252
 21
219.181244
  0
LINE
  8
0
  6
CONTINUOUS
 10
535.721252
 20
118.922447
 11
535.721252
 21
189.440063
  0
LINE
  8
0
  6
CONTINUOUS
 10
659.721252
 20
118.922447
 11
659.721252
 21
189.440063
  0
LINE
  8
0
  6
CONTINUOUS
 10
542.721252
 20
69.937248
 11
542.721252
 21
158.091644
  0
LINE
  8
0
  6
CONTINUOUS
 10
652.721252
 20
69.937271
 11
652.721252
 21
158.091644
  0
LINE
  8
0
  6
DASHED
 10
664.221252
 20
32.181252
 11
664.221252
 21
14.181250
  0
LINE
  8
0
  6
DASHED
 10
651.221252
 20
32.181252
 11
651.221252
 21
14.181250
  0
LINE
  8
0
  6
DASHED
 10
544.221252
 20
32.181252
 11
544.221252
 21
14.181250
  0
LINE
  8
0
  6
DASHED
 10
531.221252
 20
32.181252
 11
531.221252
 21
14.181250
  0
ARC
  8
0
  6
CONTINUOUS
 10
555.721252
 20
215.447525
 40
3.000000
 50
91.000603
 51
180.000000
  0
ARC
  8
0
  6
CONTINUOUS
 10
639.721252
 20
215.447983
 40
3.000000
 50
0.000000
 51
89.000580
  0
LINE
  8
0
  6
CONTINUOUS
 10
549.132080
 20
197.125610
 11
539.310425
 21
194.236877
  0
LINE
  8
0
  6
CONTINUOUS
 10
539.310425
 20
114.125618
 11
539.849854
 21
113.966942
  0
LINE
  8
0
  6
CONTINUOUS
 10
546.328674
 20
65.135109
 11
549.113831
 21
64.327393
  0
LINE
  8
0
  6
CONTINUOUS
 10
524.810242
 20
32.529411
 11
550.214478
 21
36.763451
  0
LINE
  8
0
  6
CONTINUOUS
 10
670.632263
 20
32.529430
 11
645.228027
 21
36.763470
  0
LINE
  8
0
  6
CONTINUOUS
 10
649.113831
 20
65.135109
 11
646.328674
 21
64.327393
  0
LINE
  8
0
  6
CONTINUOUS
 10
656.132080
 20
114.125618
 11
655.592651
 21
113.966934
  0
LINE
  8
0
  6
CONTINUOUS
 10
656.132080
 20
194.236893
 11
646.310425
 21
197.125610
  0
LINE
  8
0
  6
CONTINUOUS
 10
555.295654
 20
186.681244
 11
639.973877
 21
186.681244
  0
ARC
  8
0
  6
CONTINUOUS
 10
540.721252
 20
189.440094
 40
5.000000
 50
106.389900
 51
180.000000
  0
ARC
  8
0
  6
CONTINUOUS
 10
654.721252
 20
189.440048
 40
5.000000
 50
0.000000
 51
73.610527
  0
ARC
  8
0
  6
CONTINUOUS
 10
540.721252
 20
118.922478
 40
5.000000
 50
180.000000
 51
253.610794
  0
ARC
  8
0
  6
CONTINUOUS
 10
654.721252
 20
118.922432
 40
5.000000
 50
-73.610321
 51
0.000000
  0
ARC
  8
0
  6
CONTINUOUS
 10
647.721252
 20
69.937248
 40
5.000000
 50
-73.827698
 51
0.000000
  0
ARC
  8
0
  6
CONTINUOUS
 10
547.721252
 20
69.937286
 40
5.000000
 50
180.000000
 51
253.828201
  0
LINE
  8
0
  6
CONTINUOUS
 10
552.721252
 20
201.922455
 11
552.721252
 21
14.181250
  0
ARC
  8
0
  6
CONTINUOUS
 10
547.721252
 20
201.922424
 40
5.000000
 50
-73.610229
 51
0.000000
  0
ARC
  8
0
  6
CONTINUOUS
 10
538.721252
 20
110.129463
 40
4.000000
 50
0.000000
 51
73.610649
  0
ARC
  8
0
  6
CONTINUOUS
 10
547.721252
 20
59.525230
 40
5.000000
 50
0.000000
 51
73.827919
  0
ARC
  8
0
  6
CONTINUOUS
 10
647.721252
 20
59.525269
 40
5.000000
 50
106.172501
 51
180.000000
  0
ARC
  8
0
  6
CONTINUOUS
 10
656.721252
 20
110.129501
 40
4.000000
 50
106.389999
 51
180.000000
  0
ARC
  8
0
  6
CONTINUOUS
 10
647.721252
 20
201.922470
 40
5.000000
 50
180.000000
 51
253.610794
  0
ARC
  8
0
  6
CONTINUOUS
 10
549.721252
 20
39.722630
 40
3.000000
 50
-80.537483
 51
0.000000
  0
ARC
  8
0
  6
CONTINUOUS
 10
548.721252
 20
36.181210
 40
4.000000
 50
-90.000000
 51
0.000000
  0
ARC
  8
0
  6
CONTINUOUS
 10
525.221252
 20
29.681271
 40
2.500000
 50
90.000000
 51
180.000000
  0
LINE
  8
0
  6
CONTINUOUS
 10
567.721252
 20
14.181250
 11
569.221252
 21
15.681250
  0
LINE
  8
0
  6
CONTINUOUS
 10
627.721252
 20
14.181250
 11
626.221252
 21
15.681250
  0
ARC
  8
0
  6
CONTINUOUS
 10
645.721252
 20
39.722672
 40
3.000000
 50
180.000000
 51
260.537903
  0
ARC
  8
0
  6
CONTINUOUS
 10
646.721252
 20
36.181252
 40
4.000000
 50
180.000000
 51
270.000000
  0
ARC
  8
0
  6
CONTINUOUS
 10
670.221252
 20
29.681250
 40
2.500000
 50
0.000000
 51
90.000000
  0
LINE
  8
0
  6
CONTINUOUS
 10
477.721252
 20
138.181244
 11
477.721252
 21
170.181244
  0
LINE
  8
0
  6
CONTINUOUS
 10
532.721252
 20
170.181244
 11
477.721252
 21
170.181244
  0
LINE
  8
0
  6
CONTINUOUS
 10
532.721252
 20
138.181244
 11
477.721252
 21
138.181244
  0
LINE
  8
0
  6
CONTINUOUS
 10
532.721252
 20
171.681244
 11
532.721252
 21
136.681244
  0
LINE
  8
0
  6
CONTINUOUS
 10
535.721252
 20
171.681244
 11
532.721252
 21
171.681244
  0
LINE
  8
0
  6
CONTINUOUS
 10
535.721252
 20
136.681244
 11
532.721252
 21
136.681244
  0
ARC
  8
0
  6
CONTINUOUS
 10
522.721252
 20
154.181244
 40
5.000000
 50
-90.000000
 51
90.000000
  0
LINE
  8
0
  6
CONTINUOUS
 10
522.721252
 20
159.181244
 11
477.721252
 21
159.181244
  0
LINE
  8
0
  6
CONTINUOUS
 10
522.721252
 20
149.181244
 11
477.721252
 21
149.181244
  0
ARC
  8
0
  6
CONTINUOUS
 10
525.221252
 20
30.063450
 40
2.500000
 50
99.462753
 51
180.000000
  0
ARC
  8
0
  6
CONTINUOUS
 10
670.221252
 20
30.063431
 40
2.500000
 50
0.000000
 51
80.537682
  0
LINE
  8
0
  6
CONTINUOUS
 10
224.894882
 20
173.181244
 11
224.894882
 21
45.181252
  0
ARC
  8
0
  6
CONTINUOUS
 10
597.721252
 20
109.181252
 40
64.000000
 50
165.638489
 51
210.753525
  0
ARC
  8
0
  6
CONTINUOUS
 10
597.721252
 20
109.181252
 40
64.000000
 50
-30.753519
 51
14.361512
  0
ARC
  8
0
  6
CONTINUOUS
 10
556.709045
 20
68.169029
 40
8.000000
 50
211.001404
 51
233.216995
  0
ARC
  8
0
  6
CONTINUOUS
 10
550.721252
 20
60.159908
 40
2.000000
 50
30.947910
 51
53.217121
  0
ARC
  8
0
  6
CONTINUOUS
 10
638.733459
 20
68.169029
 40
8.000000
 50
-53.216999
 51
-31.001400
  0
ARC
  8
0
  6
CONTINUOUS
 10
644.721252
 20
60.159908
 40
2.000000
 50
126.782883
 51
149.052094
  0
LINE
  8
0
  6
CENTER
 10
-22.946875
 20
96.181252
 11
269.781250
 21
96.181252
  0
LINE
  8
0
  6
CENTER
 10
138.835938
 20
109.181252
 11
269.781250
 21
109.181252
  0
LINE
  8
0
  6
CONTINUOUS
 10
216.394882
 20
350.239166
 11
216.394882
 21
474.239166
  0
LINE
  8
0
  6
CONTINUOUS
 10
170.394882
 20
457.239166
 11
213.958496
 21
458.760468
  0
LINE
  8
0
  6
CONTINUOUS
 10
170.394882
 20
367.239166
 11
213.958496
 21
365.717896
  0
LINE
  8
0
  6
CONTINUOUS
 10
170.394882
 20
461.251190
 11
170.394882
 21
363.227173
  0
LINE
  8
0
  6
CONTINUOUS
 10
218.394882
 20
476.239166
 11
224.894882
 21
476.239166
  0
LINE
  8
0
  6
CONTINUOUS
 10
218.394882
 20
348.239166
 11
224.894882
 21
348.239166
  0
LINE
  8
0
  6
CONTINUOUS
 10
209.251877
 20
436.239166
 11
216.366867
 21
436.239166
  0
LINE
  8
0
  6
CONTINUOUS
 10
209.857025
 20
388.239166
 11
216.366867
 21
388.239166
  0
LINE
  8
0
  6
CONTINUOUS
 10
209.251877
 20
434.034668
 11
209.251877
 21
390.322113
  0
LINE
  8
0
  6
CONTINUOUS
 10
161.394882
 20
455.239166
 11
161.394882
 21
441.239166
  0
LINE
  8
0
  6
CONTINUOUS
 10
51.394882
 20
457.239166
 11
170.394882
 21
457.239166
  0
LINE
  8
0
  6
CONTINUOUS
 10
51.394882
 20
367.239166
 11
170.394882
 21
367.239166
  0
LINE
  8
0
  6
CONTINUOUS
 10
51.394882
 20
441.239166
 11
161.394882
 21
441.239166
  0
LINE
  8
0
  6
CONTINUOUS
 10
51.394882
 20
383.239166
 11
161.394882
 21
383.239166
  0
ARC
  8
0
  6
CONTINUOUS
 10
163.394882
 20
455.239197
 40
2.000000
 50
90.000000
 51
180.000000
  0
ARC
  8
0
  6
CONTINUOUS
 10
163.394882
 20
369.239166
 40
2.000000
 50
180.000000
 51
270.000000
  0
LINE
  8
0
  6
CONTINUOUS
 10
170.394882
 20
457.239166
 11
170.394882
 21
367.239166
  0
ARC
  8
0
  6
CONTINUOUS
 10
218.394882
 20
474.239166
 40
2.000000
 50
90.000000
 51
180.000000
  0
ARC
  8
0
  6
CONTINUOUS
 10
218.394882
 20
350.239166
 40
2.000000
 50
180.000000
 51
270.000000
  0
ARC
  8
0
  6
CONTINUOUS
 10
213.871246
 20
461.258942
 40
2.500000
 50
272.000000
 51
359.895721
  0
ARC
  8
0
  6
CONTINUOUS
 10
213.871246
 20
363.219421
 40
2.500000
 50
0.104292
 51
88.000000
  0
LINE
  8
0
  6
CONTINUOUS
 10
216.394882
 20
458.845520
 11
216.366867
 21
458.844543
  0
LINE
  8
0
  6
CONTINUOUS
 10
170.894577
 20
461.768616
 11
216.394882
 21
463.357544
  0
LINE
  8
0
  6
CONTINUOUS
 10
170.394882
 20
461.251190
 11
170.894577
 21
461.768616
  0
LINE
  8
0
  6
CONTINUOUS
 10
170.894577
 20
362.709717
 11
216.394882
 21
361.120819
  0
LINE
  8
0
  6
CONTINUOUS
 10
170.394882
 20
363.227173
 11
170.894577
 21
362.709717
  0
LINE
  8
0
  6
CONTINUOUS
 10
161.394882
 20
139.181244
 11
161.394882
 21
53.181229
  0
LINE
  8
0
  6
CONTINUOUS
 10
51.394882
 20
141.181244
 11
170.394882
 21
141.181244
  0
LINE
  8
0
  6
CONTINUOUS
 10
51.394882
 20
51.181252
 11
170.394882
 21
51.181252
  0
LINE
  8
0
  6
CONTINUOUS
 10
51.394882
 20
130.590546
 11
160.357208
 21
130.590546
  0
LINE
  8
0
  6
CONTINUOUS
 10
51.394882
 20
61.771950
 11
160.357208
 21
61.771950
  0
ARC
  8
0
  6
CONTINUOUS
 10
163.394882
 20
139.181274
 40
2.000000
 50
90.000000
 51
180.000000
  0
ARC
  8
0
  6
CONTINUOUS
 10
163.394882
 20
53.181252
 40
2.000000
 50
180.000000
 51
270.000000
  0
LINE
  8
0
  6
CONTINUOUS
 10
218.394882
 20
173.181351
 11
224.894882
 21
173.181351
  0
LINE
  8
0
  6
CONTINUOUS
 10
218.394882
 20
45.181152
 11
224.894882
 21
45.181152
  0
LINE
  8
0
  6
CONTINUOUS
 10
170.394882
 20
141.181244
 11
216.394882
 21
142.787598
  0
LINE
  8
0
  6
CONTINUOUS
 10
224.894882
 20
49.278069
 11
170.394882
 21
51.181252
  0
ARC
  8
0
  6
CONTINUOUS
 10
218.394897
 20
171.181366
 40
2.000000
 50
90.000000
 51
180.000000
  0
ARC
  8
0
  6
CONTINUOUS
 10
218.394882
 20
47.181152
 40
2.000000
 50
180.260773
 51
270.000000
  0
LINE
  8
0
  6
CONTINUOUS
 10
170.394882
 20
141.181244
 11
170.394882
 21
51.181252
  0
LINE
  8
0
  6
CONTINUOUS
 10
215.662643
 20
148.949020
 11
209.948135
 21
143.234512
  0
LINE
  8
0
  6
CONTINUOUS
 10
170.394882
 20
75.675247
 11
214.394882
 21
75.675247
  0
LINE
  8
0
  6
CONTINUOUS
 10
170.394882
 20
60.662251
 11
224.894882
 21
60.662251
  0
LINE
  8
0
  6
CONTINUOUS
 10
216.962845
 20
68.614250
 11
224.894882
 21
68.614250
  0
LINE
  8
0
  6
CONTINUOUS
 10
216.394882
 20
69.828987
 11
216.394882
 21
171.181366
  0
ARC
  8
0
  6
CONTINUOUS
 10
213.894928
 20
47.160671
 40
2.500000
 50
0.260773
 51
88.000000
  0
ARC
  8
0
  6
CONTINUOUS
 10
213.894882
 20
150.716782
 40
2.500000
 50
-45.000000
 51
0.000000
  0
ARC
  8
0
  6
CONTINUOUS
 10
208.180374
 20
145.002274
 40
2.500000
 50
272.000000
 51
315.000000
  0
LINE
  8
0
  6
CONTINUOUS
 10
41.894882
 20
457.239166
 11
51.394882
 21
457.239166
  0
LINE
  8
0
  6
CONTINUOUS
 10
51.394882
 20
441.239166
 11
41.894882
 21
441.239166
  0
LINE
  8
0
  6
CONTINUOUS
 10
41.894882
 20
367.239166
 11
51.394882
 21
367.239166
  0
LINE
  8
0
  6
CONTINUOUS
 10
51.394882
 20
367.239166
 11
51.394882
 21
387.239166
  0
LINE
  8
0
  6
CONTINUOUS
 10
51.394882
 20
383.239166
 11
41.894882
 21
383.239166
  0
LINE
  8
0
  6
CONTINUOUS
 10
51.394882
 20
437.239166
 11
51.394882
 21
457.239166
  0
LINE
  8
0
  6
CONTINUOUS
 10
41.894882
 20
459.239166
 11
41.894882
 21
419.739166
  0
LINE
  8
0
  6
CONTINUOUS
 10
41.894882
 20
441.239166
 11
-2.080148
 21
441.239166
  0
LINE
  8
0
  6
CONTINUOUS
 10
41.894882
 20
383.239166
 11
-2.080148
 21
383.239166
  0
LINE
  8
0
  6
CONTINUOUS
 10
-0.605138
 20
459.239166
 11
41.894882
 21
459.239166
  0
LINE
  8
0
  6
CONTINUOUS
 10
-0.605138
 20
365.239166
 11
41.894882
 21
365.239166
  0
ARC
  8
0
  6
CONTINUOUS
 10
-0.605108
 20
454.239166
 40
5.000000
 50
90.000000
 51
180.000000
  0
ARC
  8
0
  6
CONTINUOUS
 10
-0.605138
 20
370.239166
 40
5.000000
 50
180.000000
 51
270.000000
  0
LINE
  8
0
  6
CONTINUOUS
 10
-5.605108
 20
454.239166
 11
-5.605138
 21
370.239166
  0
LINE
  8
0
  6
CONTINUOUS
 10
41.894882
 20
141.181244
 11
51.394882
 21
141.181244
  0
LINE
  8
0
  6
CONTINUOUS
 10
51.394882
 20
130.590546
 11
41.894882
 21
130.590546
  0
LINE
  8
0
  6
CONTINUOUS
 10
41.894882
 20
51.181252
 11
51.394882
 21
51.181252
  0
LINE
  8
0
  6
CONTINUOUS
 10
51.394882
 20
61.771961
 11
41.894882
 21
61.771961
  0
LINE
  8
0
  6
CONTINUOUS
 10
41.894882
 20
143.181244
 11
41.894882
 21
49.181252
  0
LINE
  8
0
  6
CONTINUOUS
 10
41.894882
 20
125.181252
 11
-2.080148
 21
125.181252
  0
LINE
  8
0
  6
CONTINUOUS
 10
41.894882
 20
67.181252
 11
-2.080148
 21
67.181252
  0
LINE
  8
0
  6
CONTINUOUS
 10
-0.605138
 20
143.181244
 11
41.894882
 21
143.181244
  0
LINE
  8
0
  6
CONTINUOUS
 10
-0.605138
 20
49.181252
 11
41.894882
 21
49.181252
  0
ARC
  8
0
  6
CONTINUOUS
 10
-0.605108
 20
138.181244
 40
5.000000
 50
90.000000
 51
180.000000
  0
ARC
  8
0
  6
CONTINUOUS
 10
-0.605138
 20
54.181252
 40
5.000000
 50
180.000000
 51
270.000000
  0
LINE
  8
0
  6
CONTINUOUS
 10
-5.605108
 20
138.181244
 11
-5.605138
 21
54.181240
  0
LINE
  8
0
  6
CONTINUOUS
 10
51.394882
 20
51.181252
 11
51.394882
 21
141.181244
  0
LINE
  8
0
  6
CONTINUOUS
 10
41.394882
 20
419.739166
 11
42.394882
 21
419.739166
  0
ARC
  8
0
  6
CONTINUOUS
 10
41.394901
 20
418.739166
 40
1.000000
 50
90.000000
 51
180.000000
  0
LINE
  8
0
  6
CONTINUOUS
 10
36.894897
 20
416.239166
 11
36.894897
 21
408.239166
  0
LINE
  8
0
  6
CONTINUOUS
 10
36.894897
 20
416.239166
 11
40.394897
 21
417.739166
  0
LINE
  8
0
  6
CONTINUOUS
 10
36.894882
 20
408.239166
 11
40.394882
 21
406.739166
  0
LINE
  8
0
  6
CONTINUOUS
 10
40.394897
 20
418.739166
 11
40.394897
 21
405.739166
  0
LINE
  8
0
  6
CONTINUOUS
 10
41.394882
 20
404.739166
 11
42.394882
 21
404.739166
  0
ARC
  8
0
  6
CONTINUOUS
 10
41.394901
 20
405.739166
 40
1.000000
 50
-180.000000
 51
-90.000000
  0
LINE
  8
0
  6
CONTINUOUS
 10
42.394882
 20
389.239166
 11
42.394882
 21
435.239166
  0
LINE
  8
0
  6
CONTINUOUS
 10
44.394882
 20
437.239166
 11
42.394882
 21
435.239166
  0
LINE
  8
0
  6
CONTINUOUS
 10
44.394882
 20
437.239166
 11
90.394875
 21
437.239166
  0
LINE
  8
0
  6
CONTINUOUS
 10
84.894882
 20
432.739166
 11
84.894882
 21
437.239166
  0
ARC
  8
0
  6
CONTINUOUS
 10
87.894882
 20
432.739166
 40
3.000000
 50
180.000000
 51
270.000000
  0
LINE
  8
0
  6
CONTINUOUS
 10
87.894882
 20
429.739166
 11
92.394875
 21
429.739166
  0
CIRCLE
  8
0
  6
CONTINUOUS
 10
88.894882
 20
433.739166
 40
2.250000
  0
LINE
  8
0
  6
CONTINUOUS
 10
92.394875
 20
389.239166
 11
92.394875
 21
435.239166
  0
LINE
  8
0
  6
CONTINUOUS
 10
90.394875
 20
437.239166
 11
92.394875
 21
435.239166
  0
LINE
  8
0
  6
CONTINUOUS
 10
90.394875
 20
387.239166
 11
92.394875
 21
389.239166
  0
LINE
  8
0
  6
CONTINUOUS
 10
90.394875
 20
387.239166
 11
44.394882
 21
387.239166
  0
LINE
  8
0
  6
CONTINUOUS
 10
42.394882
 20
389.239166
 11
44.394882
 21
387.239166
  0
LINE
  8
0
  6
CONTINUOUS
 10
46.894882
 20
394.739166
 11
42.394894
 21
394.739166
  0
CIRCLE
  8
0
  6
CONTINUOUS
 10
45.894882
 20
390.739166
 40
2.250000
  0
ARC
  8
0
  6
CONTINUOUS
 10
46.894882
 20
391.739166
 40
3.000000
 50
0.000000
 51
90.000000
  0
LINE
  8
0
  6
CONTINUOUS
 10
49.894882
 20
391.739166
 11
49.894882
 21
387.239166
  0
LINE
  8
0
  6
CENTER
 10
67.394882
 20
379.773376
 11
67.394882
 21
443.905396
  0
LINE
  8
0
  6
CONTINUOUS
 10
44.809101
 20
436.239166
 11
43.394890
 21
434.824951
  0
LINE
  8
0
  6
CONTINUOUS
 10
43.394890
 20
394.739166
 11
43.394890
 21
434.824951
  0
LINE
  8
0
  6
CONTINUOUS
 10
84.894882
 20
436.239166
 11
44.809101
 21
436.239166
  0
LINE
  8
0
  6
CONTINUOUS
 10
91.394875
 20
429.739166
 11
91.394875
 21
389.653381
  0
LINE
  8
0
  6
CONTINUOUS
 10
49.894882
 20
388.239166
 11
89.980659
 21
388.239166
  0
LINE
  8
0
  6
CONTINUOUS
 10
89.980659
 20
388.239166
 11
91.394875
 21
389.653381
  0
LINE
  8
0
  6
CONTINUOUS
 10
41.894882
 20
404.739166
 11
41.894882
 21
365.239166
  0
LINE
  8
0
  6
CONTINUOUS
 10
43.894882
 20
142.681244
 11
90.394882
 21
142.681244
  0
LINE
  8
0
  6
CONTINUOUS
 10
92.394875
 20
172.681244
 11
92.394882
 21
144.681244
  0
LINE
  8
0
  6
CONTINUOUS
 10
42.394882
 20
172.681244
 11
42.394882
 21
144.681244
  0
LINE
  8
0
  6
CONTINUOUS
 10
40.394882
 20
154.681244
 11
92.394882
 21
154.681244
  0
LINE
  8
0
  6
CONTINUOUS
 10
90.394882
 20
142.681244
 11
92.394882
 21
144.681244
  0
LINE
  8
0
  6
CONTINUOUS
 10
42.394882
 20
144.681244
 11
44.394882
 21
142.681244
  0
LINE
  8
0
  6
CONTINUOUS
 10
42.394882
 20
144.681244
 11
92.394882
 21
144.681244
  0
LINE
  8
0
  6
CONTINUOUS
 10
43.394882
 20
173.681244
 11
91.394875
 21
173.681244
  0
LINE
  8
0
  6
CONTINUOUS
 10
91.394875
 20
173.681244
 11
92.394875
 21
172.681244
  0
LINE
  8
0
  6
CONTINUOUS
 10
43.394882
 20
173.681244
 11
42.394882
 21
172.681244
  0
LINE
  8
0
  6
CONTINUOUS
 10
42.394882
 20
172.681244
 11
92.394875
 21
172.681244
  0
LINE
  8
0
  6
CENTER
 10
34.451134
 20
164.181244
 11
46.526131
 21
164.181244
  0
LINE
  8
0
  6
CONTINUOUS
 10
40.394890
 20
170.681244
 11
40.394882
 21
154.681244
  0
LINE
  8
0
  6
CONTINUOUS
 10
41.394882
 20
171.681244
 11
42.394882
 21
171.681244
  0
ARC
  8
0
  6
CONTINUOUS
 10
41.394894
 20
170.681244
 40
1.000000
 50
90.000000
 51
180.000000
  0
LINE
  8
0
  6
CONTINUOUS
 10
36.894890
 20
168.181244
 11
36.894890
 21
160.181244
  0
LINE
  8
0
  6
CONTINUOUS
 10
36.894890
 20
168.181244
 11
40.394890
 21
169.681244
  0
LINE
  8
0
  6
CONTINUOUS
 10
36.894882
 20
160.181244
 11
40.394882
 21
158.681244
  0
LINE
  8
0
  6
CENTER
 10
67.394882
 20
137.987503
 11
67.394882
 21
179.068756
  0
LINE
  8
0
  6
CONTINUOUS
 10
43.894882
 20
142.681244
 11
43.894882
 21
141.181244
  0
LINE
  8
0
  6
CONTINUOUS
 10
89.894882
 20
142.681244
 11
89.894882
 21
141.181244
  0
LINE
  8
0
  6
CONTINUOUS
 10
161.394882
 20
383.239166
 11
161.394882
 21
369.239166
  0
TEXT
  8
0
 10
-23.000000
 20
0.000000
 40
4.000000
 41
1.000000
  1
HLM-32R-600~900-S90WT
 50
0.000000
  0
ENDSEC
  0
EOF
