  0
SECTION
  2
HEADER
  9
$CLAYER
  8
1
  9
$LTSCALE
 40
3.0
  0
ENDSEC
  0
SECTION
  2
TABLES
  0
TABLE
  2
LTYPE
 70
     4
  0
LTYPE
  2
CONTINUOUS
  3
solid line
 70
    64
 72
    65
 73
     0
 40
0.0
  0
LTYPE
  2
DASHED
  3
__ __ __ __ __ __ __ __ __ __ __ __ __ __ __
 70
    64
 72
    65
 73
     2
 40
0.75
 49
0.5
 49
-0.25
  0
LTYPE
  2
CENTER
  3
____ _ ____ _ ____ _ ____ _ ____ _ ____ _ ____
 70
    64
 72
    65
 73
     4
 40
2.0
 49
1.25
 49
-0.25
 49
0.25
 49
-0.25
  0
LTYPE
  2
PHANTOM
  3
_____ _ _ _____ _ _ _____ _ _ _____ _ _ ____
 70
    64
 72
    65
 73
     6
 40
2.5
 49
1.25
 49
-0.25
 49
0.25
 49
-0.25
 49
0.25
 49
-0.25
  0
ENDTAB
  0
TABLE
  2
LAYER
 70
     1
  0
LAYER
  2
0
 70
    64
 62
     7
  6
CONTINUOUS
  0
ENDTAB
  0
TABLE
  2
STYLE
 70
     1
  0
STYLE
  2
STANDARD
 70
     0
 40
0.000000
 41
1.000000
 50
0.000000
 71
     0
 42
3.000000
  3
txt
  4
BIGFONT
  0
ENDTAB
  0
ENDSEC
  0
SECTION
  2
BLOCKS
  0
ENDSEC
  0
SECTION
  2
ENTITIES
  0
LINE
  8
0
  6
CENTER
 10
278.562378
 20
530.049194
 11
278.562378
 21
276.549194
  0
LINE
  8
0
  6
CONTINUOUS
 10
354.562592
 20
401.986694
 11
353.777100
 21
446.986694
  0
LINE
  8
0
  6
CONTINUOUS
 10
220.112335
 20
476.986694
 11
262.562378
 21
476.986694
  0
LINE
  8
0
  6
CONTINUOUS
 10
344.505981
 20
471.787903
 11
353.777100
 21
446.986694
  0
ARC
  8
0
  6
CONTINUOUS
 10
337.012421
 20
468.986694
 40
8.000000
 50
20.496618
 51
90.000000
  0
LINE
  8
0
  6
CONTINUOUS
 10
354.562592
 20
401.986694
 11
353.777100
 21
356.986694
  0
LINE
  8
0
  6
CONTINUOUS
 10
220.112335
 20
326.986694
 11
262.562378
 21
326.986694
  0
LINE
  8
0
  6
CONTINUOUS
 10
344.505981
 20
332.185455
 11
353.777100
 21
356.986694
  0
ARC
  8
0
  6
CONTINUOUS
 10
337.012421
 20
334.986694
 40
8.000000
 50
-90.000000
 51
-20.496618
  0
LINE
  8
0
  6
CONTINUOUS
 10
212.618790
 20
471.787903
 11
203.563995
 21
447.565399
  0
ARC
  8
0
  6
CONTINUOUS
 10
220.112335
 20
468.986694
 40
8.000000
 50
90.000000
 51
159.503387
  0
LINE
  8
0
  6
CONTINUOUS
 10
212.618790
 20
332.185455
 11
203.563995
 21
356.407959
  0
ARC
  8
0
  6
CONTINUOUS
 10
220.112335
 20
334.986694
 40
8.000000
 50
200.496613
 51
270.000000
  0
LINE
  8
0
  6
CONTINUOUS
 10
205.899017
 20
446.986694
 11
350.829010
 21
446.986694
  0
LINE
  8
0
  6
CONTINUOUS
 10
350.829010
 20
356.986694
 11
205.899017
 21
356.986694
  0
LINE
  8
0
  6
CONTINUOUS
 10
278.562378
 20
463.986694
 11
313.821198
 21
463.986694
  0
ARC
  8
0
  6
CONTINUOUS
 10
350.829010
 20
443.986694
 40
3.000000
 50
1.000000
 51
90.000000
  0
ARC
  8
0
  6
CONTINUOUS
 10
350.829010
 20
359.986694
 40
3.000000
 50
270.000000
 51
359.000000
  0
LINE
  8
0
  6
CONTINUOUS
 10
307.562378
 20
443.986694
 11
307.562378
 21
359.986694
  0
LINE
  8
0
  6
CONTINUOUS
 10
249.562378
 20
443.986694
 11
249.562378
 21
359.986694
  0
LINE
  8
0
  6
CONTINUOUS
 10
190.562378
 20
465.986694
 11
190.562378
 21
337.986694
  0
LINE
  8
0
  6
CONTINUOUS
 10
193.134705
 20
465.986694
 11
190.562378
 21
465.986694
  0
LINE
  8
0
  6
CONTINUOUS
 10
318.618011
 20
460.397522
 11
319.621216
 21
456.986694
  0
ARC
  8
0
  6
CONTINUOUS
 10
313.821198
 20
458.986694
 40
5.000000
 50
16.389540
 51
90.000000
  0
LINE
  8
0
  6
CONTINUOUS
 10
334.108521
 20
453.379303
 11
334.916229
 21
450.594055
  0
LINE
  8
0
  6
CONTINUOUS
 10
329.306366
 20
456.986694
 11
319.621216
 21
456.986694
  0
LINE
  8
0
  6
CONTINUOUS
 10
278.562378
 20
463.986694
 11
243.303574
 21
463.986694
  0
LINE
  8
0
  6
CONTINUOUS
 10
278.562378
 20
339.986694
 11
313.821198
 21
339.986694
  0
LINE
  8
0
  6
CONTINUOUS
 10
278.562378
 20
339.986694
 11
243.303574
 21
339.986694
  0
LINE
  8
0
  6
CONTINUOUS
 10
297.562378
 20
521.986694
 11
262.562378
 21
521.986694
  0
LINE
  8
0
  6
CONTINUOUS
 10
262.562378
 20
466.986694
 11
262.562378
 21
521.986694
  0
LINE
  8
0
  6
CONTINUOUS
 10
294.562378
 20
466.986694
 11
294.562378
 21
471.986694
  0
LINE
  8
0
  6
CONTINUOUS
 10
261.062378
 20
466.986694
 11
296.062378
 21
466.986694
  0
LINE
  8
0
  6
CONTINUOUS
 10
261.062378
 20
463.986694
 11
261.062378
 21
466.986694
  0
LINE
  8
0
  6
CONTINUOUS
 10
296.062378
 20
463.986694
 11
296.062378
 21
466.986694
  0
LINE
  8
0
  6
CONTINUOUS
 10
297.562378
 20
476.986694
 11
337.012421
 21
476.986694
  0
LINE
  8
0
  6
CONTINUOUS
 10
297.562378
 20
521.986694
 11
297.562378
 21
471.986694
  0
LINE
  8
0
  6
CONTINUOUS
 10
293.761078
 20
471.986694
 11
297.562378
 21
471.986694
  0
LINE
  8
0
  6
CONTINUOUS
 10
293.761078
 20
471.986694
 11
293.761078
 21
521.986694
  0
LINE
  8
0
  6
CONTINUOUS
 10
297.562378
 20
281.986694
 11
262.562378
 21
281.986694
  0
LINE
  8
0
  6
CONTINUOUS
 10
262.562378
 20
336.986694
 11
262.562378
 21
281.986694
  0
LINE
  8
0
  6
CONTINUOUS
 10
294.562378
 20
336.986694
 11
294.562378
 21
331.986694
  0
LINE
  8
0
  6
CONTINUOUS
 10
261.062378
 20
336.986694
 11
296.062378
 21
336.986694
  0
LINE
  8
0
  6
CONTINUOUS
 10
261.062378
 20
339.986694
 11
261.062378
 21
336.986694
  0
LINE
  8
0
  6
CONTINUOUS
 10
296.062378
 20
339.986694
 11
296.062378
 21
336.986694
  0
LINE
  8
0
  6
CONTINUOUS
 10
297.562378
 20
281.986694
 11
297.562378
 21
331.986694
  0
LINE
  8
0
  6
CONTINUOUS
 10
293.761078
 20
331.986694
 11
297.562378
 21
331.986694
  0
LINE
  8
0
  6
CONTINUOUS
 10
293.761078
 20
331.986694
 11
293.761078
 21
281.986694
  0
LINE
  8
0
  6
CONTINUOUS
 10
297.562378
 20
326.986694
 11
337.012421
 21
326.986694
  0
LINE
  8
0
  6
CENTER
 10
316.186066
 20
461.986694
 11
335.123566
 21
461.986694
  0
LINE
  8
0
  6
CENTER
 10
326.062378
 20
452.834351
 11
326.062378
 21
472.334351
  0
ARC
  8
0
  6
CONTINUOUS
 10
326.062378
 20
461.986694
 40
6.500000
 50
-51.240688
 51
230.284866
  0
ARC
  8
0
  6
CONTINUOUS
 10
231.062378
 20
461.986694
 40
6.500000
 50
-50.284863
 51
231.240692
  0
LINE
  8
0
  6
CENTER
 10
231.062378
 20
452.834351
 11
231.062378
 21
472.334351
  0
LINE
  8
0
  6
CENTER
 10
240.938705
 20
461.986694
 11
222.001205
 21
461.986694
  0
LINE
  8
0
  6
CENTER
 10
-20.497343
 20
401.986694
 11
365.983398
 21
401.986694
  0
LINE
  8
0
  6
CONTINUOUS
 10
197.964340
 20
462.280762
 11
201.069382
 21
450.692596
  0
ARC
  8
0
  6
CONTINUOUS
 10
205.899017
 20
451.986694
 40
5.000000
 50
195.000000
 51
270.000000
  0
ARC
  8
0
  6
CONTINUOUS
 10
193.134705
 20
460.986694
 40
5.000000
 50
15.000000
 51
90.000000
  0
LINE
  8
0
  6
CONTINUOUS
 10
193.134705
 20
337.986694
 11
190.562378
 21
337.986694
  0
LINE
  8
0
  6
CONTINUOUS
 10
197.964340
 20
341.692596
 11
201.069382
 21
353.280762
  0
ARC
  8
0
  6
CONTINUOUS
 10
193.134705
 20
342.986694
 40
5.000000
 50
-90.000000
 51
-15.000000
  0
ARC
  8
0
  6
CONTINUOUS
 10
205.899017
 20
351.986694
 40
5.000000
 50
-270.000000
 51
-195.000000
  0
LINE
  8
0
  6
CONTINUOUS
 10
202.562180
 20
401.986694
 11
203.296204
 21
444.039032
  0
LINE
  8
0
  6
CONTINUOUS
 10
202.562180
 20
401.986694
 11
203.296204
 21
359.934326
  0
ARC
  8
0
  6
CONTINUOUS
 10
206.295746
 20
443.986694
 40
3.000000
 50
90.000000
 51
179.000000
  0
ARC
  8
0
  6
CONTINUOUS
 10
206.295746
 20
359.986694
 40
3.000000
 50
-179.000000
 51
-90.000000
  0
ARC
  8
0
  6
CONTINUOUS
 10
329.306366
 20
451.986694
 40
5.000000
 50
16.172159
 51
90.000000
  0
ARC
  8
0
  6
CONTINUOUS
 10
339.718384
 20
451.986694
 40
5.000000
 50
196.172165
 51
270.000000
  0
LINE
  8
0
  6
CONTINUOUS
 10
335.962372
 20
446.986694
 11
335.965607
 21
446.975586
  0
ARC
  8
0
  6
CONTINUOUS
 10
243.303574
 20
458.986694
 40
5.000000
 50
90.000000
 51
163.610458
  0
LINE
  8
0
  6
CONTINUOUS
 10
238.506744
 20
460.397522
 11
237.503555
 21
456.986694
  0
LINE
  8
0
  6
CONTINUOUS
 10
223.016235
 20
453.379303
 11
222.208527
 21
450.594055
  0
LINE
  8
0
  6
CONTINUOUS
 10
227.818390
 20
456.986694
 11
237.503555
 21
456.986694
  0
ARC
  8
0
  6
CONTINUOUS
 10
227.818390
 20
451.986694
 40
5.000000
 50
90.000000
 51
163.827835
  0
ARC
  8
0
  6
CONTINUOUS
 10
217.406372
 20
451.986694
 40
5.000000
 50
-90.000000
 51
-16.172159
  0
LINE
  8
0
  6
CONTINUOUS
 10
221.162384
 20
446.986694
 11
221.159164
 21
446.975586
  0
ARC
  8
0
  6
CONTINUOUS
 10
231.062378
 20
341.986694
 40
6.500000
 50
-231.240692
 51
50.284863
  0
LINE
  8
0
  6
CENTER
 10
240.938705
 20
341.986694
 11
222.001205
 21
341.986694
  0
ARC
  8
0
  6
CONTINUOUS
 10
243.303574
 20
344.986694
 40
5.000000
 50
196.389542
 51
270.000000
  0
LINE
  8
0
  6
CONTINUOUS
 10
238.506744
 20
343.575836
 11
237.503555
 21
346.986694
  0
LINE
  8
0
  6
CONTINUOUS
 10
223.016235
 20
350.594055
 11
222.208527
 21
353.379303
  0
LINE
  8
0
  6
CONTINUOUS
 10
227.818390
 20
346.986694
 11
237.503555
 21
346.986694
  0
ARC
  8
0
  6
CONTINUOUS
 10
227.818390
 20
351.986694
 40
5.000000
 50
-163.827835
 51
-90.000000
  0
ARC
  8
0
  6
CONTINUOUS
 10
217.406372
 20
351.986694
 40
5.000000
 50
16.172159
 51
90.000000
  0
LINE
  8
0
  6
CONTINUOUS
 10
221.162384
 20
356.986694
 11
221.159164
 21
356.997772
  0
LINE
  8
0
  6
CENTER
 10
231.062378
 20
351.139008
 11
231.062378
 21
331.639008
  0
LINE
  8
0
  6
CONTINUOUS
 10
318.618011
 20
343.575836
 11
319.621216
 21
346.986694
  0
ARC
  8
0
  6
CONTINUOUS
 10
313.821198
 20
344.986694
 40
5.000000
 50
-90.000000
 51
-16.389540
  0
LINE
  8
0
  6
CONTINUOUS
 10
334.108521
 20
350.594055
 11
334.916229
 21
353.379303
  0
LINE
  8
0
  6
CONTINUOUS
 10
329.306366
 20
346.986694
 11
319.621216
 21
346.986694
  0
LINE
  8
0
  6
CENTER
 10
316.186066
 20
341.986694
 11
335.123566
 21
341.986694
  0
LINE
  8
0
  6
CENTER
 10
326.062378
 20
351.139008
 11
326.062378
 21
331.639008
  0
ARC
  8
0
  6
CONTINUOUS
 10
326.062378
 20
341.986694
 40
6.500000
 50
-230.284866
 51
51.240688
  0
ARC
  8
0
  6
CONTINUOUS
 10
329.306366
 20
351.986694
 40
5.000000
 50
-90.000000
 51
-16.172159
  0
ARC
  8
0
  6
CONTINUOUS
 10
339.718384
 20
351.986694
 40
5.000000
 50
-270.000000
 51
-196.172165
  0
LINE
  8
0
  6
CONTINUOUS
 10
335.962372
 20
356.986694
 11
335.965607
 21
356.997772
  0
LINE
  8
0
  6
CENTER
 10
278.562378
 20
231.224930
 11
278.562378
 21
-6.704130
  0
LINE
  8
0
  6
CENTER
 10
214.677780
 20
143.928757
 11
331.247375
 21
143.928757
  0
LINE
  8
0
  6
CENTER
 10
326.062378
 20
29.204189
 11
326.062378
 21
-4.660550
  0
LINE
  8
0
  6
CENTER
 10
231.062378
 20
29.204189
 11
231.062378
 21
-4.952490
  0
LINE
  8
0
  6
CONTINUOUS
 10
202.562378
 20
3.928750
 11
354.562378
 21
3.928750
  0
LINE
  8
0
  6
CONTINUOUS
 10
202.562378
 20
21.928749
 11
354.562378
 21
21.928749
  0
LINE
  8
0
  6
CONTINUOUS
 10
354.562378
 20
172.234314
 11
354.562378
 21
3.928750
  0
LINE
  8
0
  6
CONTINUOUS
 10
202.562378
 20
167.428757
 11
202.562378
 21
172.234314
  0
LINE
  8
0
  6
CONTINUOUS
 10
252.058975
 20
208.928757
 11
305.065796
 21
208.928757
  0
LINE
  8
0
  6
CONTINUOUS
 10
197.562378
 20
162.928757
 11
190.562378
 21
162.928757
  0
LINE
  8
0
  6
CONTINUOUS
 10
197.562378
 20
34.928749
 11
190.562378
 21
34.928749
  0
LINE
  8
0
  6
CONTINUOUS
 10
351.112396
 20
178.814377
 11
309.615784
 21
207.508804
  0
LINE
  8
0
  6
CONTINUOUS
 10
206.012344
 20
178.814377
 11
247.508987
 21
207.508804
  0
ARC
  8
0
  6
CONTINUOUS
 10
305.065796
 20
200.928757
 40
8.000000
 50
55.336689
 51
90.000000
  0
ARC
  8
0
  6
CONTINUOUS
 10
346.562378
 20
172.234268
 40
8.000000
 50
0.000000
 51
55.336739
  0
ARC
  8
0
  6
CONTINUOUS
 10
252.058975
 20
200.928757
 40
8.000000
 50
90.000000
 51
124.663696
  0
ARC
  8
0
  6
CONTINUOUS
 10
210.562378
 20
172.234344
 40
8.000000
 50
124.663803
 51
180.000000
  0
LINE
  8
0
  6
CONTINUOUS
 10
202.562378
 20
30.428749
 11
202.562378
 21
3.928750
  0
ARC
  8
0
  6
CONTINUOUS
 10
197.562363
 20
167.928757
 40
5.000000
 50
-90.000000
 51
0.000000
  0
LINE
  8
0
  6
CONTINUOUS
 10
202.562378
 20
30.428749
 11
202.562378
 21
167.428757
  0
ARC
  8
0
  6
CONTINUOUS
 10
197.562408
 20
29.928730
 40
5.000000
 50
0.000000
 51
90.000000
  0
LINE
  8
0
  6
DASHED
 10
224.562378
 20
21.928749
 11
224.562378
 21
3.928750
  0
LINE
  8
0
  6
DASHED
 10
237.562378
 20
21.928749
 11
237.562378
 21
3.928750
  0
LINE
  8
0
  6
DASHED
 10
319.562378
 20
21.928749
 11
319.562378
 21
3.928750
  0
LINE
  8
0
  6
DASHED
 10
332.562378
 20
21.928749
 11
332.562378
 21
3.928750
  0
CIRCLE
  8
0
  6
CONTINUOUS
 10
278.562378
 20
143.928757
 40
39.000000
  0
ARC
  8
0
  6
CONTINUOUS
 10
278.562378
 20
143.928757
 40
44.000000
 50
12.523240
 51
167.476898
  0
ARC
  8
0
  6
CONTINUOUS
 10
253.062378
 20
84.928749
 40
29.000000
 50
167.476898
 51
270.000000
  0
ARC
  8
0
  6
CONTINUOUS
 10
304.062378
 20
84.928749
 40
29.000000
 50
-90.000000
 51
12.523240
  0
ARC
  8
0
  6
CONTINUOUS
 10
253.062378
 20
84.928749
 40
31.900000
 50
167.476898
 51
270.000000
  0
ARC
  8
0
  6
CONTINUOUS
 10
304.062378
 20
84.928749
 40
31.900000
 50
-90.000000
 51
12.523240
  0
ARC
  8
0
  6
CONTINUOUS
 10
278.562378
 20
143.928757
 40
41.099998
 50
-192.523102
 51
12.523240
  0
LINE
  8
0
  6
CONTINUOUS
 10
221.921387
 20
91.845757
 11
235.609177
 21
153.469452
  0
LINE
  8
0
  6
CONTINUOUS
 10
224.752380
 20
91.216934
 11
238.440186
 21
152.840637
  0
LINE
  8
0
  6
CONTINUOUS
 10
253.062378
 20
53.028751
 11
304.062378
 21
53.028751
  0
LINE
  8
0
  6
CONTINUOUS
 10
304.062378
 20
55.928749
 11
253.062378
 21
55.928749
  0
LINE
  8
0
  6
CONTINUOUS
 10
321.515594
 20
153.469528
 11
335.203369
 21
91.845818
  0
LINE
  8
0
  6
CONTINUOUS
 10
318.684570
 20
152.840714
 11
332.372375
 21
91.216988
  0
LINE
  8
0
  6
CONTINUOUS
 10
266.335388
 20
67.928749
 11
261.394989
 21
67.928749
  0
LINE
  8
0
  6
CONTINUOUS
 10
269.062378
 20
76.204147
 11
269.062378
 21
67.928749
  0
LINE
  8
0
  6
CONTINUOUS
 10
273.812378
 20
79.209999
 11
273.812378
 21
82.178749
  0
LINE
  8
0
  6
CONTINUOUS
 10
283.312378
 20
79.209999
 11
283.312378
 21
82.178749
  0
LINE
  8
0
  6
CONTINUOUS
 10
277.634583
 20
80.434608
 11
277.634583
 21
69.487350
  0
LINE
  8
0
  6
CONTINUOUS
 10
279.415985
 20
80.434608
 11
279.415985
 21
69.487350
  0
LINE
  8
0
  6
CONTINUOUS
 10
288.767578
 20
80.434608
 11
288.767578
 21
69.413132
  0
LINE
  8
0
  6
CONTINUOUS
 10
290.400391
 20
74.589890
 11
290.400391
 21
69.413132
  0
LINE
  8
0
  6
CONTINUOUS
 10
266.808380
 20
80.286171
 11
262.230774
 21
80.286171
  0
LINE
  8
0
  6
CONTINUOUS
 10
262.230774
 20
80.286171
 11
261.158173
 21
78.956169
  0
LINE
  8
0
  6
CONTINUOUS
 10
261.287170
 20
82.178749
 11
259.562378
 21
79.970284
  0
LINE
  8
0
  6
CONTINUOUS
 10
261.158173
 20
70.746590
 11
262.247986
 21
69.598671
  0
LINE
  8
0
  6
CONTINUOUS
 10
259.562378
 20
69.777870
 11
261.394989
 21
67.928749
  0
LINE
  8
0
  6
CONTINUOUS
 10
259.562378
 20
79.970284
 11
259.562378
 21
69.777870
  0
LINE
  8
0
  6
CONTINUOUS
 10
261.158173
 20
78.956169
 11
261.158173
 21
70.746590
  0
LINE
  8
0
  6
CONTINUOUS
 10
267.689392
 20
79.434608
 11
266.790375
 21
80.286171
  0
LINE
  8
0
  6
CONTINUOUS
 10
267.675171
 20
82.178749
 11
269.062378
 21
80.639168
  0
LINE
  8
0
  6
CONTINUOUS
 10
267.689392
 20
79.209999
 11
269.062378
 21
79.209999
  0
LINE
  8
0
  6
CONTINUOUS
 10
261.287170
 20
82.178749
 11
267.675171
 21
82.178749
  0
LINE
  8
0
  6
CONTINUOUS
 10
265.202972
 20
76.204147
 11
269.062378
 21
76.204147
  0
LINE
  8
0
  6
CONTINUOUS
 10
267.689392
 20
74.645554
 11
265.202972
 21
74.645554
  0
LINE
  8
0
  6
CONTINUOUS
 10
264.720581
 20
69.598671
 11
262.247986
 21
69.598671
  0
LINE
  8
0
  6
CONTINUOUS
 10
267.689392
 20
73.161171
 11
267.689392
 21
74.348671
  0
ARC
  8
0
  6
CONTINUOUS
 10
264.720581
 20
72.567413
 40
2.968750
 50
-89.999786
 51
0.000109
  0
LINE
  8
0
  6
CONTINUOUS
 10
267.689392
 20
69.064667
 11
267.689392
 21
67.928749
  0
LINE
  8
0
  6
CONTINUOUS
 10
269.062378
 20
80.639168
 11
269.062378
 21
79.209999
  0
LINE
  8
0
  6
CONTINUOUS
 10
267.689392
 20
74.645554
 11
267.689392
 21
72.567413
  0
LINE
  8
0
  6
CONTINUOUS
 10
265.202972
 20
76.204147
 11
265.202972
 21
74.645554
  0
LINE
  8
0
  6
CONTINUOUS
 10
267.689392
 20
67.928749
 11
269.062378
 21
67.928749
  0
LINE
  8
0
  6
CONTINUOUS
 10
267.689392
 20
69.064667
 11
266.335388
 21
67.928749
  0
LINE
  8
0
  6
CONTINUOUS
 10
279.415985
 20
69.487350
 11
280.009583
 21
69.487350
  0
LINE
  8
0
  6
CONTINUOUS
 10
276.929596
 20
69.487350
 11
276.929596
 21
67.928749
  0
LINE
  8
0
  6
CONTINUOUS
 10
280.009583
 20
69.487350
 11
280.009583
 21
67.928749
  0
LINE
  8
0
  6
CONTINUOUS
 10
282.321381
 20
79.209999
 11
283.312378
 21
79.209999
  0
LINE
  8
0
  6
CONTINUOUS
 10
273.812378
 20
79.209999
 11
274.866974
 21
79.209999
  0
LINE
  8
0
  6
CONTINUOUS
 10
273.812378
 20
82.178749
 11
283.312378
 21
82.178749
  0
LINE
  8
0
  6
CONTINUOUS
 10
276.929596
 20
67.928749
 11
280.009583
 21
67.928749
  0
LINE
  8
0
  6
CONTINUOUS
 10
276.929596
 20
69.487350
 11
277.634583
 21
69.487350
  0
ARC
  8
0
  6
CONTINUOUS
 10
293.758575
 20
78.375031
 40
3.803712
 50
-73.981873
 51
90.003510
  0
ARC
  8
0
  6
CONTINUOUS
 10
293.758575
 20
78.375031
 40
2.320524
 50
-82.585274
 51
62.411850
  0
LINE
  8
0
  6
CONTINUOUS
 10
288.062378
 20
82.178749
 11
293.758575
 21
82.178749
  0
LINE
  8
0
  6
CONTINUOUS
 10
294.058197
 20
76.073914
 11
290.400391
 21
76.073914
  0
LINE
  8
0
  6
CONTINUOUS
 10
288.062378
 20
82.178749
 11
288.062378
 21
80.434608
  0
LINE
  8
0
  6
CONTINUOUS
 10
290.400391
 20
80.434608
 11
290.400391
 21
76.073914
  0
LINE
  8
0
  6
CONTINUOUS
 10
294.808197
 20
74.719009
 11
297.162567
 21
69.413132
  0
LINE
  8
0
  6
CONTINUOUS
 10
293.440979
 20
74.589890
 11
295.668976
 21
69.413132
  0
LINE
  8
0
  6
CONTINUOUS
 10
288.062378
 20
69.413132
 11
288.767578
 21
69.413132
  0
LINE
  8
0
  6
CONTINUOUS
 10
290.400391
 20
69.413132
 11
291.049774
 21
69.413132
  0
LINE
  8
0
  6
CONTINUOUS
 10
291.049774
 20
67.928749
 11
288.062378
 21
67.928749
  0
LINE
  8
0
  6
CONTINUOUS
 10
295.372986
 20
69.413132
 11
295.668976
 21
69.413132
  0
LINE
  8
0
  6
CONTINUOUS
 10
297.162567
 20
69.413132
 11
297.562378
 21
69.413132
  0
LINE
  8
0
  6
CONTINUOUS
 10
295.372986
 20
67.928749
 11
297.562378
 21
67.928749
  0
LINE
  8
0
  6
CONTINUOUS
 10
297.562378
 20
69.413132
 11
297.562378
 21
67.928749
  0
LINE
  8
0
  6
CONTINUOUS
 10
295.372986
 20
69.413132
 11
295.372986
 21
67.928749
  0
LINE
  8
0
  6
CONTINUOUS
 10
291.049774
 20
69.413132
 11
291.049774
 21
67.928749
  0
LINE
  8
0
  6
CONTINUOUS
 10
288.062378
 20
69.413132
 11
288.062378
 21
67.928749
  0
LINE
  8
0
  6
CONTINUOUS
 10
275.377167
 20
80.434608
 11
274.866974
 21
79.209999
  0
LINE
  8
0
  6
CONTINUOUS
 10
281.891174
 20
80.434608
 11
282.321381
 21
79.209999
  0
LINE
  8
0
  6
CONTINUOUS
 10
279.415985
 20
80.434608
 11
281.891174
 21
80.434608
  0
LINE
  8
0
  6
CONTINUOUS
 10
277.634583
 20
80.434608
 11
275.377167
 21
80.434608
  0
LINE
  8
0
  6
CONTINUOUS
 10
290.400391
 20
74.589890
 11
293.440979
 21
74.589890
  0
LINE
  8
0
  6
CONTINUOUS
 10
288.062378
 20
80.434608
 11
288.767578
 21
80.434608
  0
LINE
  8
0
  6
CONTINUOUS
 10
290.400391
 20
80.434608
 11
294.833374
 21
80.431725
  0
LINE
  8
0
  6
CONTINUOUS
 10
267.689392
 20
79.434608
 11
267.689392
 21
79.209999
  0
ARC
  8
0
  6
CONTINUOUS
 10
382.271179
 20
98.928749
 40
185.208893
 50
166.001907
 51
193.998093
  0
LINE
  8
0
  6
CONTINUOUS
 10
216.562378
 20
19.862190
 11
216.562378
 21
3.928750
  0
LINE
  8
0
  6
CONTINUOUS
 10
340.562378
 20
19.862190
 11
340.562378
 21
3.928750
  0
LINE
  8
0
  6
CONTINUOUS
 10
302.319794
 20
26.928749
 11
254.804977
 21
26.928749
  0
LINE
  8
0
  6
CONTINUOUS
 10
253.562378
 20
25.992870
 11
253.562378
 21
22.928749
  0
LINE
  8
0
  6
CONTINUOUS
 10
304.440979
 20
26.050070
 11
307.097992
 21
23.393209
  0
LINE
  8
0
  6
CONTINUOUS
 10
252.683777
 20
26.050070
 11
250.026978
 21
23.393250
  0
LINE
  8
0
  6
CONTINUOUS
 10
303.562378
 20
25.992870
 11
303.562378
 21
22.928749
  0
ARC
  8
0
  6
CONTINUOUS
 10
246.491379
 20
26.928749
 40
5.000000
 50
270.000000
 51
315.000092
  0
ARC
  8
0
  6
CONTINUOUS
 10
254.804977
 20
23.928749
 40
3.000000
 50
90.000000
 51
135.000305
  0
ARC
  8
0
  6
CONTINUOUS
 10
252.562378
 20
22.928749
 40
1.000000
 50
-90.000000
 51
0.000000
  0
ARC
  8
0
  6
CONTINUOUS
 10
310.633392
 20
26.928749
 40
5.000000
 50
225.000000
 51
270.000000
  0
ARC
  8
0
  6
CONTINUOUS
 10
302.319794
 20
23.928749
 40
3.000000
 50
45.000160
 51
90.000000
  0
ARC
  8
0
  6
CONTINUOUS
 10
304.562378
 20
22.928749
 40
1.000000
 50
180.000000
 51
270.000000
  0
LINE
  8
0
  6
CONTINUOUS
 10
289.562378
 20
138.928787
 11
289.562378
 21
148.928787
  0
LINE
  8
0
  6
CONTINUOUS
 10
297.562378
 20
138.928802
 11
297.562378
 21
148.928802
  0
LINE
  8
0
  6
CONTINUOUS
 10
297.562378
 20
138.928802
 11
289.562378
 21
138.928787
  0
LINE
  8
0
  6
CONTINUOUS
 10
297.562378
 20
148.928802
 11
289.562378
 21
148.928787
  0
ARC
  8
0
  6
CONTINUOUS
 10
278.562378
 20
143.928757
 40
16.000000
 50
18.209900
 51
341.790100
  0
LINE
  8
0
  6
CENTER
 10
555.002502
 20
-11.191250
 11
555.002502
 21
240.654327
  0
LINE
  8
0
  6
CENTER
 10
474.415131
 20
98.928749
 11
634.785095
 21
98.928749
  0
LINE
  8
0
  6
CENTER
 10
420.352509
 20
143.928757
 11
689.179504
 21
143.928757
  0
LINE
  8
0
  6
CENTER
 10
615.002502
 20
30.527491
 11
615.002502
 21
-7.371630
  0
LINE
  8
0
  6
CENTER
 10
495.002502
 20
30.527491
 11
495.002502
 21
-7.371630
  0
LINE
  8
0
  6
CONTINUOUS
 10
480.002502
 20
3.928750
 11
525.002502
 21
3.928750
  0
LINE
  8
0
  6
CONTINUOUS
 10
585.002502
 20
3.928750
 11
630.002502
 21
3.928750
  0
LINE
  8
0
  6
CONTINUOUS
 10
627.502502
 20
21.928749
 11
604.002502
 21
21.928749
  0
LINE
  8
0
  6
CONTINUOUS
 10
482.502502
 20
21.928749
 11
506.002502
 21
21.928749
  0
LINE
  8
0
  6
CONTINUOUS
 10
600.002502
 20
205.195511
 11
600.002502
 21
3.928750
  0
LINE
  8
0
  6
CONTINUOUS
 10
510.002502
 20
191.669952
 11
510.002502
 21
205.195023
  0
LINE
  8
0
  6
CONTINUOUS
 10
630.002502
 20
19.810930
 11
630.002502
 21
3.928750
  0
LINE
  8
0
  6
CONTINUOUS
 10
480.002502
 20
19.810930
 11
480.002502
 21
3.928750
  0
LINE
  8
0
  6
CONTINUOUS
 10
526.502502
 20
5.428750
 11
583.502502
 21
5.428750
  0
LINE
  8
0
  6
CONTINUOUS
 10
597.054871
 20
208.195053
 11
555.002502
 21
208.928757
  0
LINE
  8
0
  6
CONTINUOUS
 10
512.950073
 20
208.194565
 11
555.002502
 21
208.928757
  0
LINE
  8
0
  6
CONTINUOUS
 10
493.002502
 20
108.669945
 11
493.002502
 21
179.187576
  0
LINE
  8
0
  6
CONTINUOUS
 10
617.002502
 20
108.669945
 11
617.002502
 21
179.187576
  0
LINE
  8
0
  6
CONTINUOUS
 10
500.002502
 20
59.684750
 11
500.002502
 21
147.839157
  0
LINE
  8
0
  6
CONTINUOUS
 10
610.002502
 20
59.684769
 11
610.002502
 21
147.839157
  0
LINE
  8
0
  6
DASHED
 10
621.502502
 20
21.928749
 11
621.502502
 21
3.928750
  0
LINE
  8
0
  6
DASHED
 10
608.502502
 20
21.928749
 11
608.502502
 21
3.928750
  0
LINE
  8
0
  6
DASHED
 10
501.502502
 20
21.928749
 11
501.502502
 21
3.928750
  0
LINE
  8
0
  6
DASHED
 10
488.502502
 20
21.928749
 11
488.502502
 21
3.928750
  0
ARC
  8
0
  6
CONTINUOUS
 10
513.002502
 20
205.195023
 40
3.000000
 50
91.000603
 51
180.000000
  0
ARC
  8
0
  6
CONTINUOUS
 10
597.002502
 20
205.195496
 40
3.000000
 50
0.000000
 51
89.000580
  0
LINE
  8
0
  6
CONTINUOUS
 10
506.413300
 20
186.873108
 11
496.591705
 21
183.984375
  0
LINE
  8
0
  6
CONTINUOUS
 10
496.591705
 20
103.873116
 11
497.131104
 21
103.714447
  0
LINE
  8
0
  6
CONTINUOUS
 10
503.609894
 20
54.882610
 11
506.395111
 21
54.074890
  0
LINE
  8
0
  6
CONTINUOUS
 10
482.091492
 20
22.276911
 11
507.495697
 21
26.510950
  0
LINE
  8
0
  6
CONTINUOUS
 10
627.913513
 20
22.276930
 11
602.509277
 21
26.510969
  0
LINE
  8
0
  6
CONTINUOUS
 10
606.395081
 20
54.882610
 11
603.609924
 21
54.074890
  0
LINE
  8
0
  6
CONTINUOUS
 10
613.413330
 20
103.873116
 11
612.873901
 21
103.714439
  0
LINE
  8
0
  6
CONTINUOUS
 10
613.413330
 20
183.984390
 11
603.591675
 21
186.873108
  0
LINE
  8
0
  6
CONTINUOUS
 10
512.576904
 20
176.428757
 11
597.255127
 21
176.428757
  0
ARC
  8
0
  6
CONTINUOUS
 10
498.002502
 20
179.187592
 40
5.000000
 50
106.389900
 51
180.000000
  0
ARC
  8
0
  6
CONTINUOUS
 10
612.002502
 20
179.187546
 40
5.000000
 50
0.000000
 51
73.610527
  0
ARC
  8
0
  6
CONTINUOUS
 10
498.002502
 20
108.669975
 40
5.000000
 50
180.000000
 51
253.610794
  0
ARC
  8
0
  6
CONTINUOUS
 10
612.002502
 20
108.669937
 40
5.000000
 50
-73.610321
 51
0.000000
  0
ARC
  8
0
  6
CONTINUOUS
 10
605.002502
 20
59.684750
 40
5.000000
 50
-73.827698
 51
0.000000
  0
ARC
  8
0
  6
CONTINUOUS
 10
505.002502
 20
59.684792
 40
5.000000
 50
180.000000
 51
253.828201
  0
LINE
  8
0
  6
CONTINUOUS
 10
510.002502
 20
191.669952
 11
510.002502
 21
3.928750
  0
ARC
  8
0
  6
CONTINUOUS
 10
505.002502
 20
191.669937
 40
5.000000
 50
-73.610229
 51
0.000000
  0
ARC
  8
0
  6
CONTINUOUS
 10
496.002502
 20
99.876968
 40
4.000000
 50
0.000000
 51
73.610649
  0
ARC
  8
0
  6
CONTINUOUS
 10
505.002502
 20
49.272732
 40
5.000000
 50
0.000000
 51
73.827919
  0
ARC
  8
0
  6
CONTINUOUS
 10
605.002502
 20
49.272770
 40
5.000000
 50
106.172501
 51
180.000000
  0
ARC
  8
0
  6
CONTINUOUS
 10
614.002502
 20
99.876999
 40
4.000000
 50
106.389999
 51
180.000000
  0
ARC
  8
0
  6
CONTINUOUS
 10
605.002502
 20
191.669968
 40
5.000000
 50
180.000000
 51
253.610794
  0
ARC
  8
0
  6
CONTINUOUS
 10
507.002502
 20
29.470131
 40
3.000000
 50
-80.537483
 51
0.000000
  0
ARC
  8
0
  6
CONTINUOUS
 10
506.002502
 20
25.928711
 40
4.000000
 50
-90.000000
 51
0.000000
  0
ARC
  8
0
  6
CONTINUOUS
 10
482.502502
 20
19.428770
 40
2.500000
 50
90.000000
 51
180.000000
  0
LINE
  8
0
  6
CONTINUOUS
 10
525.002502
 20
3.928750
 11
526.502502
 21
5.428750
  0
LINE
  8
0
  6
CONTINUOUS
 10
585.002502
 20
3.928750
 11
583.502502
 21
5.428750
  0
ARC
  8
0
  6
CONTINUOUS
 10
603.002502
 20
29.470169
 40
3.000000
 50
180.000000
 51
260.537903
  0
ARC
  8
0
  6
CONTINUOUS
 10
604.002502
 20
25.928749
 40
4.000000
 50
180.000000
 51
270.000000
  0
ARC
  8
0
  6
CONTINUOUS
 10
627.502502
 20
19.428749
 40
2.500000
 50
0.000000
 51
90.000000
  0
LINE
  8
0
  6
CONTINUOUS
 10
675.002502
 20
127.928749
 11
675.002502
 21
159.928757
  0
LINE
  8
0
  6
CONTINUOUS
 10
620.002502
 20
159.928757
 11
675.002502
 21
159.928757
  0
LINE
  8
0
  6
CONTINUOUS
 10
620.002502
 20
127.928749
 11
675.002502
 21
127.928749
  0
LINE
  8
0
  6
CONTINUOUS
 10
620.002502
 20
161.428757
 11
620.002502
 21
126.428749
  0
LINE
  8
0
  6
CONTINUOUS
 10
617.002502
 20
161.428757
 11
620.002502
 21
161.428757
  0
LINE
  8
0
  6
CONTINUOUS
 10
617.002502
 20
126.428749
 11
620.002502
 21
126.428749
  0
ARC
  8
0
  6
CONTINUOUS
 10
630.002502
 20
143.928757
 40
5.000000
 50
90.000000
 51
270.000000
  0
LINE
  8
0
  6
CONTINUOUS
 10
630.002502
 20
148.928757
 11
675.002502
 21
148.928757
  0
LINE
  8
0
  6
CONTINUOUS
 10
630.002502
 20
138.928757
 11
675.002502
 21
138.928757
  0
LINE
  8
0
  6
CONTINUOUS
 10
435.002502
 20
127.928749
 11
435.002502
 21
159.928757
  0
LINE
  8
0
  6
CONTINUOUS
 10
490.002502
 20
159.928757
 11
435.002502
 21
159.928757
  0
LINE
  8
0
  6
CONTINUOUS
 10
490.002502
 20
127.928749
 11
435.002502
 21
127.928749
  0
LINE
  8
0
  6
CONTINUOUS
 10
490.002502
 20
161.428757
 11
490.002502
 21
126.428749
  0
LINE
  8
0
  6
CONTINUOUS
 10
493.002502
 20
161.428757
 11
490.002502
 21
161.428757
  0
LINE
  8
0
  6
CONTINUOUS
 10
493.002502
 20
126.428749
 11
490.002502
 21
126.428749
  0
ARC
  8
0
  6
CONTINUOUS
 10
480.002502
 20
143.928757
 40
5.000000
 50
-90.000000
 51
90.000000
  0
LINE
  8
0
  6
CONTINUOUS
 10
480.002502
 20
148.928757
 11
435.002502
 21
148.928757
  0
LINE
  8
0
  6
CONTINUOUS
 10
480.002502
 20
138.928757
 11
435.002502
 21
138.928757
  0
ARC
  8
0
  6
CONTINUOUS
 10
482.502502
 20
19.810949
 40
2.500000
 50
99.462753
 51
180.000000
  0
ARC
  8
0
  6
CONTINUOUS
 10
627.502502
 20
19.810930
 40
2.500000
 50
0.000000
 51
80.537682
  0
LINE
  8
0
  6
CONTINUOUS
 10
190.562378
 20
162.928757
 11
190.562378
 21
34.928749
  0
ARC
  8
0
  6
CONTINUOUS
 10
555.002502
 20
98.928749
 40
64.000000
 50
165.638489
 51
210.753525
  0
ARC
  8
0
  6
CONTINUOUS
 10
555.002502
 20
98.928749
 40
64.000000
 50
-30.753519
 51
14.361512
  0
ARC
  8
0
  6
CONTINUOUS
 10
513.990295
 20
57.916531
 40
8.000000
 50
211.001404
 51
233.216995
  0
ARC
  8
0
  6
CONTINUOUS
 10
508.002502
 20
49.907410
 40
2.000000
 50
30.947910
 51
53.217121
  0
ARC
  8
0
  6
CONTINUOUS
 10
596.014709
 20
57.916531
 40
8.000000
 50
-53.216999
 51
-31.001400
  0
ARC
  8
0
  6
CONTINUOUS
 10
602.002502
 20
49.907410
 40
2.000000
 50
126.782883
 51
149.052094
  0
LINE
  8
0
  6
CENTER
 10
-21.060469
 20
85.928749
 11
235.448746
 21
85.928749
  0
LINE
  8
0
  6
CENTER
 10
106.369690
 20
98.928749
 11
235.448746
 21
98.928749
  0
LINE
  8
0
  6
CONTINUOUS
 10
182.062378
 20
339.986694
 11
182.062378
 21
463.986694
  0
LINE
  8
0
  6
CONTINUOUS
 10
136.062378
 20
446.986694
 11
179.625992
 21
448.507965
  0
LINE
  8
0
  6
CONTINUOUS
 10
136.062378
 20
356.986694
 11
179.625992
 21
355.465393
  0
LINE
  8
0
  6
CONTINUOUS
 10
136.062378
 20
450.998688
 11
136.062378
 21
352.974670
  0
LINE
  8
0
  6
CONTINUOUS
 10
184.062378
 20
465.986694
 11
190.562378
 21
465.986694
  0
LINE
  8
0
  6
CONTINUOUS
 10
184.062378
 20
337.986694
 11
190.562378
 21
337.986694
  0
LINE
  8
0
  6
CONTINUOUS
 10
174.919388
 20
425.986694
 11
182.034363
 21
425.986694
  0
LINE
  8
0
  6
CONTINUOUS
 10
175.524536
 20
377.986694
 11
182.034363
 21
377.986694
  0
LINE
  8
0
  6
CONTINUOUS
 10
174.919388
 20
423.782166
 11
174.919388
 21
380.069611
  0
LINE
  8
0
  6
CONTINUOUS
 10
127.062386
 20
444.986694
 11
127.062386
 21
430.986694
  0
LINE
  8
0
  6
CONTINUOUS
 10
17.062382
 20
446.986694
 11
136.062378
 21
446.986694
  0
LINE
  8
0
  6
CONTINUOUS
 10
17.062382
 20
356.986694
 11
136.062378
 21
356.986694
  0
LINE
  8
0
  6
CONTINUOUS
 10
17.062382
 20
446.986694
 11
17.062382
 21
426.986664
  0
LINE
  8
0
  6
CONTINUOUS
 10
17.062382
 20
430.986694
 11
127.062386
 21
430.986694
  0
LINE
  8
0
  6
CONTINUOUS
 10
17.062382
 20
372.986694
 11
127.062386
 21
372.986694
  0
ARC
  8
0
  6
CONTINUOUS
 10
129.062378
 20
444.986694
 40
2.000000
 50
90.000000
 51
180.000000
  0
ARC
  8
0
  6
CONTINUOUS
 10
129.062378
 20
358.986694
 40
2.000000
 50
180.000000
 51
270.000000
  0
LINE
  8
0
  6
CONTINUOUS
 10
-3.437618
 20
366.986694
 11
-3.437618
 21
436.986694
  0
LINE
  8
0
  6
CONTINUOUS
 10
1.103824
 20
446.986694
 11
17.062382
 21
446.986694
  0
LINE
  8
0
  6
CONTINUOUS
 10
-2.937618
 20
443.986694
 11
-2.937618
 21
359.986694
  0
LINE
  8
0
  6
CONTINUOUS
 10
17.062382
 20
430.986694
 11
-1.187618
 21
430.986694
  0
LINE
  8
0
  6
CONTINUOUS
 10
-2.360272
 20
444.986664
 11
-2.937618
 21
443.986694
  0
ARC
  8
0
  6
CONTINUOUS
 10
1.103840
 20
442.986694
 40
4.000000
 50
90.000000
 51
150.000397
  0
LINE
  8
0
  6
CONTINUOUS
 10
1.103824
 20
356.986694
 11
17.062382
 21
356.986694
  0
LINE
  8
0
  6
CONTINUOUS
 10
17.062382
 20
372.986694
 11
-1.187618
 21
372.986694
  0
LINE
  8
0
  6
CONTINUOUS
 10
-2.360272
 20
358.986694
 11
-2.937618
 21
359.986694
  0
ARC
  8
0
  6
CONTINUOUS
 10
1.103840
 20
360.986664
 40
4.000000
 50
-150.000397
 51
-90.000000
  0
LINE
  8
0
  6
CONTINUOUS
 10
-3.437618
 20
436.986694
 11
-2.937618
 21
437.486694
  0
LINE
  8
0
  6
CONTINUOUS
 10
-3.437618
 20
366.986694
 11
-2.937618
 21
366.486694
  0
LINE
  8
0
  6
CONTINUOUS
 10
136.062378
 20
446.986694
 11
136.062378
 21
356.986694
  0
ARC
  8
0
  6
CONTINUOUS
 10
184.062378
 20
463.986694
 40
2.000000
 50
90.000000
 51
180.000000
  0
ARC
  8
0
  6
CONTINUOUS
 10
184.062378
 20
339.986694
 40
2.000000
 50
180.000000
 51
270.000000
  0
ARC
  8
0
  6
CONTINUOUS
 10
179.538757
 20
451.006439
 40
2.500000
 50
272.000000
 51
359.895721
  0
ARC
  8
0
  6
CONTINUOUS
 10
179.538757
 20
352.966919
 40
2.500000
 50
0.104292
 51
88.000000
  0
LINE
  8
0
  6
CONTINUOUS
 10
182.062378
 20
448.593048
 11
182.034363
 21
448.592072
  0
LINE
  8
0
  6
CONTINUOUS
 10
136.562073
 20
451.516144
 11
182.062378
 21
453.105042
  0
LINE
  8
0
  6
CONTINUOUS
 10
136.062378
 20
450.998688
 11
136.562073
 21
451.516144
  0
LINE
  8
0
  6
CONTINUOUS
 10
136.562073
 20
352.457245
 11
182.062378
 21
350.868317
  0
LINE
  8
0
  6
CONTINUOUS
 10
136.062378
 20
352.974670
 11
136.562073
 21
352.457245
  0
LINE
  8
0
  6
CONTINUOUS
 10
17.062382
 20
376.986664
 11
17.062382
 21
356.986694
  0
LINE
  8
0
  6
CONTINUOUS
 10
127.062386
 20
128.928757
 11
127.062386
 21
42.928730
  0
LINE
  8
0
  6
CONTINUOUS
 10
17.062382
 20
130.928757
 11
136.062378
 21
130.928757
  0
LINE
  8
0
  6
CONTINUOUS
 10
17.062382
 20
40.928749
 11
136.062378
 21
40.928749
  0
LINE
  8
0
  6
CONTINUOUS
 10
17.062382
 20
130.928757
 11
17.062382
 21
40.928749
  0
LINE
  8
0
  6
CONTINUOUS
 10
17.062382
 20
120.338051
 11
126.024704
 21
120.338051
  0
LINE
  8
0
  6
CONTINUOUS
 10
17.062382
 20
51.519451
 11
126.024704
 21
51.519451
  0
ARC
  8
0
  6
CONTINUOUS
 10
129.062378
 20
128.928772
 40
2.000000
 50
90.000000
 51
180.000000
  0
ARC
  8
0
  6
CONTINUOUS
 10
129.062378
 20
42.928749
 40
2.000000
 50
180.000000
 51
270.000000
  0
LINE
  8
0
  6
CONTINUOUS
 10
-3.437618
 20
50.928749
 11
-3.437618
 21
120.928749
  0
LINE
  8
0
  6
CONTINUOUS
 10
1.103824
 20
130.928757
 11
17.062382
 21
130.928757
  0
LINE
  8
0
  6
CONTINUOUS
 10
-2.937618
 20
127.928749
 11
-2.937618
 21
43.928749
  0
LINE
  8
0
  6
CONTINUOUS
 10
17.062382
 20
120.338051
 11
-1.187618
 21
120.338051
  0
LINE
  8
0
  6
CONTINUOUS
 10
-2.360272
 20
128.928726
 11
-2.937618
 21
127.928749
  0
ARC
  8
0
  6
CONTINUOUS
 10
1.103840
 20
126.928749
 40
4.000000
 50
90.000000
 51
150.000397
  0
LINE
  8
0
  6
CONTINUOUS
 10
1.103824
 20
40.928749
 11
17.062382
 21
40.928749
  0
LINE
  8
0
  6
CONTINUOUS
 10
17.062382
 20
51.519451
 11
-1.187618
 21
51.519451
  0
LINE
  8
0
  6
CONTINUOUS
 10
-2.360272
 20
42.928749
 11
-2.937618
 21
43.928749
  0
ARC
  8
0
  6
CONTINUOUS
 10
1.103840
 20
44.928730
 40
4.000000
 50
-150.000397
 51
-90.000000
  0
LINE
  8
0
  6
CONTINUOUS
 10
-3.437618
 20
120.928749
 11
-2.937618
 21
121.428749
  0
LINE
  8
0
  6
CONTINUOUS
 10
-3.437618
 20
50.928749
 11
-2.937618
 21
50.428749
  0
LINE
  8
0
  6
CONTINUOUS
 10
184.062378
 20
162.928848
 11
190.562378
 21
162.928848
  0
LINE
  8
0
  6
CONTINUOUS
 10
184.062378
 20
34.928654
 11
190.562378
 21
34.928654
  0
LINE
  8
0
  6
CONTINUOUS
 10
136.062378
 20
130.928757
 11
182.062378
 21
132.535110
  0
LINE
  8
0
  6
CONTINUOUS
 10
190.562378
 20
39.025566
 11
136.062378
 21
40.928749
  0
ARC
  8
0
  6
CONTINUOUS
 10
184.062408
 20
160.928879
 40
2.000000
 50
90.000000
 51
180.000000
  0
ARC
  8
0
  6
CONTINUOUS
 10
184.062378
 20
36.928654
 40
2.000000
 50
180.260773
 51
270.000000
  0
LINE
  8
0
  6
CONTINUOUS
 10
136.062378
 20
130.928757
 11
136.062378
 21
40.928749
  0
LINE
  8
0
  6
CONTINUOUS
 10
181.330154
 20
138.696518
 11
175.615631
 21
132.982010
  0
LINE
  8
0
  6
CONTINUOUS
 10
136.062378
 20
65.422752
 11
180.062378
 21
65.422752
  0
LINE
  8
0
  6
CONTINUOUS
 10
136.062378
 20
50.409752
 11
190.562378
 21
50.409752
  0
LINE
  8
0
  6
CONTINUOUS
 10
182.630356
 20
58.361752
 11
190.562378
 21
58.361752
  0
LINE
  8
0
  6
CONTINUOUS
 10
182.062378
 20
59.576485
 11
182.062378
 21
160.928879
  0
ARC
  8
0
  6
CONTINUOUS
 10
179.562424
 20
36.908173
 40
2.500000
 50
0.260773
 51
88.000000
  0
ARC
  8
0
  6
CONTINUOUS
 10
179.562378
 20
140.464279
 40
2.500000
 50
-45.000000
 51
0.000000
  0
ARC
  8
0
  6
CONTINUOUS
 10
173.847870
 20
134.749771
 40
2.500000
 50
272.000000
 51
315.000000
  0
LINE
  8
0
  6
CONTINUOUS
 10
7.062382
 20
409.486664
 11
8.062382
 21
409.486664
  0
ARC
  8
0
  6
CONTINUOUS
 10
7.062402
 20
408.486664
 40
1.000000
 50
90.000000
 51
180.000000
  0
LINE
  8
0
  6
CONTINUOUS
 10
2.562397
 20
405.986664
 11
2.562397
 21
397.986664
  0
LINE
  8
0
  6
CONTINUOUS
 10
2.562397
 20
405.986664
 11
6.062397
 21
407.486664
  0
LINE
  8
0
  6
CONTINUOUS
 10
2.562382
 20
397.986664
 11
6.062382
 21
396.486664
  0
LINE
  8
0
  6
CONTINUOUS
 10
6.062397
 20
408.486664
 11
6.062397
 21
395.486664
  0
LINE
  8
0
  6
CONTINUOUS
 10
7.062382
 20
394.486664
 11
8.062382
 21
394.486664
  0
ARC
  8
0
  6
CONTINUOUS
 10
7.062402
 20
395.486664
 40
1.000000
 50
-180.000000
 51
-90.000000
  0
LINE
  8
0
  6
CONTINUOUS
 10
8.062382
 20
378.986664
 11
8.062382
 21
424.986664
  0
LINE
  8
0
  6
CONTINUOUS
 10
10.062382
 20
426.986664
 11
8.062382
 21
424.986664
  0
LINE
  8
0
  6
CONTINUOUS
 10
10.062382
 20
426.986664
 11
56.062370
 21
426.986664
  0
LINE
  8
0
  6
CONTINUOUS
 10
50.562382
 20
422.486664
 11
50.562382
 21
426.986664
  0
ARC
  8
0
  6
CONTINUOUS
 10
53.562382
 20
422.486664
 40
3.000000
 50
180.000000
 51
270.000000
  0
LINE
  8
0
  6
CONTINUOUS
 10
53.562382
 20
419.486664
 11
58.062370
 21
419.486664
  0
CIRCLE
  8
0
  6
CONTINUOUS
 10
54.562382
 20
423.486664
 40
2.250000
  0
LINE
  8
0
  6
CONTINUOUS
 10
58.062374
 20
378.986664
 11
58.062370
 21
424.986664
  0
LINE
  8
0
  6
CONTINUOUS
 10
56.062370
 20
426.986664
 11
58.062370
 21
424.986664
  0
LINE
  8
0
  6
CONTINUOUS
 10
56.062374
 20
376.986664
 11
58.062374
 21
378.986664
  0
LINE
  8
0
  6
CONTINUOUS
 10
56.062374
 20
376.986664
 11
10.062382
 21
376.986664
  0
LINE
  8
0
  6
CONTINUOUS
 10
8.062382
 20
378.986664
 11
10.062382
 21
376.986664
  0
LINE
  8
0
  6
CONTINUOUS
 10
12.562382
 20
384.486664
 11
8.062392
 21
384.486664
  0
CIRCLE
  8
0
  6
CONTINUOUS
 10
11.562382
 20
380.486664
 40
2.250000
  0
ARC
  8
0
  6
CONTINUOUS
 10
12.562382
 20
381.486664
 40
3.000000
 50
0.000000
 51
90.000000
  0
LINE
  8
0
  6
CONTINUOUS
 10
15.562382
 20
381.486664
 11
15.562382
 21
376.986664
  0
LINE
  8
0
  6
CENTER
 10
33.062382
 20
369.520874
 11
33.062382
 21
433.652924
  0
LINE
  8
0
  6
CONTINUOUS
 10
10.476601
 20
425.986694
 11
9.062388
 21
424.572479
  0
LINE
  8
0
  6
CONTINUOUS
 10
9.062388
 20
384.486694
 11
9.062388
 21
424.572479
  0
LINE
  8
0
  6
CONTINUOUS
 10
50.562382
 20
425.986694
 11
10.476601
 21
425.986694
  0
LINE
  8
0
  6
CONTINUOUS
 10
57.062374
 20
419.486694
 11
57.062374
 21
379.400879
  0
LINE
  8
0
  6
CONTINUOUS
 10
15.562382
 20
377.986694
 11
55.648163
 21
377.986694
  0
LINE
  8
0
  6
CONTINUOUS
 10
55.648163
 20
377.986694
 11
57.062374
 21
379.400879
  0
LINE
  8
0
  6
CONTINUOUS
 10
9.562382
 20
132.428757
 11
56.062382
 21
132.428757
  0
LINE
  8
0
  6
CONTINUOUS
 10
58.062370
 20
162.428757
 11
58.062382
 21
134.428757
  0
LINE
  8
0
  6
CONTINUOUS
 10
8.062382
 20
162.428757
 11
8.062382
 21
134.428757
  0
LINE
  8
0
  6
CONTINUOUS
 10
6.062382
 20
144.428757
 11
58.062382
 21
144.428757
  0
LINE
  8
0
  6
CONTINUOUS
 10
56.062382
 20
132.428757
 11
58.062382
 21
134.428757
  0
LINE
  8
0
  6
CONTINUOUS
 10
8.062382
 20
134.428757
 11
10.062382
 21
132.428757
  0
LINE
  8
0
  6
CONTINUOUS
 10
8.062382
 20
134.428757
 11
58.062382
 21
134.428757
  0
LINE
  8
0
  6
CONTINUOUS
 10
9.062382
 20
163.428757
 11
57.062370
 21
163.428757
  0
LINE
  8
0
  6
CONTINUOUS
 10
57.062370
 20
163.428757
 11
58.062370
 21
162.428757
  0
LINE
  8
0
  6
CONTINUOUS
 10
9.062382
 20
163.428757
 11
8.062382
 21
162.428757
  0
LINE
  8
0
  6
CONTINUOUS
 10
8.062382
 20
162.428757
 11
58.062370
 21
162.428757
  0
LINE
  8
0
  6
CENTER
 10
0.118634
 20
153.928757
 11
12.193632
 21
153.928757
  0
LINE
  8
0
  6
CONTINUOUS
 10
6.062390
 20
160.428757
 11
6.062382
 21
144.428757
  0
LINE
  8
0
  6
CONTINUOUS
 10
7.062382
 20
161.428757
 11
8.062382
 21
161.428757
  0
ARC
  8
0
  6
CONTINUOUS
 10
7.062392
 20
160.428757
 40
1.000000
 50
90.000000
 51
180.000000
  0
LINE
  8
0
  6
CONTINUOUS
 10
2.562390
 20
157.928757
 11
2.562390
 21
149.928757
  0
LINE
  8
0
  6
CONTINUOUS
 10
2.562390
 20
157.928757
 11
6.062390
 21
159.428757
  0
LINE
  8
0
  6
CONTINUOUS
 10
2.562382
 20
149.928757
 11
6.062382
 21
148.428757
  0
LINE
  8
0
  6
CENTER
 10
33.062382
 20
127.735001
 11
33.062382
 21
168.816254
  0
LINE
  8
0
  6
CONTINUOUS
 10
9.562382
 20
132.428757
 11
9.562382
 21
130.928757
  0
LINE
  8
0
  6
CONTINUOUS
 10
55.562382
 20
132.428757
 11
55.562382
 21
130.928757
  0
LINE
  8
0
  6
CONTINUOUS
 10
127.062386
 20
372.986694
 11
127.062386
 21
358.986664
  0
TEXT
  8
0
 10
-21.000000
 20
-11.000000
 40
4.000000
 41
1.000000
  1
HLM-32T-1200~1800-S40T
 50
0.000000
  0
ENDSEC
  0
EOF
