  0
SECTION
  2
HEADER
  9
$CLAYER
  8
1
  9
$LTSCALE
 40
3.0
  0
ENDSEC
  0
SECTION
  2
TABLES
  0
TABLE
  2
LTYPE
 70
     4
  0
LTYPE
  2
CONTINUOUS
  3
solid line
 70
    64
 72
    65
 73
     0
 40
0.0
  0
LTYPE
  2
DASHED
  3
__ __ __ __ __ __ __ __ __ __ __ __ __ __ __
 70
    64
 72
    65
 73
     2
 40
0.75
 49
0.5
 49
-0.25
  0
LTYPE
  2
CENTER
  3
____ _ ____ _ ____ _ ____ _ ____ _ ____ _ ____
 70
    64
 72
    65
 73
     4
 40
2.0
 49
1.25
 49
-0.25
 49
0.25
 49
-0.25
  0
LTYPE
  2
PHANTOM
  3
_____ _ _ _____ _ _ _____ _ _ _____ _ _ ____
 70
    64
 72
    65
 73
     6
 40
2.5
 49
1.25
 49
-0.25
 49
0.25
 49
-0.25
 49
0.25
 49
-0.25
  0
ENDTAB
  0
TABLE
  2
LAYER
 70
     1
  0
LAYER
  2
0
 70
    64
 62
     7
  6
CONTINUOUS
  0
ENDTAB
  0
TABLE
  2
STYLE
 70
     1
  0
STYLE
  2
STANDARD
 70
     0
 40
0.000000
 41
1.000000
 50
0.000000
 71
     0
 42
3.000000
  3
txt
  4
BIGFONT
  0
ENDTAB
  0
ENDSEC
  0
SECTION
  2
BLOCKS
  0
ENDSEC
  0
SECTION
  2
ENTITIES
  0
LINE
  8
0
  6
CENTER
 10
316.154877
 20
533.466675
 11
316.154877
 21
279.966675
  0
LINE
  8
0
  6
CONTINUOUS
 10
392.155090
 20
405.404175
 11
391.369598
 21
450.404175
  0
LINE
  8
0
  6
CONTINUOUS
 10
257.704834
 20
480.404175
 11
300.154877
 21
480.404175
  0
LINE
  8
0
  6
CONTINUOUS
 10
382.098480
 20
475.205383
 11
391.369598
 21
450.404175
  0
ARC
  8
0
  6
CONTINUOUS
 10
374.604919
 20
472.404175
 40
8.000000
 50
20.496618
 51
90.000000
  0
LINE
  8
0
  6
CONTINUOUS
 10
392.155090
 20
405.404175
 11
391.369598
 21
360.404175
  0
LINE
  8
0
  6
CONTINUOUS
 10
257.704834
 20
330.404175
 11
300.154877
 21
330.404175
  0
LINE
  8
0
  6
CONTINUOUS
 10
382.098480
 20
335.602966
 11
391.369598
 21
360.404175
  0
ARC
  8
0
  6
CONTINUOUS
 10
374.604919
 20
338.404175
 40
8.000000
 50
-90.000000
 51
-20.496618
  0
LINE
  8
0
  6
CONTINUOUS
 10
250.211288
 20
475.205383
 11
241.156494
 21
450.982910
  0
ARC
  8
0
  6
CONTINUOUS
 10
257.704834
 20
472.404175
 40
8.000000
 50
90.000000
 51
159.503387
  0
LINE
  8
0
  6
CONTINUOUS
 10
250.211288
 20
335.602966
 11
241.156494
 21
359.825470
  0
ARC
  8
0
  6
CONTINUOUS
 10
257.704834
 20
338.404175
 40
8.000000
 50
200.496613
 51
270.000000
  0
LINE
  8
0
  6
CONTINUOUS
 10
243.491516
 20
450.404175
 11
388.421509
 21
450.404175
  0
LINE
  8
0
  6
CONTINUOUS
 10
388.421509
 20
360.404175
 11
243.491516
 21
360.404175
  0
LINE
  8
0
  6
CONTINUOUS
 10
316.154877
 20
467.404175
 11
351.413696
 21
467.404175
  0
ARC
  8
0
  6
CONTINUOUS
 10
388.421509
 20
447.404175
 40
3.000000
 50
1.000000
 51
90.000000
  0
ARC
  8
0
  6
CONTINUOUS
 10
388.421509
 20
363.404175
 40
3.000000
 50
270.000000
 51
359.000000
  0
LINE
  8
0
  6
CONTINUOUS
 10
345.154877
 20
447.404175
 11
345.154877
 21
363.404175
  0
LINE
  8
0
  6
CONTINUOUS
 10
287.154877
 20
447.404175
 11
287.154877
 21
363.404175
  0
LINE
  8
0
  6
CONTINUOUS
 10
228.154877
 20
469.404175
 11
228.154877
 21
341.404175
  0
LINE
  8
0
  6
CONTINUOUS
 10
230.727219
 20
469.404175
 11
228.154877
 21
469.404175
  0
LINE
  8
0
  6
CONTINUOUS
 10
356.210510
 20
463.815002
 11
357.213715
 21
460.404175
  0
ARC
  8
0
  6
CONTINUOUS
 10
351.413696
 20
462.404175
 40
5.000000
 50
16.389540
 51
90.000000
  0
LINE
  8
0
  6
CONTINUOUS
 10
371.701019
 20
456.796814
 11
372.508728
 21
454.011566
  0
LINE
  8
0
  6
CONTINUOUS
 10
366.898865
 20
460.404175
 11
357.213715
 21
460.404175
  0
LINE
  8
0
  6
CONTINUOUS
 10
316.154877
 20
467.404175
 11
280.896057
 21
467.404175
  0
LINE
  8
0
  6
CONTINUOUS
 10
316.154877
 20
343.404175
 11
351.413696
 21
343.404175
  0
LINE
  8
0
  6
CONTINUOUS
 10
316.154877
 20
343.404175
 11
280.896057
 21
343.404175
  0
LINE
  8
0
  6
CONTINUOUS
 10
335.154877
 20
525.404175
 11
300.154877
 21
525.404175
  0
LINE
  8
0
  6
CONTINUOUS
 10
300.154877
 20
470.404175
 11
300.154877
 21
525.404175
  0
LINE
  8
0
  6
CONTINUOUS
 10
332.154877
 20
470.404175
 11
332.154877
 21
475.404175
  0
LINE
  8
0
  6
CONTINUOUS
 10
298.654877
 20
470.404175
 11
333.654877
 21
470.404175
  0
LINE
  8
0
  6
CONTINUOUS
 10
298.654877
 20
467.404175
 11
298.654877
 21
470.404175
  0
LINE
  8
0
  6
CONTINUOUS
 10
333.654877
 20
467.404175
 11
333.654877
 21
470.404175
  0
LINE
  8
0
  6
CONTINUOUS
 10
335.154877
 20
480.404175
 11
374.604919
 21
480.404175
  0
LINE
  8
0
  6
CONTINUOUS
 10
335.154877
 20
525.404175
 11
335.154877
 21
475.404175
  0
LINE
  8
0
  6
CONTINUOUS
 10
331.353577
 20
475.404175
 11
335.154877
 21
475.404175
  0
LINE
  8
0
  6
CONTINUOUS
 10
331.353577
 20
475.404175
 11
331.353577
 21
525.404175
  0
LINE
  8
0
  6
CONTINUOUS
 10
335.154877
 20
285.404175
 11
300.154877
 21
285.404175
  0
LINE
  8
0
  6
CONTINUOUS
 10
300.154877
 20
340.404175
 11
300.154877
 21
285.404175
  0
LINE
  8
0
  6
CONTINUOUS
 10
332.154877
 20
340.404175
 11
332.154877
 21
335.404175
  0
LINE
  8
0
  6
CONTINUOUS
 10
298.654877
 20
340.404175
 11
333.654877
 21
340.404175
  0
LINE
  8
0
  6
CONTINUOUS
 10
298.654877
 20
343.404175
 11
298.654877
 21
340.404175
  0
LINE
  8
0
  6
CONTINUOUS
 10
333.654877
 20
343.404175
 11
333.654877
 21
340.404175
  0
LINE
  8
0
  6
CONTINUOUS
 10
335.154877
 20
285.404175
 11
335.154877
 21
335.404175
  0
LINE
  8
0
  6
CONTINUOUS
 10
331.353577
 20
335.404175
 11
335.154877
 21
335.404175
  0
LINE
  8
0
  6
CONTINUOUS
 10
331.353577
 20
335.404175
 11
331.353577
 21
285.404175
  0
LINE
  8
0
  6
CONTINUOUS
 10
335.154877
 20
330.404175
 11
374.604919
 21
330.404175
  0
LINE
  8
0
  6
CENTER
 10
353.778564
 20
465.404175
 11
372.716064
 21
465.404175
  0
LINE
  8
0
  6
CENTER
 10
363.654877
 20
456.251831
 11
363.654877
 21
475.751831
  0
ARC
  8
0
  6
CONTINUOUS
 10
363.654877
 20
465.404175
 40
6.500000
 50
-51.240688
 51
230.284866
  0
ARC
  8
0
  6
CONTINUOUS
 10
268.654877
 20
465.404175
 40
6.500000
 50
-50.284863
 51
231.240692
  0
LINE
  8
0
  6
CENTER
 10
268.654877
 20
456.251831
 11
268.654877
 21
475.751831
  0
LINE
  8
0
  6
CENTER
 10
278.531219
 20
465.404175
 11
259.593719
 21
465.404175
  0
LINE
  8
0
  6
CENTER
 10
-21.766251
 20
405.404175
 11
403.575897
 21
405.404175
  0
LINE
  8
0
  6
CONTINUOUS
 10
235.556839
 20
465.698273
 11
238.661880
 21
454.110077
  0
ARC
  8
0
  6
CONTINUOUS
 10
243.491516
 20
455.404175
 40
5.000000
 50
195.000000
 51
270.000000
  0
ARC
  8
0
  6
CONTINUOUS
 10
230.727219
 20
464.404175
 40
5.000000
 50
15.000000
 51
90.000000
  0
LINE
  8
0
  6
CONTINUOUS
 10
230.727219
 20
341.404175
 11
228.154877
 21
341.404175
  0
LINE
  8
0
  6
CONTINUOUS
 10
235.556839
 20
345.110077
 11
238.661880
 21
356.698273
  0
ARC
  8
0
  6
CONTINUOUS
 10
230.727219
 20
346.404175
 40
5.000000
 50
-90.000000
 51
-15.000000
  0
ARC
  8
0
  6
CONTINUOUS
 10
243.491516
 20
355.404175
 40
5.000000
 50
-270.000000
 51
-195.000000
  0
LINE
  8
0
  6
CONTINUOUS
 10
240.154678
 20
405.404175
 11
240.888702
 21
447.456543
  0
LINE
  8
0
  6
CONTINUOUS
 10
240.154678
 20
405.404175
 11
240.888702
 21
363.351837
  0
ARC
  8
0
  6
CONTINUOUS
 10
243.888245
 20
447.404175
 40
3.000000
 50
90.000000
 51
179.000000
  0
ARC
  8
0
  6
CONTINUOUS
 10
243.888245
 20
363.404175
 40
3.000000
 50
-179.000000
 51
-90.000000
  0
ARC
  8
0
  6
CONTINUOUS
 10
366.898865
 20
455.404175
 40
5.000000
 50
16.172159
 51
90.000000
  0
ARC
  8
0
  6
CONTINUOUS
 10
377.310883
 20
455.404175
 40
5.000000
 50
196.172165
 51
270.000000
  0
LINE
  8
0
  6
CONTINUOUS
 10
373.554871
 20
450.404175
 11
373.558105
 21
450.393097
  0
ARC
  8
0
  6
CONTINUOUS
 10
280.896057
 20
462.404175
 40
5.000000
 50
90.000000
 51
163.610458
  0
LINE
  8
0
  6
CONTINUOUS
 10
276.099243
 20
463.815002
 11
275.096069
 21
460.404175
  0
LINE
  8
0
  6
CONTINUOUS
 10
260.608734
 20
456.796814
 11
259.801025
 21
454.011566
  0
LINE
  8
0
  6
CONTINUOUS
 10
265.410889
 20
460.404175
 11
275.096069
 21
460.404175
  0
ARC
  8
0
  6
CONTINUOUS
 10
265.410889
 20
455.404175
 40
5.000000
 50
90.000000
 51
163.827835
  0
ARC
  8
0
  6
CONTINUOUS
 10
254.998871
 20
455.404175
 40
5.000000
 50
-90.000000
 51
-16.172159
  0
LINE
  8
0
  6
CONTINUOUS
 10
258.754883
 20
450.404175
 11
258.751678
 21
450.393097
  0
ARC
  8
0
  6
CONTINUOUS
 10
268.654877
 20
345.404175
 40
6.500000
 50
-231.240692
 51
50.284863
  0
LINE
  8
0
  6
CENTER
 10
278.531219
 20
345.404175
 11
259.593719
 21
345.404175
  0
ARC
  8
0
  6
CONTINUOUS
 10
280.896057
 20
348.404175
 40
5.000000
 50
196.389542
 51
270.000000
  0
LINE
  8
0
  6
CONTINUOUS
 10
276.099243
 20
346.993347
 11
275.096069
 21
350.404175
  0
LINE
  8
0
  6
CONTINUOUS
 10
260.608734
 20
354.011566
 11
259.801025
 21
356.796814
  0
LINE
  8
0
  6
CONTINUOUS
 10
265.410889
 20
350.404175
 11
275.096069
 21
350.404175
  0
ARC
  8
0
  6
CONTINUOUS
 10
265.410889
 20
355.404175
 40
5.000000
 50
-163.827835
 51
-90.000000
  0
ARC
  8
0
  6
CONTINUOUS
 10
254.998871
 20
355.404175
 40
5.000000
 50
16.172159
 51
90.000000
  0
LINE
  8
0
  6
CONTINUOUS
 10
258.754883
 20
360.404175
 11
258.751678
 21
360.415283
  0
LINE
  8
0
  6
CENTER
 10
268.654877
 20
354.556519
 11
268.654877
 21
335.056519
  0
LINE
  8
0
  6
CONTINUOUS
 10
356.210510
 20
346.993347
 11
357.213715
 21
350.404175
  0
ARC
  8
0
  6
CONTINUOUS
 10
351.413696
 20
348.404175
 40
5.000000
 50
-90.000000
 51
-16.389540
  0
LINE
  8
0
  6
CONTINUOUS
 10
371.701019
 20
354.011566
 11
372.508728
 21
356.796814
  0
LINE
  8
0
  6
CONTINUOUS
 10
366.898865
 20
350.404175
 11
357.213715
 21
350.404175
  0
LINE
  8
0
  6
CENTER
 10
353.778564
 20
345.404175
 11
372.716064
 21
345.404175
  0
LINE
  8
0
  6
CENTER
 10
363.654877
 20
354.556519
 11
363.654877
 21
335.056519
  0
ARC
  8
0
  6
CONTINUOUS
 10
363.654877
 20
345.404175
 40
6.500000
 50
-230.284866
 51
51.240688
  0
ARC
  8
0
  6
CONTINUOUS
 10
366.898865
 20
355.404175
 40
5.000000
 50
-90.000000
 51
-16.172159
  0
ARC
  8
0
  6
CONTINUOUS
 10
377.310883
 20
355.404175
 40
5.000000
 50
-270.000000
 51
-196.172165
  0
LINE
  8
0
  6
CONTINUOUS
 10
373.554871
 20
360.404175
 11
373.558105
 21
360.415283
  0
LINE
  8
0
  6
CENTER
 10
316.154877
 20
234.642426
 11
316.154877
 21
-3.286630
  0
LINE
  8
0
  6
CENTER
 10
252.270279
 20
147.346252
 11
368.839874
 21
147.346252
  0
LINE
  8
0
  6
CENTER
 10
363.654877
 20
32.621689
 11
363.654877
 21
-1.243050
  0
LINE
  8
0
  6
CENTER
 10
268.654877
 20
32.621689
 11
268.654877
 21
-1.534990
  0
LINE
  8
0
  6
CONTINUOUS
 10
240.154877
 20
7.346250
 11
392.154877
 21
7.346250
  0
LINE
  8
0
  6
CONTINUOUS
 10
240.154877
 20
25.346251
 11
392.154877
 21
25.346251
  0
LINE
  8
0
  6
CONTINUOUS
 10
392.154877
 20
175.651810
 11
392.154877
 21
7.346250
  0
LINE
  8
0
  6
CONTINUOUS
 10
240.154877
 20
170.846252
 11
240.154877
 21
175.651810
  0
LINE
  8
0
  6
CONTINUOUS
 10
289.651489
 20
212.346252
 11
342.658295
 21
212.346252
  0
LINE
  8
0
  6
CONTINUOUS
 10
235.154877
 20
166.346252
 11
228.154877
 21
166.346252
  0
LINE
  8
0
  6
CONTINUOUS
 10
235.154877
 20
38.346249
 11
228.154877
 21
38.346249
  0
LINE
  8
0
  6
CONTINUOUS
 10
388.704895
 20
182.231873
 11
347.208282
 21
210.926315
  0
LINE
  8
0
  6
CONTINUOUS
 10
243.604843
 20
182.231873
 11
285.101471
 21
210.926315
  0
ARC
  8
0
  6
CONTINUOUS
 10
342.658295
 20
204.346252
 40
8.000000
 50
55.336689
 51
90.000000
  0
ARC
  8
0
  6
CONTINUOUS
 10
384.154877
 20
175.651764
 40
8.000000
 50
0.000000
 51
55.336739
  0
ARC
  8
0
  6
CONTINUOUS
 10
289.651489
 20
204.346252
 40
8.000000
 50
90.000000
 51
124.663696
  0
ARC
  8
0
  6
CONTINUOUS
 10
248.154877
 20
175.651855
 40
8.000000
 50
124.663803
 51
180.000000
  0
LINE
  8
0
  6
CONTINUOUS
 10
240.154877
 20
33.846249
 11
240.154877
 21
7.346250
  0
ARC
  8
0
  6
CONTINUOUS
 10
235.154861
 20
171.346252
 40
5.000000
 50
-90.000000
 51
0.000000
  0
LINE
  8
0
  6
CONTINUOUS
 10
240.154877
 20
33.846249
 11
240.154877
 21
170.846252
  0
ARC
  8
0
  6
CONTINUOUS
 10
235.154907
 20
33.346230
 40
5.000000
 50
0.000000
 51
90.000000
  0
LINE
  8
0
  6
DASHED
 10
262.154877
 20
25.346251
 11
262.154877
 21
7.346250
  0
LINE
  8
0
  6
DASHED
 10
275.154877
 20
25.346251
 11
275.154877
 21
7.346250
  0
LINE
  8
0
  6
DASHED
 10
357.154877
 20
25.346251
 11
357.154877
 21
7.346250
  0
LINE
  8
0
  6
DASHED
 10
370.154877
 20
25.346251
 11
370.154877
 21
7.346250
  0
CIRCLE
  8
0
  6
CONTINUOUS
 10
316.154877
 20
147.346252
 40
39.000000
  0
ARC
  8
0
  6
CONTINUOUS
 10
316.154877
 20
147.346252
 40
44.000000
 50
12.523240
 51
167.476898
  0
ARC
  8
0
  6
CONTINUOUS
 10
290.654877
 20
88.346252
 40
29.000000
 50
167.476898
 51
270.000000
  0
ARC
  8
0
  6
CONTINUOUS
 10
341.654877
 20
88.346252
 40
29.000000
 50
-90.000000
 51
12.523240
  0
ARC
  8
0
  6
CONTINUOUS
 10
290.654877
 20
88.346252
 40
31.900000
 50
167.476898
 51
270.000000
  0
ARC
  8
0
  6
CONTINUOUS
 10
341.654877
 20
88.346252
 40
31.900000
 50
-90.000000
 51
12.523240
  0
ARC
  8
0
  6
CONTINUOUS
 10
316.154877
 20
147.346252
 40
41.099998
 50
-192.523102
 51
12.523240
  0
LINE
  8
0
  6
CONTINUOUS
 10
259.513885
 20
95.263252
 11
273.201691
 21
156.886948
  0
LINE
  8
0
  6
CONTINUOUS
 10
262.344879
 20
94.634438
 11
276.032684
 21
156.258133
  0
LINE
  8
0
  6
CONTINUOUS
 10
290.654877
 20
56.446251
 11
341.654877
 21
56.446251
  0
LINE
  8
0
  6
CONTINUOUS
 10
341.654877
 20
59.346249
 11
290.654877
 21
59.346249
  0
LINE
  8
0
  6
CONTINUOUS
 10
359.108093
 20
156.887024
 11
372.795868
 21
95.263313
  0
LINE
  8
0
  6
CONTINUOUS
 10
356.277069
 20
156.258209
 11
369.964874
 21
94.634491
  0
LINE
  8
0
  6
CONTINUOUS
 10
303.927887
 20
71.346252
 11
298.987488
 21
71.346252
  0
LINE
  8
0
  6
CONTINUOUS
 10
306.654877
 20
79.621651
 11
306.654877
 21
71.346252
  0
LINE
  8
0
  6
CONTINUOUS
 10
311.404877
 20
82.627502
 11
311.404877
 21
85.596252
  0
LINE
  8
0
  6
CONTINUOUS
 10
320.904877
 20
82.627502
 11
320.904877
 21
85.596252
  0
LINE
  8
0
  6
CONTINUOUS
 10
315.227081
 20
83.852112
 11
315.227081
 21
72.904846
  0
LINE
  8
0
  6
CONTINUOUS
 10
317.008484
 20
83.852112
 11
317.008484
 21
72.904846
  0
LINE
  8
0
  6
CONTINUOUS
 10
326.360077
 20
83.852112
 11
326.360077
 21
72.830627
  0
LINE
  8
0
  6
CONTINUOUS
 10
327.992889
 20
78.007393
 11
327.992889
 21
72.830627
  0
LINE
  8
0
  6
CONTINUOUS
 10
304.400879
 20
83.703674
 11
299.823273
 21
83.703674
  0
LINE
  8
0
  6
CONTINUOUS
 10
299.823273
 20
83.703674
 11
298.750671
 21
82.373672
  0
LINE
  8
0
  6
CONTINUOUS
 10
298.879669
 20
85.596252
 11
297.154877
 21
83.387787
  0
LINE
  8
0
  6
CONTINUOUS
 10
298.750671
 20
74.164093
 11
299.840485
 21
73.016167
  0
LINE
  8
0
  6
CONTINUOUS
 10
297.154877
 20
73.195374
 11
298.987488
 21
71.346252
  0
LINE
  8
0
  6
CONTINUOUS
 10
297.154877
 20
83.387787
 11
297.154877
 21
73.195374
  0
LINE
  8
0
  6
CONTINUOUS
 10
298.750671
 20
82.373672
 11
298.750671
 21
74.164093
  0
LINE
  8
0
  6
CONTINUOUS
 10
305.281891
 20
82.852112
 11
304.382874
 21
83.703674
  0
LINE
  8
0
  6
CONTINUOUS
 10
305.267670
 20
85.596252
 11
306.654877
 21
84.056671
  0
LINE
  8
0
  6
CONTINUOUS
 10
305.281891
 20
82.627502
 11
306.654877
 21
82.627502
  0
LINE
  8
0
  6
CONTINUOUS
 10
298.879669
 20
85.596252
 11
305.267670
 21
85.596252
  0
LINE
  8
0
  6
CONTINUOUS
 10
302.795471
 20
79.621651
 11
306.654877
 21
79.621651
  0
LINE
  8
0
  6
CONTINUOUS
 10
305.281891
 20
78.063049
 11
302.795471
 21
78.063049
  0
LINE
  8
0
  6
CONTINUOUS
 10
302.313080
 20
73.016167
 11
299.840485
 21
73.016167
  0
LINE
  8
0
  6
CONTINUOUS
 10
305.281891
 20
76.578667
 11
305.281891
 21
77.766167
  0
ARC
  8
0
  6
CONTINUOUS
 10
302.313080
 20
75.984909
 40
2.968750
 50
-89.999786
 51
0.000109
  0
LINE
  8
0
  6
CONTINUOUS
 10
305.281891
 20
72.482170
 11
305.281891
 21
71.346252
  0
LINE
  8
0
  6
CONTINUOUS
 10
306.654877
 20
84.056671
 11
306.654877
 21
82.627502
  0
LINE
  8
0
  6
CONTINUOUS
 10
305.281891
 20
78.063049
 11
305.281891
 21
75.984909
  0
LINE
  8
0
  6
CONTINUOUS
 10
302.795471
 20
79.621651
 11
302.795471
 21
78.063049
  0
LINE
  8
0
  6
CONTINUOUS
 10
305.281891
 20
71.346252
 11
306.654877
 21
71.346252
  0
LINE
  8
0
  6
CONTINUOUS
 10
305.281891
 20
72.482170
 11
303.927887
 21
71.346252
  0
LINE
  8
0
  6
CONTINUOUS
 10
317.008484
 20
72.904846
 11
317.602081
 21
72.904846
  0
LINE
  8
0
  6
CONTINUOUS
 10
314.522095
 20
72.904846
 11
314.522095
 21
71.346252
  0
LINE
  8
0
  6
CONTINUOUS
 10
317.602081
 20
72.904846
 11
317.602081
 21
71.346252
  0
LINE
  8
0
  6
CONTINUOUS
 10
319.913879
 20
82.627502
 11
320.904877
 21
82.627502
  0
LINE
  8
0
  6
CONTINUOUS
 10
311.404877
 20
82.627502
 11
312.459473
 21
82.627502
  0
LINE
  8
0
  6
CONTINUOUS
 10
311.404877
 20
85.596252
 11
320.904877
 21
85.596252
  0
LINE
  8
0
  6
CONTINUOUS
 10
314.522095
 20
71.346252
 11
317.602081
 21
71.346252
  0
LINE
  8
0
  6
CONTINUOUS
 10
314.522095
 20
72.904846
 11
315.227081
 21
72.904846
  0
ARC
  8
0
  6
CONTINUOUS
 10
331.351074
 20
81.792526
 40
3.803712
 50
-73.981873
 51
90.003510
  0
ARC
  8
0
  6
CONTINUOUS
 10
331.351074
 20
81.792526
 40
2.320524
 50
-82.585274
 51
62.411850
  0
LINE
  8
0
  6
CONTINUOUS
 10
325.654877
 20
85.596252
 11
331.351074
 21
85.596252
  0
LINE
  8
0
  6
CONTINUOUS
 10
331.650696
 20
79.491409
 11
327.992889
 21
79.491409
  0
LINE
  8
0
  6
CONTINUOUS
 10
325.654877
 20
85.596252
 11
325.654877
 21
83.852112
  0
LINE
  8
0
  6
CONTINUOUS
 10
327.992889
 20
83.852112
 11
327.992889
 21
79.491409
  0
LINE
  8
0
  6
CONTINUOUS
 10
332.400696
 20
78.136513
 11
334.755096
 21
72.830627
  0
LINE
  8
0
  6
CONTINUOUS
 10
331.033478
 20
78.007393
 11
333.261475
 21
72.830627
  0
LINE
  8
0
  6
CONTINUOUS
 10
325.654877
 20
72.830627
 11
326.360077
 21
72.830627
  0
LINE
  8
0
  6
CONTINUOUS
 10
327.992889
 20
72.830627
 11
328.642273
 21
72.830627
  0
LINE
  8
0
  6
CONTINUOUS
 10
328.642273
 20
71.346252
 11
325.654877
 21
71.346252
  0
LINE
  8
0
  6
CONTINUOUS
 10
332.965485
 20
72.830627
 11
333.261475
 21
72.830627
  0
LINE
  8
0
  6
CONTINUOUS
 10
334.755096
 20
72.830627
 11
335.154877
 21
72.830627
  0
LINE
  8
0
  6
CONTINUOUS
 10
332.965485
 20
71.346252
 11
335.154877
 21
71.346252
  0
LINE
  8
0
  6
CONTINUOUS
 10
335.154877
 20
72.830627
 11
335.154877
 21
71.346252
  0
LINE
  8
0
  6
CONTINUOUS
 10
332.965485
 20
72.830627
 11
332.965485
 21
71.346252
  0
LINE
  8
0
  6
CONTINUOUS
 10
328.642273
 20
72.830627
 11
328.642273
 21
71.346252
  0
LINE
  8
0
  6
CONTINUOUS
 10
325.654877
 20
72.830627
 11
325.654877
 21
71.346252
  0
LINE
  8
0
  6
CONTINUOUS
 10
312.969696
 20
83.852112
 11
312.459473
 21
82.627502
  0
LINE
  8
0
  6
CONTINUOUS
 10
319.483673
 20
83.852112
 11
319.913879
 21
82.627502
  0
LINE
  8
0
  6
CONTINUOUS
 10
317.008484
 20
83.852112
 11
319.483673
 21
83.852112
  0
LINE
  8
0
  6
CONTINUOUS
 10
315.227081
 20
83.852112
 11
312.969696
 21
83.852112
  0
LINE
  8
0
  6
CONTINUOUS
 10
327.992889
 20
78.007393
 11
331.033478
 21
78.007393
  0
LINE
  8
0
  6
CONTINUOUS
 10
325.654877
 20
83.852112
 11
326.360077
 21
83.852112
  0
LINE
  8
0
  6
CONTINUOUS
 10
327.992889
 20
83.852112
 11
332.425873
 21
83.849220
  0
LINE
  8
0
  6
CONTINUOUS
 10
305.281891
 20
82.852112
 11
305.281891
 21
82.627502
  0
ARC
  8
0
  6
CONTINUOUS
 10
419.863678
 20
102.346252
 40
185.208893
 50
166.001907
 51
193.998093
  0
LINE
  8
0
  6
CONTINUOUS
 10
254.154877
 20
23.279690
 11
254.154877
 21
7.346250
  0
LINE
  8
0
  6
CONTINUOUS
 10
378.154877
 20
23.279690
 11
378.154877
 21
7.346250
  0
LINE
  8
0
  6
CONTINUOUS
 10
339.912292
 20
30.346251
 11
292.397491
 21
30.346251
  0
LINE
  8
0
  6
CONTINUOUS
 10
291.154877
 20
29.410370
 11
291.154877
 21
26.346251
  0
LINE
  8
0
  6
CONTINUOUS
 10
342.033478
 20
29.467569
 11
344.690491
 21
26.810711
  0
LINE
  8
0
  6
CONTINUOUS
 10
290.276276
 20
29.467569
 11
287.619476
 21
26.810749
  0
LINE
  8
0
  6
CONTINUOUS
 10
341.154877
 20
29.410370
 11
341.154877
 21
26.346251
  0
ARC
  8
0
  6
CONTINUOUS
 10
284.083893
 20
30.346251
 40
5.000000
 50
270.000000
 51
315.000092
  0
ARC
  8
0
  6
CONTINUOUS
 10
292.397491
 20
27.346251
 40
3.000000
 50
90.000000
 51
135.000305
  0
ARC
  8
0
  6
CONTINUOUS
 10
290.154877
 20
26.346251
 40
1.000000
 50
-90.000000
 51
0.000000
  0
ARC
  8
0
  6
CONTINUOUS
 10
348.225891
 20
30.346251
 40
5.000000
 50
225.000000
 51
270.000000
  0
ARC
  8
0
  6
CONTINUOUS
 10
339.912292
 20
27.346251
 40
3.000000
 50
45.000160
 51
90.000000
  0
ARC
  8
0
  6
CONTINUOUS
 10
342.154877
 20
26.346251
 40
1.000000
 50
180.000000
 51
270.000000
  0
LINE
  8
0
  6
CONTINUOUS
 10
327.154877
 20
142.346283
 11
327.154877
 21
152.346283
  0
LINE
  8
0
  6
CONTINUOUS
 10
335.154877
 20
142.346313
 11
335.154877
 21
152.346313
  0
LINE
  8
0
  6
CONTINUOUS
 10
335.154877
 20
142.346313
 11
327.154877
 21
142.346283
  0
LINE
  8
0
  6
CONTINUOUS
 10
335.154877
 20
152.346313
 11
327.154877
 21
152.346283
  0
ARC
  8
0
  6
CONTINUOUS
 10
316.154877
 20
147.346252
 40
16.000000
 50
18.209900
 51
341.790100
  0
LINE
  8
0
  6
CENTER
 10
597.721252
 20
-7.773750
 11
597.721252
 21
244.071823
  0
LINE
  8
0
  6
CENTER
 10
517.133850
 20
102.346252
 11
677.503845
 21
102.346252
  0
LINE
  8
0
  6
CENTER
 10
463.071259
 20
147.346252
 11
731.898254
 21
147.346252
  0
LINE
  8
0
  6
CENTER
 10
657.721252
 20
33.944988
 11
657.721252
 21
-3.954130
  0
LINE
  8
0
  6
CENTER
 10
537.721252
 20
33.944988
 11
537.721252
 21
-3.954130
  0
LINE
  8
0
  6
CONTINUOUS
 10
522.721252
 20
7.346250
 11
567.721252
 21
7.346250
  0
LINE
  8
0
  6
CONTINUOUS
 10
627.721252
 20
7.346250
 11
672.721252
 21
7.346250
  0
LINE
  8
0
  6
CONTINUOUS
 10
670.221252
 20
25.346251
 11
646.721252
 21
25.346251
  0
LINE
  8
0
  6
CONTINUOUS
 10
525.221252
 20
25.346251
 11
548.721252
 21
25.346251
  0
LINE
  8
0
  6
CONTINUOUS
 10
642.721252
 20
208.613007
 11
642.721252
 21
7.346250
  0
LINE
  8
0
  6
CONTINUOUS
 10
552.721252
 20
195.087448
 11
552.721252
 21
208.612534
  0
LINE
  8
0
  6
CONTINUOUS
 10
672.721252
 20
23.228430
 11
672.721252
 21
7.346250
  0
LINE
  8
0
  6
CONTINUOUS
 10
522.721252
 20
23.228430
 11
522.721252
 21
7.346250
  0
LINE
  8
0
  6
CONTINUOUS
 10
569.221252
 20
8.846250
 11
626.221252
 21
8.846250
  0
LINE
  8
0
  6
CONTINUOUS
 10
639.773621
 20
211.612549
 11
597.721252
 21
212.346252
  0
LINE
  8
0
  6
CONTINUOUS
 10
555.668823
 20
211.612076
 11
597.721252
 21
212.346252
  0
LINE
  8
0
  6
CONTINUOUS
 10
535.721252
 20
112.087440
 11
535.721252
 21
182.605072
  0
LINE
  8
0
  6
CONTINUOUS
 10
659.721252
 20
112.087440
 11
659.721252
 21
182.605072
  0
LINE
  8
0
  6
CONTINUOUS
 10
542.721252
 20
63.102249
 11
542.721252
 21
151.256653
  0
LINE
  8
0
  6
CONTINUOUS
 10
652.721252
 20
63.102268
 11
652.721252
 21
151.256653
  0
LINE
  8
0
  6
DASHED
 10
664.221252
 20
25.346251
 11
664.221252
 21
7.346250
  0
LINE
  8
0
  6
DASHED
 10
651.221252
 20
25.346251
 11
651.221252
 21
7.346250
  0
LINE
  8
0
  6
DASHED
 10
544.221252
 20
25.346251
 11
544.221252
 21
7.346250
  0
LINE
  8
0
  6
DASHED
 10
531.221252
 20
25.346251
 11
531.221252
 21
7.346250
  0
ARC
  8
0
  6
CONTINUOUS
 10
555.721252
 20
208.612534
 40
3.000000
 50
91.000603
 51
180.000000
  0
ARC
  8
0
  6
CONTINUOUS
 10
639.721252
 20
208.612991
 40
3.000000
 50
0.000000
 51
89.000580
  0
LINE
  8
0
  6
CONTINUOUS
 10
549.132080
 20
190.290604
 11
539.310425
 21
187.401871
  0
LINE
  8
0
  6
CONTINUOUS
 10
539.310425
 20
107.290619
 11
539.849854
 21
107.131943
  0
LINE
  8
0
  6
CONTINUOUS
 10
546.328674
 20
58.300110
 11
549.113831
 21
57.492390
  0
LINE
  8
0
  6
CONTINUOUS
 10
524.810242
 20
25.694410
 11
550.214478
 21
29.928450
  0
LINE
  8
0
  6
CONTINUOUS
 10
670.632263
 20
25.694429
 11
645.228027
 21
29.928471
  0
LINE
  8
0
  6
CONTINUOUS
 10
649.113831
 20
58.300110
 11
646.328674
 21
57.492390
  0
LINE
  8
0
  6
CONTINUOUS
 10
656.132080
 20
107.290619
 11
655.592651
 21
107.131935
  0
LINE
  8
0
  6
CONTINUOUS
 10
656.132080
 20
187.401886
 11
646.310425
 21
190.290604
  0
LINE
  8
0
  6
CONTINUOUS
 10
555.295654
 20
179.846252
 11
639.973877
 21
179.846252
  0
ARC
  8
0
  6
CONTINUOUS
 10
540.721252
 20
182.605087
 40
5.000000
 50
106.389900
 51
180.000000
  0
ARC
  8
0
  6
CONTINUOUS
 10
654.721252
 20
182.605057
 40
5.000000
 50
0.000000
 51
73.610527
  0
ARC
  8
0
  6
CONTINUOUS
 10
540.721252
 20
112.087479
 40
5.000000
 50
180.000000
 51
253.610794
  0
ARC
  8
0
  6
CONTINUOUS
 10
654.721252
 20
112.087433
 40
5.000000
 50
-73.610321
 51
0.000000
  0
ARC
  8
0
  6
CONTINUOUS
 10
647.721252
 20
63.102249
 40
5.000000
 50
-73.827698
 51
0.000000
  0
ARC
  8
0
  6
CONTINUOUS
 10
547.721252
 20
63.102291
 40
5.000000
 50
180.000000
 51
253.828201
  0
LINE
  8
0
  6
CONTINUOUS
 10
552.721252
 20
195.087448
 11
552.721252
 21
7.346250
  0
ARC
  8
0
  6
CONTINUOUS
 10
547.721252
 20
195.087433
 40
5.000000
 50
-73.610229
 51
0.000000
  0
ARC
  8
0
  6
CONTINUOUS
 10
538.721252
 20
103.294464
 40
4.000000
 50
0.000000
 51
73.610649
  0
ARC
  8
0
  6
CONTINUOUS
 10
547.721252
 20
52.690231
 40
5.000000
 50
0.000000
 51
73.827919
  0
ARC
  8
0
  6
CONTINUOUS
 10
647.721252
 20
52.690269
 40
5.000000
 50
106.172501
 51
180.000000
  0
ARC
  8
0
  6
CONTINUOUS
 10
656.721252
 20
103.294495
 40
4.000000
 50
106.389999
 51
180.000000
  0
ARC
  8
0
  6
CONTINUOUS
 10
647.721252
 20
195.087463
 40
5.000000
 50
180.000000
 51
253.610794
  0
ARC
  8
0
  6
CONTINUOUS
 10
549.721252
 20
32.887630
 40
3.000000
 50
-80.537483
 51
0.000000
  0
ARC
  8
0
  6
CONTINUOUS
 10
548.721252
 20
29.346210
 40
4.000000
 50
-90.000000
 51
0.000000
  0
ARC
  8
0
  6
CONTINUOUS
 10
525.221252
 20
22.846270
 40
2.500000
 50
90.000000
 51
180.000000
  0
LINE
  8
0
  6
CONTINUOUS
 10
567.721252
 20
7.346250
 11
569.221252
 21
8.846250
  0
LINE
  8
0
  6
CONTINUOUS
 10
627.721252
 20
7.346250
 11
626.221252
 21
8.846250
  0
ARC
  8
0
  6
CONTINUOUS
 10
645.721252
 20
32.887669
 40
3.000000
 50
180.000000
 51
260.537903
  0
ARC
  8
0
  6
CONTINUOUS
 10
646.721252
 20
29.346251
 40
4.000000
 50
180.000000
 51
270.000000
  0
ARC
  8
0
  6
CONTINUOUS
 10
670.221252
 20
22.846251
 40
2.500000
 50
0.000000
 51
90.000000
  0
LINE
  8
0
  6
CONTINUOUS
 10
717.721252
 20
131.346252
 11
717.721252
 21
163.346252
  0
LINE
  8
0
  6
CONTINUOUS
 10
662.721252
 20
163.346252
 11
717.721252
 21
163.346252
  0
LINE
  8
0
  6
CONTINUOUS
 10
662.721252
 20
131.346252
 11
717.721252
 21
131.346252
  0
LINE
  8
0
  6
CONTINUOUS
 10
662.721252
 20
164.846252
 11
662.721252
 21
129.846252
  0
LINE
  8
0
  6
CONTINUOUS
 10
659.721252
 20
164.846252
 11
662.721252
 21
164.846252
  0
LINE
  8
0
  6
CONTINUOUS
 10
659.721252
 20
129.846252
 11
662.721252
 21
129.846252
  0
ARC
  8
0
  6
CONTINUOUS
 10
672.721252
 20
147.346252
 40
5.000000
 50
90.000000
 51
270.000000
  0
LINE
  8
0
  6
CONTINUOUS
 10
672.721252
 20
152.346252
 11
717.721252
 21
152.346252
  0
LINE
  8
0
  6
CONTINUOUS
 10
672.721252
 20
142.346252
 11
717.721252
 21
142.346252
  0
LINE
  8
0
  6
CONTINUOUS
 10
477.721252
 20
131.346252
 11
477.721252
 21
163.346252
  0
LINE
  8
0
  6
CONTINUOUS
 10
532.721252
 20
163.346252
 11
477.721252
 21
163.346252
  0
LINE
  8
0
  6
CONTINUOUS
 10
532.721252
 20
131.346252
 11
477.721252
 21
131.346252
  0
LINE
  8
0
  6
CONTINUOUS
 10
532.721252
 20
164.846252
 11
532.721252
 21
129.846252
  0
LINE
  8
0
  6
CONTINUOUS
 10
535.721252
 20
164.846252
 11
532.721252
 21
164.846252
  0
LINE
  8
0
  6
CONTINUOUS
 10
535.721252
 20
129.846252
 11
532.721252
 21
129.846252
  0
ARC
  8
0
  6
CONTINUOUS
 10
522.721252
 20
147.346252
 40
5.000000
 50
-90.000000
 51
90.000000
  0
LINE
  8
0
  6
CONTINUOUS
 10
522.721252
 20
152.346252
 11
477.721252
 21
152.346252
  0
LINE
  8
0
  6
CONTINUOUS
 10
522.721252
 20
142.346252
 11
477.721252
 21
142.346252
  0
ARC
  8
0
  6
CONTINUOUS
 10
525.221252
 20
23.228451
 40
2.500000
 50
99.462753
 51
180.000000
  0
ARC
  8
0
  6
CONTINUOUS
 10
670.221252
 20
23.228430
 40
2.500000
 50
0.000000
 51
80.537682
  0
LINE
  8
0
  6
CONTINUOUS
 10
228.154877
 20
166.346252
 11
228.154877
 21
38.346249
  0
ARC
  8
0
  6
CONTINUOUS
 10
597.721252
 20
102.346252
 40
64.000000
 50
165.638489
 51
210.753525
  0
ARC
  8
0
  6
CONTINUOUS
 10
597.721252
 20
102.346252
 40
64.000000
 50
-30.753519
 51
14.361512
  0
ARC
  8
0
  6
CONTINUOUS
 10
556.709045
 20
61.334030
 40
8.000000
 50
211.001404
 51
233.216995
  0
ARC
  8
0
  6
CONTINUOUS
 10
550.721252
 20
53.324909
 40
2.000000
 50
30.947910
 51
53.217121
  0
ARC
  8
0
  6
CONTINUOUS
 10
638.733459
 20
61.334030
 40
8.000000
 50
-53.216999
 51
-31.001400
  0
ARC
  8
0
  6
CONTINUOUS
 10
644.721252
 20
53.324909
 40
2.000000
 50
126.782883
 51
149.052094
  0
LINE
  8
0
  6
CENTER
 10
-16.520000
 20
89.346252
 11
273.041260
 21
89.346252
  0
LINE
  8
0
  6
CENTER
 10
137.981567
 20
102.346252
 11
273.041260
 21
102.346252
  0
LINE
  8
0
  6
CONTINUOUS
 10
219.654877
 20
343.404175
 11
219.654877
 21
467.404175
  0
LINE
  8
0
  6
CONTINUOUS
 10
173.654877
 20
450.404175
 11
217.218506
 21
451.925446
  0
LINE
  8
0
  6
CONTINUOUS
 10
173.654877
 20
360.404175
 11
217.218506
 21
358.882904
  0
LINE
  8
0
  6
CONTINUOUS
 10
173.654877
 20
454.416168
 11
173.654877
 21
356.392181
  0
LINE
  8
0
  6
CONTINUOUS
 10
221.654877
 20
469.404175
 11
228.154877
 21
469.404175
  0
LINE
  8
0
  6
CONTINUOUS
 10
221.654877
 20
341.404175
 11
228.154877
 21
341.404175
  0
LINE
  8
0
  6
CONTINUOUS
 10
212.511887
 20
429.404175
 11
219.626862
 21
429.404175
  0
LINE
  8
0
  6
CONTINUOUS
 10
213.117035
 20
381.404175
 11
219.626862
 21
381.404175
  0
LINE
  8
0
  6
CONTINUOUS
 10
212.511887
 20
427.199677
 11
212.511887
 21
383.487091
  0
LINE
  8
0
  6
CONTINUOUS
 10
164.654877
 20
448.404175
 11
164.654877
 21
434.404175
  0
LINE
  8
0
  6
CONTINUOUS
 10
54.654881
 20
450.404175
 11
173.654877
 21
450.404175
  0
LINE
  8
0
  6
CONTINUOUS
 10
54.654881
 20
360.404175
 11
173.654877
 21
360.404175
  0
LINE
  8
0
  6
CONTINUOUS
 10
54.654881
 20
434.404175
 11
164.654877
 21
434.404175
  0
LINE
  8
0
  6
CONTINUOUS
 10
54.654881
 20
376.404175
 11
164.654877
 21
376.404175
  0
ARC
  8
0
  6
CONTINUOUS
 10
166.654877
 20
448.404205
 40
2.000000
 50
90.000000
 51
180.000000
  0
ARC
  8
0
  6
CONTINUOUS
 10
166.654877
 20
362.404175
 40
2.000000
 50
180.000000
 51
270.000000
  0
LINE
  8
0
  6
CONTINUOUS
 10
173.654877
 20
450.404175
 11
173.654877
 21
360.404175
  0
ARC
  8
0
  6
CONTINUOUS
 10
221.654877
 20
467.404175
 40
2.000000
 50
90.000000
 51
180.000000
  0
ARC
  8
0
  6
CONTINUOUS
 10
221.654877
 20
343.404175
 40
2.000000
 50
180.000000
 51
270.000000
  0
ARC
  8
0
  6
CONTINUOUS
 10
217.131256
 20
454.423920
 40
2.500000
 50
272.000000
 51
359.895721
  0
ARC
  8
0
  6
CONTINUOUS
 10
217.131256
 20
356.384430
 40
2.500000
 50
0.104292
 51
88.000000
  0
LINE
  8
0
  6
CONTINUOUS
 10
219.654877
 20
452.010529
 11
219.626862
 21
452.009552
  0
LINE
  8
0
  6
CONTINUOUS
 10
174.154572
 20
454.933624
 11
219.654877
 21
456.522522
  0
LINE
  8
0
  6
CONTINUOUS
 10
173.654877
 20
454.416168
 11
174.154572
 21
454.933624
  0
LINE
  8
0
  6
CONTINUOUS
 10
174.154572
 20
355.874725
 11
219.654877
 21
354.285828
  0
LINE
  8
0
  6
CONTINUOUS
 10
173.654877
 20
356.392181
 11
174.154572
 21
355.874725
  0
LINE
  8
0
  6
CONTINUOUS
 10
164.654877
 20
132.346252
 11
164.654877
 21
46.346230
  0
LINE
  8
0
  6
CONTINUOUS
 10
54.654881
 20
134.346252
 11
173.654877
 21
134.346252
  0
LINE
  8
0
  6
CONTINUOUS
 10
54.654881
 20
44.346249
 11
173.654877
 21
44.346249
  0
LINE
  8
0
  6
CONTINUOUS
 10
54.654881
 20
123.755547
 11
163.617203
 21
123.755547
  0
LINE
  8
0
  6
CONTINUOUS
 10
54.654881
 20
54.936951
 11
163.617203
 21
54.936951
  0
ARC
  8
0
  6
CONTINUOUS
 10
166.654877
 20
132.346268
 40
2.000000
 50
90.000000
 51
180.000000
  0
ARC
  8
0
  6
CONTINUOUS
 10
166.654877
 20
46.346249
 40
2.000000
 50
180.000000
 51
270.000000
  0
LINE
  8
0
  6
CONTINUOUS
 10
221.654877
 20
166.346359
 11
228.154877
 21
166.346359
  0
LINE
  8
0
  6
CONTINUOUS
 10
221.654877
 20
38.346153
 11
228.154877
 21
38.346153
  0
LINE
  8
0
  6
CONTINUOUS
 10
173.654877
 20
134.346252
 11
219.654877
 21
135.952606
  0
LINE
  8
0
  6
CONTINUOUS
 10
228.154877
 20
42.443069
 11
173.654877
 21
44.346249
  0
ARC
  8
0
  6
CONTINUOUS
 10
221.654907
 20
164.346375
 40
2.000000
 50
90.000000
 51
180.000000
  0
ARC
  8
0
  6
CONTINUOUS
 10
221.654877
 20
40.346153
 40
2.000000
 50
180.260773
 51
270.000000
  0
LINE
  8
0
  6
CONTINUOUS
 10
173.654877
 20
134.346252
 11
173.654877
 21
44.346249
  0
LINE
  8
0
  6
CONTINUOUS
 10
218.922653
 20
142.114014
 11
213.208130
 21
136.399506
  0
LINE
  8
0
  6
CONTINUOUS
 10
173.654877
 20
68.840248
 11
217.654877
 21
68.840248
  0
LINE
  8
0
  6
CONTINUOUS
 10
173.654877
 20
53.827251
 11
228.154877
 21
53.827251
  0
LINE
  8
0
  6
CONTINUOUS
 10
220.222855
 20
61.779251
 11
228.154877
 21
61.779251
  0
LINE
  8
0
  6
CONTINUOUS
 10
219.654877
 20
62.993984
 11
219.654877
 21
164.346375
  0
ARC
  8
0
  6
CONTINUOUS
 10
217.154922
 20
40.325672
 40
2.500000
 50
0.260773
 51
88.000000
  0
ARC
  8
0
  6
CONTINUOUS
 10
217.154877
 20
143.881790
 40
2.500000
 50
-45.000000
 51
0.000000
  0
ARC
  8
0
  6
CONTINUOUS
 10
211.440369
 20
138.167267
 40
2.500000
 50
272.000000
 51
315.000000
  0
LINE
  8
0
  6
CONTINUOUS
 10
45.154881
 20
450.404175
 11
54.654881
 21
450.404175
  0
LINE
  8
0
  6
CONTINUOUS
 10
54.654881
 20
434.404175
 11
45.154881
 21
434.404175
  0
LINE
  8
0
  6
CONTINUOUS
 10
45.154881
 20
360.404175
 11
54.654881
 21
360.404175
  0
LINE
  8
0
  6
CONTINUOUS
 10
54.654881
 20
360.404175
 11
54.654881
 21
380.404175
  0
LINE
  8
0
  6
CONTINUOUS
 10
54.654881
 20
376.404175
 11
45.154881
 21
376.404175
  0
LINE
  8
0
  6
CONTINUOUS
 10
54.654881
 20
430.404175
 11
54.654881
 21
450.404175
  0
LINE
  8
0
  6
CONTINUOUS
 10
45.154881
 20
452.404175
 11
45.154881
 21
358.404175
  0
LINE
  8
0
  6
CONTINUOUS
 10
45.154881
 20
434.404175
 11
1.179852
 21
434.404175
  0
LINE
  8
0
  6
CONTINUOUS
 10
45.154881
 20
376.404175
 11
1.179852
 21
376.404175
  0
LINE
  8
0
  6
CONTINUOUS
 10
2.654862
 20
452.404175
 11
45.154881
 21
452.404175
  0
LINE
  8
0
  6
CONTINUOUS
 10
2.654862
 20
358.404175
 11
45.154881
 21
358.404175
  0
ARC
  8
0
  6
CONTINUOUS
 10
2.654892
 20
447.404175
 40
5.000000
 50
90.000000
 51
180.000000
  0
ARC
  8
0
  6
CONTINUOUS
 10
2.654862
 20
363.404175
 40
5.000000
 50
180.000000
 51
270.000000
  0
LINE
  8
0
  6
CONTINUOUS
 10
-2.345108
 20
447.404175
 11
-2.345138
 21
363.404175
  0
LINE
  8
0
  6
CONTINUOUS
 10
45.154881
 20
134.346252
 11
54.654881
 21
134.346252
  0
LINE
  8
0
  6
CONTINUOUS
 10
54.654881
 20
123.755547
 11
45.154881
 21
123.755547
  0
LINE
  8
0
  6
CONTINUOUS
 10
45.154881
 20
44.346249
 11
54.654881
 21
44.346249
  0
LINE
  8
0
  6
CONTINUOUS
 10
54.654881
 20
54.936958
 11
45.154881
 21
54.936958
  0
LINE
  8
0
  6
CONTINUOUS
 10
45.154881
 20
136.346252
 11
45.154881
 21
42.346249
  0
LINE
  8
0
  6
CONTINUOUS
 10
45.154881
 20
118.346252
 11
1.179852
 21
118.346252
  0
LINE
  8
0
  6
CONTINUOUS
 10
45.154881
 20
60.346249
 11
1.179852
 21
60.346249
  0
LINE
  8
0
  6
CONTINUOUS
 10
2.654862
 20
136.346252
 11
45.154881
 21
136.346252
  0
LINE
  8
0
  6
CONTINUOUS
 10
2.654862
 20
42.346249
 11
45.154881
 21
42.346249
  0
ARC
  8
0
  6
CONTINUOUS
 10
2.654892
 20
131.346252
 40
5.000000
 50
90.000000
 51
180.000000
  0
ARC
  8
0
  6
CONTINUOUS
 10
2.654862
 20
47.346249
 40
5.000000
 50
180.000000
 51
270.000000
  0
LINE
  8
0
  6
CONTINUOUS
 10
-2.345108
 20
131.346252
 11
-2.345138
 21
47.346241
  0
LINE
  8
0
  6
CONTINUOUS
 10
54.654881
 20
44.346249
 11
54.654881
 21
134.346252
  0
LINE
  8
0
  6
CONTINUOUS
 10
45.654881
 20
382.404175
 11
45.654881
 21
428.404175
  0
LINE
  8
0
  6
CONTINUOUS
 10
47.654881
 20
430.404175
 11
45.654881
 21
428.404175
  0
LINE
  8
0
  6
CONTINUOUS
 10
47.654881
 20
430.404175
 11
93.654869
 21
430.404175
  0
LINE
  8
0
  6
CONTINUOUS
 10
88.154884
 20
425.904175
 11
88.154884
 21
430.404175
  0
ARC
  8
0
  6
CONTINUOUS
 10
91.154884
 20
425.904175
 40
3.000000
 50
180.000000
 51
270.000000
  0
LINE
  8
0
  6
CONTINUOUS
 10
91.154884
 20
422.904175
 11
95.654869
 21
422.904175
  0
CIRCLE
  8
0
  6
CONTINUOUS
 10
92.154884
 20
426.904175
 40
2.250000
  0
LINE
  8
0
  6
CONTINUOUS
 10
95.654877
 20
382.404175
 11
95.654869
 21
428.404175
  0
LINE
  8
0
  6
CONTINUOUS
 10
93.654869
 20
430.404175
 11
95.654869
 21
428.404175
  0
LINE
  8
0
  6
CONTINUOUS
 10
93.654877
 20
380.404175
 11
95.654877
 21
382.404175
  0
LINE
  8
0
  6
CONTINUOUS
 10
93.654877
 20
380.404175
 11
47.654881
 21
380.404175
  0
LINE
  8
0
  6
CONTINUOUS
 10
45.654881
 20
382.404175
 11
47.654881
 21
380.404175
  0
LINE
  8
0
  6
CONTINUOUS
 10
50.154881
 20
387.904175
 11
45.654892
 21
387.904175
  0
CIRCLE
  8
0
  6
CONTINUOUS
 10
49.154881
 20
383.904175
 40
2.250000
  0
ARC
  8
0
  6
CONTINUOUS
 10
50.154881
 20
384.904175
 40
3.000000
 50
0.000000
 51
90.000000
  0
LINE
  8
0
  6
CONTINUOUS
 10
53.154881
 20
384.904175
 11
53.154881
 21
380.404175
  0
LINE
  8
0
  6
CENTER
 10
70.654884
 20
372.938385
 11
70.654884
 21
437.070404
  0
LINE
  8
0
  6
CONTINUOUS
 10
46.654888
 20
387.904175
 11
46.654888
 21
422.904175
  0
LINE
  8
0
  6
CONTINUOUS
 10
88.154884
 20
429.404175
 11
53.154903
 21
429.404175
  0
LINE
  8
0
  6
CONTINUOUS
 10
94.654877
 20
422.904175
 11
94.654877
 21
387.904175
  0
LINE
  8
0
  6
CONTINUOUS
 10
53.154881
 20
381.404175
 11
88.154861
 21
381.404175
  0
LINE
  8
0
  6
CONTINUOUS
 10
50.154903
 20
422.904175
 11
45.654903
 21
422.904175
  0
ARC
  8
0
  6
CONTINUOUS
 10
50.154903
 20
425.904175
 40
3.000000
 50
-90.000000
 51
0.000000
  0
LINE
  8
0
  6
CONTINUOUS
 10
53.154903
 20
425.904175
 11
53.154903
 21
430.404175
  0
CIRCLE
  8
0
  6
CONTINUOUS
 10
49.154903
 20
426.904175
 40
2.250000
  0
LINE
  8
0
  6
CONTINUOUS
 10
91.154861
 20
387.904175
 11
95.654861
 21
387.904175
  0
ARC
  8
0
  6
CONTINUOUS
 10
91.154861
 20
384.904175
 40
3.000000
 50
90.000000
 51
180.000000
  0
LINE
  8
0
  6
CONTINUOUS
 10
88.154861
 20
384.904175
 11
88.154861
 21
380.404175
  0
CIRCLE
  8
0
  6
CONTINUOUS
 10
92.154861
 20
383.904175
 40
2.250000
  0
LINE
  8
0
  6
CONTINUOUS
 10
47.154881
 20
135.846252
 11
93.654884
 21
135.846252
  0
LINE
  8
0
  6
CONTINUOUS
 10
95.654861
 20
179.846252
 11
95.654884
 21
137.846252
  0
LINE
  8
0
  6
CONTINUOUS
 10
45.654881
 20
179.846252
 11
45.654881
 21
137.846252
  0
LINE
  8
0
  6
CONTINUOUS
 10
45.654881
 20
147.846252
 11
95.654884
 21
147.846252
  0
LINE
  8
0
  6
CONTINUOUS
 10
93.654884
 20
135.846252
 11
95.654884
 21
137.846252
  0
LINE
  8
0
  6
CONTINUOUS
 10
45.654881
 20
137.846252
 11
47.654881
 21
135.846252
  0
LINE
  8
0
  6
CONTINUOUS
 10
45.654881
 20
137.846252
 11
95.654884
 21
137.846252
  0
LINE
  8
0
  6
CONTINUOUS
 10
45.654881
 20
148.846252
 11
95.654869
 21
148.846252
  0
LINE
  8
0
  6
CONTINUOUS
 10
46.654881
 20
180.846252
 11
94.654861
 21
180.846252
  0
LINE
  8
0
  6
CONTINUOUS
 10
94.654861
 20
180.846252
 11
95.654861
 21
179.846252
  0
LINE
  8
0
  6
CONTINUOUS
 10
46.654881
 20
180.846252
 11
45.654881
 21
179.846252
  0
LINE
  8
0
  6
CONTINUOUS
 10
45.654881
 20
179.846252
 11
95.654861
 21
179.846252
  0
LINE
  8
0
  6
CENTER
 10
70.654884
 20
129.456741
 11
70.654884
 21
186.156738
  0
LINE
  8
0
  6
CENTER
 10
43.279881
 20
163.846252
 11
47.904881
 21
163.846252
  0
LINE
  8
0
  6
CONTINUOUS
 10
47.154881
 20
135.846252
 11
47.154881
 21
134.346252
  0
LINE
  8
0
  6
CONTINUOUS
 10
93.154884
 20
135.846252
 11
93.154884
 21
134.346252
  0
LINE
  8
0
  6
CONTINUOUS
 10
44.779881
 20
174.346252
 11
46.779881
 21
174.346252
  0
LINE
  8
0
  6
CONTINUOUS
 10
44.779881
 20
153.346252
 11
46.779881
 21
153.346252
  0
LINE
  8
0
  6
CONTINUOUS
 10
164.654877
 20
376.404175
 11
164.654877
 21
362.404175
  0
TEXT
  8
0
 10
-21.000000
 20
-7.000000
 40
4.000000
 41
1.000000
  1
HLM-32T-1200~1800-S60WK
 50
0.000000
  0
ENDSEC
  0
EOF
