  0
SECTION
  2
HEADER
  9
$CLAYER
  8
1
  9
$LTSCALE
 40
3.0
  0
ENDSEC
  0
SECTION
  2
TABLES
  0
TABLE
  2
LTYPE
 70
     4
  0
LTYPE
  2
CONTINUOUS
  3
solid line
 70
    64
 72
    65
 73
     0
 40
0.0
  0
LTYPE
  2
DASHED
  3
__ __ __ __ __ __ __ __ __ __ __ __ __ __ __
 70
    64
 72
    65
 73
     2
 40
0.75
 49
0.5
 49
-0.25
  0
LTYPE
  2
CENTER
  3
____ _ ____ _ ____ _ ____ _ ____ _ ____ _ ____
 70
    64
 72
    65
 73
     4
 40
2.0
 49
1.25
 49
-0.25
 49
0.25
 49
-0.25
  0
LTYPE
  2
PHANTOM
  3
_____ _ _ _____ _ _ _____ _ _ _____ _ _ ____
 70
    64
 72
    65
 73
     6
 40
2.5
 49
1.25
 49
-0.25
 49
0.25
 49
-0.25
 49
0.25
 49
-0.25
  0
ENDTAB
  0
TABLE
  2
LAYER
 70
     1
  0
LAYER
  2
0
 70
    64
 62
     7
  6
CONTINUOUS
  0
ENDTAB
  0
TABLE
  2
STYLE
 70
     1
  0
STYLE
  2
STANDARD
 70
     0
 40
0.000000
 41
1.000000
 50
0.000000
 71
     0
 42
3.000000
  3
txt
  4
BIGFONT
  0
ENDTAB
  0
ENDSEC
  0
SECTION
  2
BLOCKS
  0
ENDSEC
  0
SECTION
  2
ENTITIES
  0
LINE
  8
0
  6
CENTER
 10
317.863617
 20
538.592957
 11
317.863617
 21
285.092926
  0
LINE
  8
0
  6
CONTINUOUS
 10
393.863831
 20
410.530426
 11
393.078369
 21
455.530426
  0
LINE
  8
0
  6
CONTINUOUS
 10
259.413574
 20
485.530426
 11
301.863617
 21
485.530426
  0
LINE
  8
0
  6
CONTINUOUS
 10
383.807220
 20
480.331635
 11
393.078369
 21
455.530426
  0
ARC
  8
0
  6
CONTINUOUS
 10
376.313690
 20
477.530426
 40
8.000000
 50
20.496618
 51
90.000000
  0
LINE
  8
0
  6
CONTINUOUS
 10
393.863831
 20
410.530426
 11
393.078369
 21
365.530426
  0
LINE
  8
0
  6
CONTINUOUS
 10
259.413574
 20
335.530426
 11
301.863617
 21
335.530426
  0
LINE
  8
0
  6
CONTINUOUS
 10
383.807220
 20
340.729218
 11
393.078369
 21
365.530426
  0
ARC
  8
0
  6
CONTINUOUS
 10
376.313690
 20
343.530426
 40
8.000000
 50
-90.000000
 51
-20.496618
  0
LINE
  8
0
  6
CONTINUOUS
 10
251.920029
 20
480.331635
 11
242.865250
 21
456.109161
  0
ARC
  8
0
  6
CONTINUOUS
 10
259.413574
 20
477.530426
 40
8.000000
 50
90.000000
 51
159.503387
  0
LINE
  8
0
  6
CONTINUOUS
 10
251.920029
 20
340.729218
 11
242.865250
 21
364.951721
  0
ARC
  8
0
  6
CONTINUOUS
 10
259.413574
 20
343.530426
 40
8.000000
 50
200.496613
 51
270.000000
  0
LINE
  8
0
  6
CONTINUOUS
 10
245.200272
 20
455.530426
 11
390.130249
 21
455.530426
  0
LINE
  8
0
  6
CONTINUOUS
 10
390.130249
 20
365.530426
 11
245.200272
 21
365.530426
  0
LINE
  8
0
  6
CONTINUOUS
 10
317.863617
 20
472.530426
 11
353.122437
 21
472.530426
  0
ARC
  8
0
  6
CONTINUOUS
 10
390.130249
 20
452.530426
 40
3.000000
 50
1.000000
 51
90.000000
  0
ARC
  8
0
  6
CONTINUOUS
 10
390.130249
 20
368.530426
 40
3.000000
 50
270.000000
 51
359.000000
  0
LINE
  8
0
  6
CONTINUOUS
 10
346.863617
 20
452.530426
 11
346.863617
 21
368.530426
  0
LINE
  8
0
  6
CONTINUOUS
 10
288.863617
 20
452.530426
 11
288.863617
 21
368.530426
  0
LINE
  8
0
  6
CONTINUOUS
 10
229.863632
 20
474.530426
 11
229.863632
 21
346.530426
  0
LINE
  8
0
  6
CONTINUOUS
 10
232.435959
 20
474.530426
 11
229.863632
 21
474.530426
  0
LINE
  8
0
  6
CONTINUOUS
 10
357.919281
 20
468.941254
 11
358.922455
 21
465.530426
  0
ARC
  8
0
  6
CONTINUOUS
 10
353.122437
 20
467.530426
 40
5.000000
 50
16.389540
 51
90.000000
  0
LINE
  8
0
  6
CONTINUOUS
 10
373.409760
 20
461.923065
 11
374.217499
 21
459.137817
  0
LINE
  8
0
  6
CONTINUOUS
 10
368.607635
 20
465.530426
 11
358.922455
 21
465.530426
  0
LINE
  8
0
  6
CONTINUOUS
 10
317.863617
 20
472.530426
 11
282.604828
 21
472.530426
  0
LINE
  8
0
  6
CONTINUOUS
 10
317.863617
 20
348.530426
 11
353.122437
 21
348.530426
  0
LINE
  8
0
  6
CONTINUOUS
 10
317.863617
 20
348.530426
 11
282.604828
 21
348.530426
  0
LINE
  8
0
  6
CONTINUOUS
 10
336.863617
 20
530.530457
 11
301.863617
 21
530.530457
  0
LINE
  8
0
  6
CONTINUOUS
 10
301.863617
 20
475.530426
 11
301.863617
 21
530.530457
  0
LINE
  8
0
  6
CONTINUOUS
 10
333.863617
 20
475.530426
 11
333.863617
 21
480.530426
  0
LINE
  8
0
  6
CONTINUOUS
 10
300.363617
 20
475.530426
 11
335.363617
 21
475.530426
  0
LINE
  8
0
  6
CONTINUOUS
 10
300.363617
 20
472.530426
 11
300.363617
 21
475.530426
  0
LINE
  8
0
  6
CONTINUOUS
 10
335.363617
 20
472.530426
 11
335.363617
 21
475.530426
  0
LINE
  8
0
  6
CONTINUOUS
 10
336.863617
 20
485.530426
 11
376.313690
 21
485.530426
  0
LINE
  8
0
  6
CONTINUOUS
 10
336.863617
 20
530.530457
 11
336.863617
 21
480.530426
  0
LINE
  8
0
  6
CONTINUOUS
 10
333.062317
 20
480.530426
 11
336.863617
 21
480.530426
  0
LINE
  8
0
  6
CONTINUOUS
 10
333.062317
 20
480.530426
 11
333.062317
 21
530.530457
  0
LINE
  8
0
  6
CONTINUOUS
 10
336.863617
 20
290.530426
 11
301.863617
 21
290.530426
  0
LINE
  8
0
  6
CONTINUOUS
 10
301.863617
 20
345.530426
 11
301.863617
 21
290.530426
  0
LINE
  8
0
  6
CONTINUOUS
 10
333.863617
 20
345.530426
 11
333.863617
 21
340.530426
  0
LINE
  8
0
  6
CONTINUOUS
 10
300.363617
 20
345.530426
 11
335.363617
 21
345.530426
  0
LINE
  8
0
  6
CONTINUOUS
 10
300.363617
 20
348.530426
 11
300.363617
 21
345.530426
  0
LINE
  8
0
  6
CONTINUOUS
 10
335.363617
 20
348.530426
 11
335.363617
 21
345.530426
  0
LINE
  8
0
  6
CONTINUOUS
 10
336.863617
 20
290.530426
 11
336.863617
 21
340.530426
  0
LINE
  8
0
  6
CONTINUOUS
 10
333.062317
 20
340.530426
 11
336.863617
 21
340.530426
  0
LINE
  8
0
  6
CONTINUOUS
 10
333.062317
 20
340.530426
 11
333.062317
 21
290.530426
  0
LINE
  8
0
  6
CONTINUOUS
 10
336.863617
 20
335.530426
 11
376.313690
 21
335.530426
  0
LINE
  8
0
  6
CENTER
 10
355.487305
 20
470.530426
 11
374.424805
 21
470.530426
  0
LINE
  8
0
  6
CENTER
 10
365.363617
 20
461.378082
 11
365.363617
 21
480.878082
  0
ARC
  8
0
  6
CONTINUOUS
 10
365.363617
 20
470.530426
 40
6.500000
 50
-51.240688
 51
230.284866
  0
ARC
  8
0
  6
CONTINUOUS
 10
270.363617
 20
470.530426
 40
6.500000
 50
-50.284863
 51
231.240692
  0
LINE
  8
0
  6
CENTER
 10
270.363617
 20
461.378082
 11
270.363617
 21
480.878082
  0
LINE
  8
0
  6
CENTER
 10
280.239960
 20
470.530426
 11
261.302460
 21
470.530426
  0
LINE
  8
0
  6
CENTER
 10
-20.057501
 20
410.530426
 11
405.284668
 21
410.530426
  0
LINE
  8
0
  6
CONTINUOUS
 10
237.265594
 20
470.824524
 11
240.370636
 21
459.236328
  0
ARC
  8
0
  6
CONTINUOUS
 10
245.200272
 20
460.530426
 40
5.000000
 50
195.000000
 51
270.000000
  0
ARC
  8
0
  6
CONTINUOUS
 10
232.435959
 20
469.530426
 40
5.000000
 50
15.000000
 51
90.000000
  0
LINE
  8
0
  6
CONTINUOUS
 10
232.435959
 20
346.530426
 11
229.863632
 21
346.530426
  0
LINE
  8
0
  6
CONTINUOUS
 10
237.265594
 20
350.236328
 11
240.370636
 21
361.824524
  0
ARC
  8
0
  6
CONTINUOUS
 10
232.435959
 20
351.530426
 40
5.000000
 50
-90.000000
 51
-15.000000
  0
ARC
  8
0
  6
CONTINUOUS
 10
245.200272
 20
360.530426
 40
5.000000
 50
-270.000000
 51
-195.000000
  0
LINE
  8
0
  6
CONTINUOUS
 10
241.863434
 20
410.530426
 11
242.597458
 21
452.582794
  0
LINE
  8
0
  6
CONTINUOUS
 10
241.863434
 20
410.530426
 11
242.597458
 21
368.478058
  0
ARC
  8
0
  6
CONTINUOUS
 10
245.597000
 20
452.530426
 40
3.000000
 50
90.000000
 51
179.000000
  0
ARC
  8
0
  6
CONTINUOUS
 10
245.597000
 20
368.530426
 40
3.000000
 50
-179.000000
 51
-90.000000
  0
ARC
  8
0
  6
CONTINUOUS
 10
368.607635
 20
460.530426
 40
5.000000
 50
16.172159
 51
90.000000
  0
ARC
  8
0
  6
CONTINUOUS
 10
379.019623
 20
460.530426
 40
5.000000
 50
196.172165
 51
270.000000
  0
LINE
  8
0
  6
CONTINUOUS
 10
375.263641
 20
455.530426
 11
375.266846
 21
455.519348
  0
ARC
  8
0
  6
CONTINUOUS
 10
282.604828
 20
467.530426
 40
5.000000
 50
90.000000
 51
163.610458
  0
LINE
  8
0
  6
CONTINUOUS
 10
277.807983
 20
468.941254
 11
276.804810
 21
465.530426
  0
LINE
  8
0
  6
CONTINUOUS
 10
262.317505
 20
461.923065
 11
261.509766
 21
459.137817
  0
LINE
  8
0
  6
CONTINUOUS
 10
267.119629
 20
465.530426
 11
276.804810
 21
465.530426
  0
ARC
  8
0
  6
CONTINUOUS
 10
267.119629
 20
460.530426
 40
5.000000
 50
90.000000
 51
163.827835
  0
ARC
  8
0
  6
CONTINUOUS
 10
256.707611
 20
460.530426
 40
5.000000
 50
-90.000000
 51
-16.172159
  0
LINE
  8
0
  6
CONTINUOUS
 10
260.463623
 20
455.530426
 11
260.460419
 21
455.519348
  0
ARC
  8
0
  6
CONTINUOUS
 10
270.363617
 20
350.530426
 40
6.500000
 50
-231.240692
 51
50.284863
  0
LINE
  8
0
  6
CENTER
 10
280.239960
 20
350.530426
 11
261.302460
 21
350.530426
  0
ARC
  8
0
  6
CONTINUOUS
 10
282.604828
 20
353.530426
 40
5.000000
 50
196.389542
 51
270.000000
  0
LINE
  8
0
  6
CONTINUOUS
 10
277.807983
 20
352.119598
 11
276.804810
 21
355.530426
  0
LINE
  8
0
  6
CONTINUOUS
 10
262.317505
 20
359.137817
 11
261.509766
 21
361.923065
  0
LINE
  8
0
  6
CONTINUOUS
 10
267.119629
 20
355.530426
 11
276.804810
 21
355.530426
  0
ARC
  8
0
  6
CONTINUOUS
 10
267.119629
 20
360.530426
 40
5.000000
 50
-163.827835
 51
-90.000000
  0
ARC
  8
0
  6
CONTINUOUS
 10
256.707611
 20
360.530426
 40
5.000000
 50
16.172159
 51
90.000000
  0
LINE
  8
0
  6
CONTINUOUS
 10
260.463623
 20
365.530426
 11
260.460419
 21
365.541504
  0
LINE
  8
0
  6
CENTER
 10
270.363617
 20
359.682770
 11
270.363617
 21
340.182770
  0
LINE
  8
0
  6
CONTINUOUS
 10
357.919281
 20
352.119598
 11
358.922455
 21
355.530426
  0
ARC
  8
0
  6
CONTINUOUS
 10
353.122437
 20
353.530426
 40
5.000000
 50
-90.000000
 51
-16.389540
  0
LINE
  8
0
  6
CONTINUOUS
 10
373.409760
 20
359.137817
 11
374.217499
 21
361.923065
  0
LINE
  8
0
  6
CONTINUOUS
 10
368.607635
 20
355.530426
 11
358.922455
 21
355.530426
  0
LINE
  8
0
  6
CENTER
 10
355.487305
 20
350.530426
 11
374.424805
 21
350.530426
  0
LINE
  8
0
  6
CENTER
 10
365.363617
 20
359.682770
 11
365.363617
 21
340.182770
  0
ARC
  8
0
  6
CONTINUOUS
 10
365.363617
 20
350.530426
 40
6.500000
 50
-230.284866
 51
51.240688
  0
ARC
  8
0
  6
CONTINUOUS
 10
368.607635
 20
360.530426
 40
5.000000
 50
-90.000000
 51
-16.172159
  0
ARC
  8
0
  6
CONTINUOUS
 10
379.019623
 20
360.530426
 40
5.000000
 50
-270.000000
 51
-196.172165
  0
LINE
  8
0
  6
CONTINUOUS
 10
375.263641
 20
365.530426
 11
375.266846
 21
365.541504
  0
LINE
  8
0
  6
CENTER
 10
317.863617
 20
239.768677
 11
317.863617
 21
1.839620
  0
LINE
  8
0
  6
CENTER
 10
253.979034
 20
152.472504
 11
370.548645
 21
152.472504
  0
LINE
  8
0
  6
CENTER
 10
365.363617
 20
37.747940
 11
365.363617
 21
3.883200
  0
LINE
  8
0
  6
CENTER
 10
270.363617
 20
37.747940
 11
270.363617
 21
3.591260
  0
LINE
  8
0
  6
CONTINUOUS
 10
241.863632
 20
12.472500
 11
393.863617
 21
12.472500
  0
LINE
  8
0
  6
CONTINUOUS
 10
241.863632
 20
30.472500
 11
393.863617
 21
30.472500
  0
LINE
  8
0
  6
CONTINUOUS
 10
393.863617
 20
180.778061
 11
393.863617
 21
12.472500
  0
LINE
  8
0
  6
CONTINUOUS
 10
241.863632
 20
175.972504
 11
241.863632
 21
180.778061
  0
LINE
  8
0
  6
CONTINUOUS
 10
291.360229
 20
217.472504
 11
344.367035
 21
217.472504
  0
LINE
  8
0
  6
CONTINUOUS
 10
236.863632
 20
171.472504
 11
229.863632
 21
171.472504
  0
LINE
  8
0
  6
CONTINUOUS
 10
236.863632
 20
43.472500
 11
229.863632
 21
43.472500
  0
LINE
  8
0
  6
CONTINUOUS
 10
390.413635
 20
187.358124
 11
348.917023
 21
216.052567
  0
LINE
  8
0
  6
CONTINUOUS
 10
245.313599
 20
187.358124
 11
286.810242
 21
216.052567
  0
ARC
  8
0
  6
CONTINUOUS
 10
344.367035
 20
209.472504
 40
8.000000
 50
55.336689
 51
90.000000
  0
ARC
  8
0
  6
CONTINUOUS
 10
385.863617
 20
180.778015
 40
8.000000
 50
0.000000
 51
55.336739
  0
ARC
  8
0
  6
CONTINUOUS
 10
291.360229
 20
209.472504
 40
8.000000
 50
90.000000
 51
124.663696
  0
ARC
  8
0
  6
CONTINUOUS
 10
249.863632
 20
180.778107
 40
8.000000
 50
124.663803
 51
180.000000
  0
LINE
  8
0
  6
CONTINUOUS
 10
241.863632
 20
38.972500
 11
241.863632
 21
12.472500
  0
ARC
  8
0
  6
CONTINUOUS
 10
236.863617
 20
176.472504
 40
5.000000
 50
-90.000000
 51
0.000000
  0
LINE
  8
0
  6
CONTINUOUS
 10
241.863632
 20
38.972500
 11
241.863632
 21
175.972504
  0
ARC
  8
0
  6
CONTINUOUS
 10
236.863647
 20
38.472481
 40
5.000000
 50
0.000000
 51
90.000000
  0
LINE
  8
0
  6
DASHED
 10
263.863617
 20
30.472500
 11
263.863617
 21
12.472500
  0
LINE
  8
0
  6
DASHED
 10
276.863617
 20
30.472500
 11
276.863617
 21
12.472500
  0
LINE
  8
0
  6
DASHED
 10
358.863617
 20
30.472500
 11
358.863617
 21
12.472500
  0
LINE
  8
0
  6
DASHED
 10
371.863617
 20
30.472500
 11
371.863617
 21
12.472500
  0
CIRCLE
  8
0
  6
CONTINUOUS
 10
317.863617
 20
152.472504
 40
39.000000
  0
ARC
  8
0
  6
CONTINUOUS
 10
317.863617
 20
152.472504
 40
44.000000
 50
12.523240
 51
167.476898
  0
ARC
  8
0
  6
CONTINUOUS
 10
292.363617
 20
93.472504
 40
29.000000
 50
167.476898
 51
270.000000
  0
ARC
  8
0
  6
CONTINUOUS
 10
343.363617
 20
93.472504
 40
29.000000
 50
-90.000000
 51
12.523240
  0
ARC
  8
0
  6
CONTINUOUS
 10
292.363617
 20
93.472504
 40
31.900000
 50
167.476898
 51
270.000000
  0
ARC
  8
0
  6
CONTINUOUS
 10
343.363617
 20
93.472504
 40
31.900000
 50
-90.000000
 51
12.523240
  0
ARC
  8
0
  6
CONTINUOUS
 10
317.863617
 20
152.472504
 40
41.099998
 50
-192.523102
 51
12.523240
  0
LINE
  8
0
  6
CONTINUOUS
 10
261.222626
 20
100.389503
 11
274.910431
 21
162.013199
  0
LINE
  8
0
  6
CONTINUOUS
 10
264.053619
 20
99.760689
 11
277.741425
 21
161.384384
  0
LINE
  8
0
  6
CONTINUOUS
 10
292.363617
 20
61.572498
 11
343.363617
 21
61.572498
  0
LINE
  8
0
  6
CONTINUOUS
 10
343.363617
 20
64.472504
 11
292.363617
 21
64.472504
  0
LINE
  8
0
  6
CONTINUOUS
 10
360.816833
 20
162.013275
 11
374.504639
 21
100.389565
  0
LINE
  8
0
  6
CONTINUOUS
 10
357.985840
 20
161.384460
 11
371.673645
 21
99.760742
  0
LINE
  8
0
  6
CONTINUOUS
 10
305.636627
 20
76.472504
 11
300.696228
 21
76.472504
  0
LINE
  8
0
  6
CONTINUOUS
 10
308.363617
 20
84.747902
 11
308.363617
 21
76.472504
  0
LINE
  8
0
  6
CONTINUOUS
 10
313.113617
 20
87.753754
 11
313.113617
 21
90.722504
  0
LINE
  8
0
  6
CONTINUOUS
 10
322.613617
 20
87.753754
 11
322.613617
 21
90.722504
  0
LINE
  8
0
  6
CONTINUOUS
 10
316.935822
 20
88.978363
 11
316.935822
 21
78.031097
  0
LINE
  8
0
  6
CONTINUOUS
 10
318.717224
 20
88.978363
 11
318.717224
 21
78.031097
  0
LINE
  8
0
  6
CONTINUOUS
 10
328.068817
 20
88.978363
 11
328.068817
 21
77.956879
  0
LINE
  8
0
  6
CONTINUOUS
 10
329.701630
 20
83.133636
 11
329.701630
 21
77.956879
  0
LINE
  8
0
  6
CONTINUOUS
 10
306.109619
 20
88.829926
 11
301.532043
 21
88.829926
  0
LINE
  8
0
  6
CONTINUOUS
 10
301.532043
 20
88.829926
 11
300.459442
 21
87.499924
  0
LINE
  8
0
  6
CONTINUOUS
 10
300.588440
 20
90.722504
 11
298.863617
 21
88.514030
  0
LINE
  8
0
  6
CONTINUOUS
 10
300.459442
 20
79.290337
 11
301.549225
 21
78.142418
  0
LINE
  8
0
  6
CONTINUOUS
 10
298.863617
 20
78.321617
 11
300.696228
 21
76.472504
  0
LINE
  8
0
  6
CONTINUOUS
 10
298.863617
 20
88.514030
 11
298.863617
 21
78.321617
  0
LINE
  8
0
  6
CONTINUOUS
 10
300.459442
 20
87.499924
 11
300.459442
 21
79.290337
  0
LINE
  8
0
  6
CONTINUOUS
 10
306.990631
 20
87.978363
 11
306.091644
 21
88.829926
  0
LINE
  8
0
  6
CONTINUOUS
 10
306.976440
 20
90.722504
 11
308.363617
 21
89.182915
  0
LINE
  8
0
  6
CONTINUOUS
 10
306.990631
 20
87.753754
 11
308.363617
 21
87.753754
  0
LINE
  8
0
  6
CONTINUOUS
 10
300.588440
 20
90.722504
 11
306.976440
 21
90.722504
  0
LINE
  8
0
  6
CONTINUOUS
 10
304.504242
 20
84.747902
 11
308.363617
 21
84.747902
  0
LINE
  8
0
  6
CONTINUOUS
 10
306.990631
 20
83.189301
 11
304.504242
 21
83.189301
  0
LINE
  8
0
  6
CONTINUOUS
 10
304.021820
 20
78.142418
 11
301.549225
 21
78.142418
  0
LINE
  8
0
  6
CONTINUOUS
 10
306.990631
 20
81.704918
 11
306.990631
 21
82.892418
  0
ARC
  8
0
  6
CONTINUOUS
 10
304.021820
 20
81.111160
 40
2.968750
 50
-89.999786
 51
0.000109
  0
LINE
  8
0
  6
CONTINUOUS
 10
306.990631
 20
77.608421
 11
306.990631
 21
76.472504
  0
LINE
  8
0
  6
CONTINUOUS
 10
308.363617
 20
89.182915
 11
308.363617
 21
87.753754
  0
LINE
  8
0
  6
CONTINUOUS
 10
306.990631
 20
83.189301
 11
306.990631
 21
81.111160
  0
LINE
  8
0
  6
CONTINUOUS
 10
304.504242
 20
84.747902
 11
304.504242
 21
83.189301
  0
LINE
  8
0
  6
CONTINUOUS
 10
306.990631
 20
76.472504
 11
308.363617
 21
76.472504
  0
LINE
  8
0
  6
CONTINUOUS
 10
306.990631
 20
77.608421
 11
305.636627
 21
76.472504
  0
LINE
  8
0
  6
CONTINUOUS
 10
318.717224
 20
78.031097
 11
319.310822
 21
78.031097
  0
LINE
  8
0
  6
CONTINUOUS
 10
316.230835
 20
78.031097
 11
316.230835
 21
76.472504
  0
LINE
  8
0
  6
CONTINUOUS
 10
319.310822
 20
78.031097
 11
319.310822
 21
76.472504
  0
LINE
  8
0
  6
CONTINUOUS
 10
321.622620
 20
87.753754
 11
322.613617
 21
87.753754
  0
LINE
  8
0
  6
CONTINUOUS
 10
313.113617
 20
87.753754
 11
314.168243
 21
87.753754
  0
LINE
  8
0
  6
CONTINUOUS
 10
313.113617
 20
90.722504
 11
322.613617
 21
90.722504
  0
LINE
  8
0
  6
CONTINUOUS
 10
316.230835
 20
76.472504
 11
319.310822
 21
76.472504
  0
LINE
  8
0
  6
CONTINUOUS
 10
316.230835
 20
78.031097
 11
316.935822
 21
78.031097
  0
ARC
  8
0
  6
CONTINUOUS
 10
333.059845
 20
86.918777
 40
3.803712
 50
-73.981873
 51
90.003510
  0
ARC
  8
0
  6
CONTINUOUS
 10
333.059845
 20
86.918777
 40
2.320524
 50
-82.585274
 51
62.411850
  0
LINE
  8
0
  6
CONTINUOUS
 10
327.363617
 20
90.722504
 11
333.059845
 21
90.722504
  0
LINE
  8
0
  6
CONTINUOUS
 10
333.359436
 20
84.617661
 11
329.701630
 21
84.617661
  0
LINE
  8
0
  6
CONTINUOUS
 10
327.363617
 20
90.722504
 11
327.363617
 21
88.978363
  0
LINE
  8
0
  6
CONTINUOUS
 10
329.701630
 20
88.978363
 11
329.701630
 21
84.617661
  0
LINE
  8
0
  6
CONTINUOUS
 10
334.109436
 20
83.262756
 11
336.463837
 21
77.956879
  0
LINE
  8
0
  6
CONTINUOUS
 10
332.742218
 20
83.133636
 11
334.970245
 21
77.956879
  0
LINE
  8
0
  6
CONTINUOUS
 10
327.363617
 20
77.956879
 11
328.068817
 21
77.956879
  0
LINE
  8
0
  6
CONTINUOUS
 10
329.701630
 20
77.956879
 11
330.351044
 21
77.956879
  0
LINE
  8
0
  6
CONTINUOUS
 10
330.351044
 20
76.472504
 11
327.363617
 21
76.472504
  0
LINE
  8
0
  6
CONTINUOUS
 10
334.674225
 20
77.956879
 11
334.970245
 21
77.956879
  0
LINE
  8
0
  6
CONTINUOUS
 10
336.463837
 20
77.956879
 11
336.863617
 21
77.956879
  0
LINE
  8
0
  6
CONTINUOUS
 10
334.674225
 20
76.472504
 11
336.863617
 21
76.472504
  0
LINE
  8
0
  6
CONTINUOUS
 10
336.863617
 20
77.956879
 11
336.863617
 21
76.472504
  0
LINE
  8
0
  6
CONTINUOUS
 10
334.674225
 20
77.956879
 11
334.674225
 21
76.472504
  0
LINE
  8
0
  6
CONTINUOUS
 10
330.351044
 20
77.956879
 11
330.351044
 21
76.472504
  0
LINE
  8
0
  6
CONTINUOUS
 10
327.363617
 20
77.956879
 11
327.363617
 21
76.472504
  0
LINE
  8
0
  6
CONTINUOUS
 10
314.678436
 20
88.978363
 11
314.168243
 21
87.753754
  0
LINE
  8
0
  6
CONTINUOUS
 10
321.192444
 20
88.978363
 11
321.622620
 21
87.753754
  0
LINE
  8
0
  6
CONTINUOUS
 10
318.717224
 20
88.978363
 11
321.192444
 21
88.978363
  0
LINE
  8
0
  6
CONTINUOUS
 10
316.935822
 20
88.978363
 11
314.678436
 21
88.978363
  0
LINE
  8
0
  6
CONTINUOUS
 10
329.701630
 20
83.133636
 11
332.742218
 21
83.133636
  0
LINE
  8
0
  6
CONTINUOUS
 10
327.363617
 20
88.978363
 11
328.068817
 21
88.978363
  0
LINE
  8
0
  6
CONTINUOUS
 10
329.701630
 20
88.978363
 11
334.134644
 21
88.975471
  0
LINE
  8
0
  6
CONTINUOUS
 10
306.990631
 20
87.978363
 11
306.990631
 21
87.753754
  0
ARC
  8
0
  6
CONTINUOUS
 10
421.572418
 20
107.472504
 40
185.208893
 50
166.001907
 51
193.998093
  0
LINE
  8
0
  6
CONTINUOUS
 10
255.863632
 20
28.405939
 11
255.863632
 21
12.472500
  0
LINE
  8
0
  6
CONTINUOUS
 10
379.863617
 20
28.405939
 11
379.863617
 21
12.472500
  0
LINE
  8
0
  6
CONTINUOUS
 10
341.621033
 20
35.472500
 11
294.106232
 21
35.472500
  0
LINE
  8
0
  6
CONTINUOUS
 10
292.863617
 20
34.536621
 11
292.863617
 21
31.472500
  0
LINE
  8
0
  6
CONTINUOUS
 10
343.742218
 20
34.593819
 11
346.399231
 21
31.936960
  0
LINE
  8
0
  6
CONTINUOUS
 10
291.985046
 20
34.593819
 11
289.328247
 21
31.937000
  0
LINE
  8
0
  6
CONTINUOUS
 10
342.863617
 20
34.536621
 11
342.863617
 21
31.472500
  0
ARC
  8
0
  6
CONTINUOUS
 10
285.792633
 20
35.472500
 40
5.000000
 50
270.000000
 51
315.000092
  0
ARC
  8
0
  6
CONTINUOUS
 10
294.106232
 20
32.472500
 40
3.000000
 50
90.000000
 51
135.000305
  0
ARC
  8
0
  6
CONTINUOUS
 10
291.863617
 20
31.472500
 40
1.000000
 50
-90.000000
 51
0.000000
  0
ARC
  8
0
  6
CONTINUOUS
 10
349.934631
 20
35.472500
 40
5.000000
 50
225.000000
 51
270.000000
  0
ARC
  8
0
  6
CONTINUOUS
 10
341.621033
 20
32.472500
 40
3.000000
 50
45.000160
 51
90.000000
  0
ARC
  8
0
  6
CONTINUOUS
 10
343.863617
 20
31.472500
 40
1.000000
 50
180.000000
 51
270.000000
  0
LINE
  8
0
  6
CONTINUOUS
 10
328.863617
 20
147.472534
 11
328.863617
 21
157.472534
  0
LINE
  8
0
  6
CONTINUOUS
 10
336.863617
 20
147.472565
 11
336.863617
 21
157.472565
  0
LINE
  8
0
  6
CONTINUOUS
 10
336.863617
 20
147.472565
 11
328.863617
 21
147.472534
  0
LINE
  8
0
  6
CONTINUOUS
 10
336.863617
 20
157.472565
 11
328.863617
 21
157.472534
  0
ARC
  8
0
  6
CONTINUOUS
 10
317.863617
 20
152.472504
 40
16.000000
 50
18.209900
 51
341.790100
  0
LINE
  8
0
  6
CENTER
 10
602.847473
 20
-2.647500
 11
602.847473
 21
249.198074
  0
LINE
  8
0
  6
CENTER
 10
522.260132
 20
107.472504
 11
682.630127
 21
107.472504
  0
LINE
  8
0
  6
CENTER
 10
468.197510
 20
152.472504
 11
737.024475
 21
152.472504
  0
LINE
  8
0
  6
CENTER
 10
662.847473
 20
39.071239
 11
662.847473
 21
1.172120
  0
LINE
  8
0
  6
CENTER
 10
542.847473
 20
39.071239
 11
542.847473
 21
1.172120
  0
LINE
  8
0
  6
CONTINUOUS
 10
527.847473
 20
12.472500
 11
572.847473
 21
12.472500
  0
LINE
  8
0
  6
CONTINUOUS
 10
632.847473
 20
12.472500
 11
677.847473
 21
12.472500
  0
LINE
  8
0
  6
CONTINUOUS
 10
675.347473
 20
30.472500
 11
651.847473
 21
30.472500
  0
LINE
  8
0
  6
CONTINUOUS
 10
530.347473
 20
30.472500
 11
553.847473
 21
30.472500
  0
LINE
  8
0
  6
CONTINUOUS
 10
647.847473
 20
213.739258
 11
647.847473
 21
12.472500
  0
LINE
  8
0
  6
CONTINUOUS
 10
557.847473
 20
200.213699
 11
557.847473
 21
213.738785
  0
LINE
  8
0
  6
CONTINUOUS
 10
677.847473
 20
28.354679
 11
677.847473
 21
12.472500
  0
LINE
  8
0
  6
CONTINUOUS
 10
527.847473
 20
28.354679
 11
527.847473
 21
12.472500
  0
LINE
  8
0
  6
CONTINUOUS
 10
574.347473
 20
13.972500
 11
631.347473
 21
13.972500
  0
LINE
  8
0
  6
CONTINUOUS
 10
644.899902
 20
216.738800
 11
602.847473
 21
217.472504
  0
LINE
  8
0
  6
CONTINUOUS
 10
560.795105
 20
216.738327
 11
602.847473
 21
217.472504
  0
LINE
  8
0
  6
CONTINUOUS
 10
540.847473
 20
117.213692
 11
540.847473
 21
187.731323
  0
LINE
  8
0
  6
CONTINUOUS
 10
664.847473
 20
117.213692
 11
664.847473
 21
187.731323
  0
LINE
  8
0
  6
CONTINUOUS
 10
547.847473
 20
68.228500
 11
547.847473
 21
156.382904
  0
LINE
  8
0
  6
CONTINUOUS
 10
657.847473
 20
68.228523
 11
657.847473
 21
156.382904
  0
LINE
  8
0
  6
DASHED
 10
669.347473
 20
30.472500
 11
669.347473
 21
12.472500
  0
LINE
  8
0
  6
DASHED
 10
656.347473
 20
30.472500
 11
656.347473
 21
12.472500
  0
LINE
  8
0
  6
DASHED
 10
549.347473
 20
30.472500
 11
549.347473
 21
12.472500
  0
LINE
  8
0
  6
DASHED
 10
536.347473
 20
30.472500
 11
536.347473
 21
12.472500
  0
ARC
  8
0
  6
CONTINUOUS
 10
560.847473
 20
213.738785
 40
3.000000
 50
91.000603
 51
180.000000
  0
ARC
  8
0
  6
CONTINUOUS
 10
644.847473
 20
213.739243
 40
3.000000
 50
0.000000
 51
89.000580
  0
LINE
  8
0
  6
CONTINUOUS
 10
554.258301
 20
195.416855
 11
544.436707
 21
192.528122
  0
LINE
  8
0
  6
CONTINUOUS
 10
544.436707
 20
112.416862
 11
544.976074
 21
112.258194
  0
LINE
  8
0
  6
CONTINUOUS
 10
551.454895
 20
63.426361
 11
554.240112
 21
62.618641
  0
LINE
  8
0
  6
CONTINUOUS
 10
529.936523
 20
30.820660
 11
555.340698
 21
35.054699
  0
LINE
  8
0
  6
CONTINUOUS
 10
675.758484
 20
30.820681
 11
650.354309
 21
35.054722
  0
LINE
  8
0
  6
CONTINUOUS
 10
654.240112
 20
63.426361
 11
651.454895
 21
62.618641
  0
LINE
  8
0
  6
CONTINUOUS
 10
661.258301
 20
112.416862
 11
660.718872
 21
112.258186
  0
LINE
  8
0
  6
CONTINUOUS
 10
661.258301
 20
192.528137
 11
651.436707
 21
195.416855
  0
LINE
  8
0
  6
CONTINUOUS
 10
560.421875
 20
184.972504
 11
645.100098
 21
184.972504
  0
ARC
  8
0
  6
CONTINUOUS
 10
545.847473
 20
187.731339
 40
5.000000
 50
106.389900
 51
180.000000
  0
ARC
  8
0
  6
CONTINUOUS
 10
659.847473
 20
187.731293
 40
5.000000
 50
0.000000
 51
73.610527
  0
ARC
  8
0
  6
CONTINUOUS
 10
545.847473
 20
117.213730
 40
5.000000
 50
180.000000
 51
253.610794
  0
ARC
  8
0
  6
CONTINUOUS
 10
659.847473
 20
117.213684
 40
5.000000
 50
-73.610321
 51
0.000000
  0
ARC
  8
0
  6
CONTINUOUS
 10
652.847473
 20
68.228500
 40
5.000000
 50
-73.827698
 51
0.000000
  0
ARC
  8
0
  6
CONTINUOUS
 10
552.847473
 20
68.228539
 40
5.000000
 50
180.000000
 51
253.828201
  0
LINE
  8
0
  6
CONTINUOUS
 10
557.847473
 20
200.213699
 11
557.847473
 21
12.472500
  0
ARC
  8
0
  6
CONTINUOUS
 10
552.847473
 20
200.213684
 40
5.000000
 50
-73.610229
 51
0.000000
  0
ARC
  8
0
  6
CONTINUOUS
 10
543.847473
 20
108.420715
 40
4.000000
 50
0.000000
 51
73.610649
  0
ARC
  8
0
  6
CONTINUOUS
 10
552.847473
 20
57.816479
 40
5.000000
 50
0.000000
 51
73.827919
  0
ARC
  8
0
  6
CONTINUOUS
 10
652.847473
 20
57.816521
 40
5.000000
 50
106.172501
 51
180.000000
  0
ARC
  8
0
  6
CONTINUOUS
 10
661.847473
 20
108.420746
 40
4.000000
 50
106.389999
 51
180.000000
  0
ARC
  8
0
  6
CONTINUOUS
 10
652.847473
 20
200.213715
 40
5.000000
 50
180.000000
 51
253.610794
  0
ARC
  8
0
  6
CONTINUOUS
 10
554.847473
 20
38.013882
 40
3.000000
 50
-80.537483
 51
0.000000
  0
ARC
  8
0
  6
CONTINUOUS
 10
553.847473
 20
34.472462
 40
4.000000
 50
-90.000000
 51
0.000000
  0
ARC
  8
0
  6
CONTINUOUS
 10
530.347473
 20
27.972521
 40
2.500000
 50
90.000000
 51
180.000000
  0
LINE
  8
0
  6
CONTINUOUS
 10
572.847473
 20
12.472500
 11
574.347473
 21
13.972500
  0
LINE
  8
0
  6
CONTINUOUS
 10
632.847473
 20
12.472500
 11
631.347473
 21
13.972500
  0
ARC
  8
0
  6
CONTINUOUS
 10
650.847473
 20
38.013920
 40
3.000000
 50
180.000000
 51
260.537903
  0
ARC
  8
0
  6
CONTINUOUS
 10
651.847473
 20
34.472500
 40
4.000000
 50
180.000000
 51
270.000000
  0
ARC
  8
0
  6
CONTINUOUS
 10
675.347473
 20
27.972500
 40
2.500000
 50
0.000000
 51
90.000000
  0
LINE
  8
0
  6
CONTINUOUS
 10
722.847473
 20
136.472504
 11
722.847473
 21
168.472504
  0
LINE
  8
0
  6
CONTINUOUS
 10
667.847473
 20
168.472504
 11
722.847473
 21
168.472504
  0
LINE
  8
0
  6
CONTINUOUS
 10
667.847473
 20
136.472504
 11
722.847473
 21
136.472504
  0
LINE
  8
0
  6
CONTINUOUS
 10
667.847473
 20
169.972504
 11
667.847473
 21
134.972504
  0
LINE
  8
0
  6
CONTINUOUS
 10
664.847473
 20
169.972504
 11
667.847473
 21
169.972504
  0
LINE
  8
0
  6
CONTINUOUS
 10
664.847473
 20
134.972504
 11
667.847473
 21
134.972504
  0
ARC
  8
0
  6
CONTINUOUS
 10
677.847473
 20
152.472504
 40
5.000000
 50
90.000000
 51
270.000000
  0
LINE
  8
0
  6
CONTINUOUS
 10
677.847473
 20
157.472504
 11
722.847473
 21
157.472504
  0
LINE
  8
0
  6
CONTINUOUS
 10
677.847473
 20
147.472504
 11
722.847473
 21
147.472504
  0
LINE
  8
0
  6
CONTINUOUS
 10
482.847504
 20
136.472504
 11
482.847504
 21
168.472504
  0
LINE
  8
0
  6
CONTINUOUS
 10
537.847473
 20
168.472504
 11
482.847504
 21
168.472504
  0
LINE
  8
0
  6
CONTINUOUS
 10
537.847473
 20
136.472504
 11
482.847504
 21
136.472504
  0
LINE
  8
0
  6
CONTINUOUS
 10
537.847473
 20
169.972504
 11
537.847473
 21
134.972504
  0
LINE
  8
0
  6
CONTINUOUS
 10
540.847473
 20
169.972504
 11
537.847473
 21
169.972504
  0
LINE
  8
0
  6
CONTINUOUS
 10
540.847473
 20
134.972504
 11
537.847473
 21
134.972504
  0
ARC
  8
0
  6
CONTINUOUS
 10
527.847473
 20
152.472504
 40
5.000000
 50
-90.000000
 51
90.000000
  0
LINE
  8
0
  6
CONTINUOUS
 10
527.847473
 20
157.472504
 11
482.847504
 21
157.472504
  0
LINE
  8
0
  6
CONTINUOUS
 10
527.847473
 20
147.472504
 11
482.847504
 21
147.472504
  0
ARC
  8
0
  6
CONTINUOUS
 10
530.347473
 20
28.354700
 40
2.500000
 50
99.462753
 51
180.000000
  0
ARC
  8
0
  6
CONTINUOUS
 10
675.347473
 20
28.354679
 40
2.500000
 50
0.000000
 51
80.537682
  0
LINE
  8
0
  6
CONTINUOUS
 10
229.863632
 20
171.472504
 11
229.863632
 21
43.472500
  0
ARC
  8
0
  6
CONTINUOUS
 10
602.847473
 20
107.472504
 40
64.000000
 50
165.638489
 51
210.753525
  0
ARC
  8
0
  6
CONTINUOUS
 10
602.847473
 20
107.472504
 40
64.000000
 50
-30.753519
 51
14.361512
  0
ARC
  8
0
  6
CONTINUOUS
 10
561.835327
 20
66.460281
 40
8.000000
 50
211.001404
 51
233.216995
  0
ARC
  8
0
  6
CONTINUOUS
 10
555.847473
 20
58.451160
 40
2.000000
 50
30.947910
 51
53.217121
  0
ARC
  8
0
  6
CONTINUOUS
 10
643.859680
 20
66.460281
 40
8.000000
 50
-53.216999
 51
-31.001400
  0
ARC
  8
0
  6
CONTINUOUS
 10
649.847473
 20
58.451160
 40
2.000000
 50
126.782883
 51
149.052094
  0
LINE
  8
0
  6
CENTER
 10
-14.811250
 20
94.472504
 11
274.750000
 21
94.472504
  0
LINE
  8
0
  6
CENTER
 10
139.690308
 20
107.472504
 11
274.750000
 21
107.472504
  0
LINE
  8
0
  6
CONTINUOUS
 10
221.363632
 20
348.530426
 11
221.363632
 21
472.530426
  0
LINE
  8
0
  6
CONTINUOUS
 10
175.363632
 20
455.530426
 11
218.927246
 21
457.051697
  0
LINE
  8
0
  6
CONTINUOUS
 10
175.363632
 20
365.530426
 11
218.927246
 21
364.009155
  0
LINE
  8
0
  6
CONTINUOUS
 10
175.363632
 20
459.542419
 11
175.363632
 21
361.518433
  0
LINE
  8
0
  6
CONTINUOUS
 10
223.363632
 20
474.530426
 11
229.863632
 21
474.530426
  0
LINE
  8
0
  6
CONTINUOUS
 10
223.363632
 20
346.530426
 11
229.863632
 21
346.530426
  0
LINE
  8
0
  6
CONTINUOUS
 10
214.220627
 20
434.530426
 11
221.335617
 21
434.530426
  0
LINE
  8
0
  6
CONTINUOUS
 10
214.825775
 20
386.530426
 11
221.335617
 21
386.530426
  0
LINE
  8
0
  6
CONTINUOUS
 10
214.220627
 20
432.325928
 11
214.220627
 21
388.613342
  0
LINE
  8
0
  6
CONTINUOUS
 10
166.363632
 20
453.530426
 11
166.363632
 21
439.530426
  0
LINE
  8
0
  6
CONTINUOUS
 10
56.363632
 20
455.530426
 11
175.363632
 21
455.530426
  0
LINE
  8
0
  6
CONTINUOUS
 10
56.363632
 20
365.530426
 11
175.363632
 21
365.530426
  0
LINE
  8
0
  6
CONTINUOUS
 10
56.363632
 20
439.530426
 11
166.363632
 21
439.530426
  0
LINE
  8
0
  6
CONTINUOUS
 10
56.363632
 20
381.530426
 11
166.363632
 21
381.530426
  0
ARC
  8
0
  6
CONTINUOUS
 10
168.363632
 20
453.530457
 40
2.000000
 50
90.000000
 51
180.000000
  0
ARC
  8
0
  6
CONTINUOUS
 10
168.363632
 20
367.530426
 40
2.000000
 50
180.000000
 51
270.000000
  0
LINE
  8
0
  6
CONTINUOUS
 10
175.363632
 20
455.530426
 11
175.363632
 21
365.530426
  0
ARC
  8
0
  6
CONTINUOUS
 10
223.363632
 20
472.530426
 40
2.000000
 50
90.000000
 51
180.000000
  0
ARC
  8
0
  6
CONTINUOUS
 10
223.363632
 20
348.530426
 40
2.000000
 50
180.000000
 51
270.000000
  0
ARC
  8
0
  6
CONTINUOUS
 10
218.839996
 20
459.550171
 40
2.500000
 50
272.000000
 51
359.895721
  0
ARC
  8
0
  6
CONTINUOUS
 10
218.839996
 20
361.510681
 40
2.500000
 50
0.104292
 51
88.000000
  0
LINE
  8
0
  6
CONTINUOUS
 10
221.363632
 20
457.136780
 11
221.335617
 21
457.135803
  0
LINE
  8
0
  6
CONTINUOUS
 10
175.863327
 20
460.059875
 11
221.363632
 21
461.648773
  0
LINE
  8
0
  6
CONTINUOUS
 10
175.363632
 20
459.542419
 11
175.863327
 21
460.059875
  0
LINE
  8
0
  6
CONTINUOUS
 10
175.863327
 20
361.000977
 11
221.363632
 21
359.412079
  0
LINE
  8
0
  6
CONTINUOUS
 10
175.363632
 20
361.518433
 11
175.863327
 21
361.000977
  0
LINE
  8
0
  6
CONTINUOUS
 10
166.363632
 20
137.472504
 11
166.363632
 21
51.472481
  0
LINE
  8
0
  6
CONTINUOUS
 10
56.363632
 20
139.472504
 11
175.363632
 21
139.472504
  0
LINE
  8
0
  6
CONTINUOUS
 10
56.363632
 20
49.472500
 11
175.363632
 21
49.472500
  0
LINE
  8
0
  6
CONTINUOUS
 10
56.363632
 20
128.881805
 11
165.325958
 21
128.881805
  0
LINE
  8
0
  6
CONTINUOUS
 10
56.363632
 20
60.063202
 11
165.325958
 21
60.063202
  0
ARC
  8
0
  6
CONTINUOUS
 10
168.363632
 20
137.472519
 40
2.000000
 50
90.000000
 51
180.000000
  0
ARC
  8
0
  6
CONTINUOUS
 10
168.363632
 20
51.472500
 40
2.000000
 50
180.000000
 51
270.000000
  0
LINE
  8
0
  6
CONTINUOUS
 10
223.363632
 20
171.472595
 11
229.863632
 21
171.472595
  0
LINE
  8
0
  6
CONTINUOUS
 10
223.363632
 20
43.472401
 11
229.863632
 21
43.472401
  0
LINE
  8
0
  6
CONTINUOUS
 10
175.363632
 20
139.472504
 11
221.363632
 21
141.078857
  0
LINE
  8
0
  6
CONTINUOUS
 10
229.863632
 20
47.569317
 11
175.363632
 21
49.472500
  0
ARC
  8
0
  6
CONTINUOUS
 10
223.363647
 20
169.472626
 40
2.000000
 50
90.000000
 51
180.000000
  0
ARC
  8
0
  6
CONTINUOUS
 10
223.363632
 20
45.472401
 40
2.000000
 50
180.260773
 51
270.000000
  0
LINE
  8
0
  6
CONTINUOUS
 10
175.363632
 20
139.472504
 11
175.363632
 21
49.472500
  0
LINE
  8
0
  6
CONTINUOUS
 10
220.631393
 20
147.240265
 11
214.916885
 21
141.525757
  0
LINE
  8
0
  6
CONTINUOUS
 10
175.363632
 20
73.966499
 11
219.363632
 21
73.966499
  0
LINE
  8
0
  6
CONTINUOUS
 10
175.363632
 20
58.953499
 11
229.863632
 21
58.953499
  0
LINE
  8
0
  6
CONTINUOUS
 10
221.931595
 20
66.905502
 11
229.863632
 21
66.905502
  0
LINE
  8
0
  6
CONTINUOUS
 10
221.363632
 20
68.120232
 11
221.363632
 21
169.472626
  0
ARC
  8
0
  6
CONTINUOUS
 10
218.863678
 20
45.451920
 40
2.500000
 50
0.260773
 51
88.000000
  0
ARC
  8
0
  6
CONTINUOUS
 10
218.863632
 20
149.008041
 40
2.500000
 50
-45.000000
 51
0.000000
  0
ARC
  8
0
  6
CONTINUOUS
 10
213.149124
 20
143.293518
 40
2.500000
 50
272.000000
 51
315.000000
  0
LINE
  8
0
  6
CONTINUOUS
 10
46.863632
 20
455.530426
 11
56.363632
 21
455.530426
  0
LINE
  8
0
  6
CONTINUOUS
 10
56.363632
 20
439.530426
 11
46.863632
 21
439.530426
  0
LINE
  8
0
  6
CONTINUOUS
 10
46.863632
 20
365.530426
 11
56.363632
 21
365.530426
  0
LINE
  8
0
  6
CONTINUOUS
 10
56.363632
 20
365.530426
 11
56.363632
 21
385.530396
  0
LINE
  8
0
  6
CONTINUOUS
 10
56.363632
 20
381.530426
 11
46.863632
 21
381.530426
  0
LINE
  8
0
  6
CONTINUOUS
 10
56.363632
 20
435.530396
 11
56.363632
 21
455.530426
  0
LINE
  8
0
  6
CONTINUOUS
 10
46.863632
 20
457.530426
 11
46.863632
 21
418.030396
  0
LINE
  8
0
  6
CONTINUOUS
 10
46.863632
 20
439.530426
 11
2.888602
 21
439.530426
  0
LINE
  8
0
  6
CONTINUOUS
 10
46.863632
 20
381.530426
 11
2.888602
 21
381.530426
  0
LINE
  8
0
  6
CONTINUOUS
 10
4.363612
 20
457.530426
 11
46.863632
 21
457.530426
  0
LINE
  8
0
  6
CONTINUOUS
 10
4.363612
 20
363.530426
 11
46.863632
 21
363.530426
  0
ARC
  8
0
  6
CONTINUOUS
 10
4.363642
 20
452.530426
 40
5.000000
 50
90.000000
 51
180.000000
  0
ARC
  8
0
  6
CONTINUOUS
 10
4.363612
 20
368.530426
 40
5.000000
 50
180.000000
 51
270.000000
  0
LINE
  8
0
  6
CONTINUOUS
 10
-0.636358
 20
452.530426
 11
-0.636388
 21
368.530426
  0
LINE
  8
0
  6
CONTINUOUS
 10
46.863632
 20
139.472504
 11
56.363632
 21
139.472504
  0
LINE
  8
0
  6
CONTINUOUS
 10
56.363632
 20
128.881805
 11
46.863632
 21
128.881805
  0
LINE
  8
0
  6
CONTINUOUS
 10
46.863632
 20
49.472500
 11
56.363632
 21
49.472500
  0
LINE
  8
0
  6
CONTINUOUS
 10
56.363632
 20
60.063210
 11
46.863632
 21
60.063210
  0
LINE
  8
0
  6
CONTINUOUS
 10
46.863632
 20
141.472504
 11
46.863632
 21
47.472500
  0
LINE
  8
0
  6
CONTINUOUS
 10
46.863632
 20
123.472504
 11
2.888602
 21
123.472504
  0
LINE
  8
0
  6
CONTINUOUS
 10
46.863632
 20
65.472504
 11
2.888602
 21
65.472504
  0
LINE
  8
0
  6
CONTINUOUS
 10
4.363612
 20
141.472504
 11
46.863632
 21
141.472504
  0
LINE
  8
0
  6
CONTINUOUS
 10
4.363612
 20
47.472500
 11
46.863632
 21
47.472500
  0
ARC
  8
0
  6
CONTINUOUS
 10
4.363642
 20
136.472504
 40
5.000000
 50
90.000000
 51
180.000000
  0
ARC
  8
0
  6
CONTINUOUS
 10
4.363612
 20
52.472500
 40
5.000000
 50
180.000000
 51
270.000000
  0
LINE
  8
0
  6
CONTINUOUS
 10
-0.636358
 20
136.472504
 11
-0.636388
 21
52.472488
  0
LINE
  8
0
  6
CONTINUOUS
 10
56.363632
 20
49.472500
 11
56.363632
 21
139.472504
  0
LINE
  8
0
  6
CONTINUOUS
 10
46.363632
 20
418.030396
 11
47.363632
 21
418.030396
  0
ARC
  8
0
  6
CONTINUOUS
 10
46.363651
 20
417.030396
 40
1.000000
 50
90.000000
 51
180.000000
  0
LINE
  8
0
  6
CONTINUOUS
 10
41.863647
 20
414.530396
 11
41.863647
 21
406.530396
  0
LINE
  8
0
  6
CONTINUOUS
 10
41.863647
 20
414.530396
 11
45.363647
 21
416.030396
  0
LINE
  8
0
  6
CONTINUOUS
 10
41.863632
 20
406.530396
 11
45.363632
 21
405.030396
  0
LINE
  8
0
  6
CONTINUOUS
 10
45.363647
 20
417.030396
 11
45.363647
 21
404.030396
  0
LINE
  8
0
  6
CONTINUOUS
 10
46.363632
 20
403.030396
 11
47.363632
 21
403.030396
  0
ARC
  8
0
  6
CONTINUOUS
 10
46.363651
 20
404.030396
 40
1.000000
 50
-180.000000
 51
-90.000000
  0
LINE
  8
0
  6
CONTINUOUS
 10
47.363632
 20
387.530396
 11
47.363632
 21
433.530396
  0
LINE
  8
0
  6
CONTINUOUS
 10
49.363632
 20
435.530396
 11
47.363632
 21
433.530396
  0
LINE
  8
0
  6
CONTINUOUS
 10
49.363632
 20
435.530396
 11
95.363625
 21
435.530396
  0
LINE
  8
0
  6
CONTINUOUS
 10
89.863632
 20
431.030396
 11
89.863632
 21
435.530396
  0
ARC
  8
0
  6
CONTINUOUS
 10
92.863632
 20
431.030396
 40
3.000000
 50
180.000000
 51
270.000000
  0
LINE
  8
0
  6
CONTINUOUS
 10
92.863632
 20
428.030396
 11
97.363625
 21
428.030396
  0
CIRCLE
  8
0
  6
CONTINUOUS
 10
93.863632
 20
432.030396
 40
2.250000
  0
LINE
  8
0
  6
CONTINUOUS
 10
97.363625
 20
387.530396
 11
97.363625
 21
433.530396
  0
LINE
  8
0
  6
CONTINUOUS
 10
95.363625
 20
435.530396
 11
97.363625
 21
433.530396
  0
LINE
  8
0
  6
CONTINUOUS
 10
95.363625
 20
385.530396
 11
97.363625
 21
387.530396
  0
LINE
  8
0
  6
CONTINUOUS
 10
95.363625
 20
385.530396
 11
49.363632
 21
385.530396
  0
LINE
  8
0
  6
CONTINUOUS
 10
47.363632
 20
387.530396
 11
49.363632
 21
385.530396
  0
LINE
  8
0
  6
CONTINUOUS
 10
51.863632
 20
393.030396
 11
47.363644
 21
393.030396
  0
CIRCLE
  8
0
  6
CONTINUOUS
 10
50.863632
 20
389.030396
 40
2.250000
  0
ARC
  8
0
  6
CONTINUOUS
 10
51.863632
 20
390.030396
 40
3.000000
 50
0.000000
 51
90.000000
  0
LINE
  8
0
  6
CONTINUOUS
 10
54.863632
 20
390.030396
 11
54.863632
 21
385.530396
  0
LINE
  8
0
  6
CENTER
 10
72.363632
 20
378.064636
 11
72.363632
 21
442.196655
  0
LINE
  8
0
  6
CONTINUOUS
 10
49.777851
 20
434.530426
 11
48.363640
 21
433.116211
  0
LINE
  8
0
  6
CONTINUOUS
 10
48.363640
 20
393.030426
 11
48.363640
 21
433.116211
  0
LINE
  8
0
  6
CONTINUOUS
 10
89.863632
 20
434.530426
 11
49.777851
 21
434.530426
  0
LINE
  8
0
  6
CONTINUOUS
 10
96.363625
 20
428.030426
 11
96.363625
 21
387.944641
  0
LINE
  8
0
  6
CONTINUOUS
 10
54.863632
 20
386.530426
 11
94.949409
 21
386.530426
  0
LINE
  8
0
  6
CONTINUOUS
 10
94.949409
 20
386.530426
 11
96.363625
 21
387.944641
  0
LINE
  8
0
  6
CONTINUOUS
 10
46.863632
 20
403.030396
 11
46.863632
 21
363.530426
  0
LINE
  8
0
  6
CONTINUOUS
 10
48.863632
 20
140.972504
 11
95.363632
 21
140.972504
  0
LINE
  8
0
  6
CONTINUOUS
 10
97.363625
 20
170.972504
 11
97.363632
 21
142.972504
  0
LINE
  8
0
  6
CONTINUOUS
 10
47.363632
 20
170.972504
 11
47.363632
 21
142.972504
  0
LINE
  8
0
  6
CONTINUOUS
 10
45.363632
 20
152.972504
 11
97.363632
 21
152.972504
  0
LINE
  8
0
  6
CONTINUOUS
 10
95.363632
 20
140.972504
 11
97.363632
 21
142.972504
  0
LINE
  8
0
  6
CONTINUOUS
 10
47.363632
 20
142.972504
 11
49.363632
 21
140.972504
  0
LINE
  8
0
  6
CONTINUOUS
 10
47.363632
 20
142.972504
 11
97.363632
 21
142.972504
  0
LINE
  8
0
  6
CONTINUOUS
 10
48.363632
 20
171.972504
 11
96.363625
 21
171.972504
  0
LINE
  8
0
  6
CONTINUOUS
 10
96.363625
 20
171.972504
 11
97.363625
 21
170.972504
  0
LINE
  8
0
  6
CONTINUOUS
 10
48.363632
 20
171.972504
 11
47.363632
 21
170.972504
  0
LINE
  8
0
  6
CONTINUOUS
 10
47.363632
 20
170.972504
 11
97.363625
 21
170.972504
  0
LINE
  8
0
  6
CENTER
 10
39.419884
 20
162.472504
 11
51.494881
 21
162.472504
  0
LINE
  8
0
  6
CONTINUOUS
 10
45.363640
 20
168.972504
 11
45.363632
 21
152.972504
  0
LINE
  8
0
  6
CONTINUOUS
 10
46.363632
 20
169.972504
 11
47.363632
 21
169.972504
  0
ARC
  8
0
  6
CONTINUOUS
 10
46.363644
 20
168.972504
 40
1.000000
 50
90.000000
 51
180.000000
  0
LINE
  8
0
  6
CONTINUOUS
 10
41.863640
 20
166.472504
 11
41.863640
 21
158.472504
  0
LINE
  8
0
  6
CONTINUOUS
 10
41.863640
 20
166.472504
 11
45.363640
 21
167.972504
  0
LINE
  8
0
  6
CONTINUOUS
 10
41.863632
 20
158.472504
 11
45.363632
 21
156.972504
  0
LINE
  8
0
  6
CENTER
 10
72.363632
 20
136.278748
 11
72.363632
 21
177.360001
  0
LINE
  8
0
  6
CONTINUOUS
 10
48.863632
 20
140.972504
 11
48.863632
 21
139.472504
  0
LINE
  8
0
  6
CONTINUOUS
 10
94.863632
 20
140.972504
 11
94.863632
 21
139.472504
  0
LINE
  8
0
  6
CONTINUOUS
 10
166.363632
 20
381.530426
 11
166.363632
 21
367.530396
  0
TEXT
  8
0
 10
-20.000000
 20
-2.000000
 40
4.000000
 41
1.000000
  1
HLM-32T-600~900-S90T
 50
0.000000
  0
ENDSEC
  0
EOF
