  0
SECTION
  2
HEADER
  9
$CLAYER
  8
1
  9
$LTSCALE
 40
3.0
  0
ENDSEC
  0
SECTION
  2
TABLES
  0
TABLE
  2
LTYPE
 70
     4
  0
LTYPE
  2
CONTINUOUS
  3
solid line
 70
    64
 72
    65
 73
     0
 40
0.0
  0
LTYPE
  2
DASHED
  3
__ __ __ __ __ __ __ __ __ __ __ __ __ __ __
 70
    64
 72
    65
 73
     2
 40
0.75
 49
0.5
 49
-0.25
  0
LTYPE
  2
CENTER
  3
____ _ ____ _ ____ _ ____ _ ____ _ ____ _ ____
 70
    64
 72
    65
 73
     4
 40
2.0
 49
1.25
 49
-0.25
 49
0.25
 49
-0.25
  0
LTYPE
  2
PHANTOM
  3
_____ _ _ _____ _ _ _____ _ _ _____ _ _ ____
 70
    64
 72
    65
 73
     6
 40
2.5
 49
1.25
 49
-0.25
 49
0.25
 49
-0.25
 49
0.25
 49
-0.25
  0
ENDTAB
  0
TABLE
  2
LAYER
 70
     1
  0
LAYER
  2
0
 70
    64
 62
     7
  6
CONTINUOUS
  0
ENDTAB
  0
TABLE
  2
STYLE
 70
     1
  0
STYLE
  2
STANDARD
 70
     0
 40
0.000000
 41
1.000000
 50
0.000000
 71
     0
 42
3.000000
  3
txt
  4
BIGFONT
  0
ENDTAB
  0
ENDSEC
  0
SECTION
  2
BLOCKS
  0
ENDSEC
  0
SECTION
  2
ENTITIES
  0
LINE
  8
0
  6
CENTER
 10
283.688629
 20
528.340454
 11
283.688629
 21
274.840424
  0
LINE
  8
0
  6
CONTINUOUS
 10
359.688843
 20
400.277924
 11
358.903351
 21
445.277924
  0
LINE
  8
0
  6
CONTINUOUS
 10
225.238586
 20
475.277924
 11
267.688629
 21
475.277924
  0
LINE
  8
0
  6
CONTINUOUS
 10
349.632233
 20
470.079163
 11
358.903351
 21
445.277924
  0
ARC
  8
0
  6
CONTINUOUS
 10
342.138672
 20
467.277924
 40
8.000000
 50
20.496618
 51
90.000000
  0
LINE
  8
0
  6
CONTINUOUS
 10
359.688843
 20
400.277924
 11
358.903351
 21
355.277924
  0
LINE
  8
0
  6
CONTINUOUS
 10
225.238586
 20
325.277924
 11
267.688629
 21
325.277924
  0
LINE
  8
0
  6
CONTINUOUS
 10
349.632233
 20
330.476715
 11
358.903351
 21
355.277924
  0
ARC
  8
0
  6
CONTINUOUS
 10
342.138672
 20
333.277924
 40
8.000000
 50
-90.000000
 51
-20.496618
  0
LINE
  8
0
  6
CONTINUOUS
 10
217.745041
 20
470.079163
 11
208.690247
 21
445.856659
  0
ARC
  8
0
  6
CONTINUOUS
 10
225.238586
 20
467.277924
 40
8.000000
 50
90.000000
 51
159.503387
  0
LINE
  8
0
  6
CONTINUOUS
 10
217.745041
 20
330.476715
 11
208.690247
 21
354.699219
  0
ARC
  8
0
  6
CONTINUOUS
 10
225.238586
 20
333.277924
 40
8.000000
 50
200.496613
 51
270.000000
  0
LINE
  8
0
  6
CONTINUOUS
 10
211.025269
 20
445.277924
 11
355.955261
 21
445.277924
  0
LINE
  8
0
  6
CONTINUOUS
 10
355.955261
 20
355.277924
 11
211.025269
 21
355.277924
  0
LINE
  8
0
  6
CONTINUOUS
 10
283.688629
 20
462.277924
 11
318.947449
 21
462.277924
  0
ARC
  8
0
  6
CONTINUOUS
 10
355.955261
 20
442.277924
 40
3.000000
 50
1.000000
 51
90.000000
  0
ARC
  8
0
  6
CONTINUOUS
 10
355.955261
 20
358.277924
 40
3.000000
 50
270.000000
 51
359.000000
  0
LINE
  8
0
  6
CONTINUOUS
 10
312.688629
 20
442.277924
 11
312.688629
 21
358.277924
  0
LINE
  8
0
  6
CONTINUOUS
 10
254.688629
 20
442.277924
 11
254.688629
 21
358.277924
  0
LINE
  8
0
  6
CONTINUOUS
 10
195.688629
 20
464.277924
 11
195.688629
 21
336.277924
  0
LINE
  8
0
  6
CONTINUOUS
 10
198.260956
 20
464.277924
 11
195.688629
 21
464.277924
  0
LINE
  8
0
  6
CONTINUOUS
 10
323.744263
 20
458.688751
 11
324.747467
 21
455.277924
  0
ARC
  8
0
  6
CONTINUOUS
 10
318.947449
 20
457.277924
 40
5.000000
 50
16.389540
 51
90.000000
  0
LINE
  8
0
  6
CONTINUOUS
 10
339.234772
 20
451.670563
 11
340.042480
 21
448.885315
  0
LINE
  8
0
  6
CONTINUOUS
 10
334.432617
 20
455.277924
 11
324.747467
 21
455.277924
  0
LINE
  8
0
  6
CONTINUOUS
 10
283.688629
 20
462.277924
 11
248.429825
 21
462.277924
  0
LINE
  8
0
  6
CONTINUOUS
 10
283.688629
 20
338.277924
 11
318.947449
 21
338.277924
  0
LINE
  8
0
  6
CONTINUOUS
 10
283.688629
 20
338.277924
 11
248.429825
 21
338.277924
  0
LINE
  8
0
  6
CONTINUOUS
 10
302.688629
 20
520.277954
 11
267.688629
 21
520.277954
  0
LINE
  8
0
  6
CONTINUOUS
 10
267.688629
 20
465.277924
 11
267.688629
 21
520.277954
  0
LINE
  8
0
  6
CONTINUOUS
 10
299.688629
 20
465.277924
 11
299.688629
 21
470.277924
  0
LINE
  8
0
  6
CONTINUOUS
 10
266.188629
 20
465.277924
 11
301.188629
 21
465.277924
  0
LINE
  8
0
  6
CONTINUOUS
 10
266.188629
 20
462.277924
 11
266.188629
 21
465.277924
  0
LINE
  8
0
  6
CONTINUOUS
 10
301.188629
 20
462.277924
 11
301.188629
 21
465.277924
  0
LINE
  8
0
  6
CONTINUOUS
 10
302.688629
 20
475.277924
 11
342.138672
 21
475.277924
  0
LINE
  8
0
  6
CONTINUOUS
 10
302.688629
 20
520.277954
 11
302.688629
 21
470.277924
  0
LINE
  8
0
  6
CONTINUOUS
 10
298.887329
 20
470.277924
 11
302.688629
 21
470.277924
  0
LINE
  8
0
  6
CONTINUOUS
 10
298.887329
 20
470.277924
 11
298.887329
 21
520.277954
  0
LINE
  8
0
  6
CONTINUOUS
 10
302.688629
 20
280.277924
 11
267.688629
 21
280.277924
  0
LINE
  8
0
  6
CONTINUOUS
 10
267.688629
 20
335.277924
 11
267.688629
 21
280.277924
  0
LINE
  8
0
  6
CONTINUOUS
 10
299.688629
 20
335.277924
 11
299.688629
 21
330.277924
  0
LINE
  8
0
  6
CONTINUOUS
 10
266.188629
 20
335.277924
 11
301.188629
 21
335.277924
  0
LINE
  8
0
  6
CONTINUOUS
 10
266.188629
 20
338.277924
 11
266.188629
 21
335.277924
  0
LINE
  8
0
  6
CONTINUOUS
 10
301.188629
 20
338.277924
 11
301.188629
 21
335.277924
  0
LINE
  8
0
  6
CONTINUOUS
 10
302.688629
 20
280.277924
 11
302.688629
 21
330.277924
  0
LINE
  8
0
  6
CONTINUOUS
 10
298.887329
 20
330.277924
 11
302.688629
 21
330.277924
  0
LINE
  8
0
  6
CONTINUOUS
 10
298.887329
 20
330.277924
 11
298.887329
 21
280.277924
  0
LINE
  8
0
  6
CONTINUOUS
 10
302.688629
 20
325.277924
 11
342.138672
 21
325.277924
  0
LINE
  8
0
  6
CENTER
 10
321.312317
 20
460.277924
 11
340.249817
 21
460.277924
  0
LINE
  8
0
  6
CENTER
 10
331.188629
 20
451.125580
 11
331.188629
 21
470.625580
  0
ARC
  8
0
  6
CONTINUOUS
 10
331.188629
 20
460.277924
 40
6.500000
 50
-51.240688
 51
230.284866
  0
ARC
  8
0
  6
CONTINUOUS
 10
236.188629
 20
460.277924
 40
6.500000
 50
-50.284863
 51
231.240692
  0
LINE
  8
0
  6
CENTER
 10
236.188629
 20
451.125580
 11
236.188629
 21
470.625580
  0
LINE
  8
0
  6
CENTER
 10
246.064957
 20
460.277924
 11
227.127457
 21
460.277924
  0
LINE
  8
0
  6
CENTER
 10
-15.371094
 20
400.277924
 11
371.109650
 21
400.277924
  0
LINE
  8
0
  6
CONTINUOUS
 10
203.090591
 20
460.572021
 11
206.195633
 21
448.983826
  0
ARC
  8
0
  6
CONTINUOUS
 10
211.025269
 20
450.277924
 40
5.000000
 50
195.000000
 51
270.000000
  0
ARC
  8
0
  6
CONTINUOUS
 10
198.260956
 20
459.277924
 40
5.000000
 50
15.000000
 51
90.000000
  0
LINE
  8
0
  6
CONTINUOUS
 10
198.260956
 20
336.277924
 11
195.688629
 21
336.277924
  0
LINE
  8
0
  6
CONTINUOUS
 10
203.090591
 20
339.983826
 11
206.195633
 21
351.572021
  0
ARC
  8
0
  6
CONTINUOUS
 10
198.260956
 20
341.277924
 40
5.000000
 50
-90.000000
 51
-15.000000
  0
ARC
  8
0
  6
CONTINUOUS
 10
211.025269
 20
350.277924
 40
5.000000
 50
-270.000000
 51
-195.000000
  0
LINE
  8
0
  6
CONTINUOUS
 10
207.688431
 20
400.277924
 11
208.422455
 21
442.330292
  0
LINE
  8
0
  6
CONTINUOUS
 10
207.688431
 20
400.277924
 11
208.422455
 21
358.225586
  0
ARC
  8
0
  6
CONTINUOUS
 10
211.421997
 20
442.277924
 40
3.000000
 50
90.000000
 51
179.000000
  0
ARC
  8
0
  6
CONTINUOUS
 10
211.421997
 20
358.277924
 40
3.000000
 50
-179.000000
 51
-90.000000
  0
ARC
  8
0
  6
CONTINUOUS
 10
334.432617
 20
450.277924
 40
5.000000
 50
16.172159
 51
90.000000
  0
ARC
  8
0
  6
CONTINUOUS
 10
344.844635
 20
450.277924
 40
5.000000
 50
196.172165
 51
270.000000
  0
LINE
  8
0
  6
CONTINUOUS
 10
341.088623
 20
445.277924
 11
341.091858
 21
445.266846
  0
ARC
  8
0
  6
CONTINUOUS
 10
248.429825
 20
457.277924
 40
5.000000
 50
90.000000
 51
163.610458
  0
LINE
  8
0
  6
CONTINUOUS
 10
243.632996
 20
458.688751
 11
242.629807
 21
455.277924
  0
LINE
  8
0
  6
CONTINUOUS
 10
228.142487
 20
451.670563
 11
227.334778
 21
448.885315
  0
LINE
  8
0
  6
CONTINUOUS
 10
232.944641
 20
455.277924
 11
242.629807
 21
455.277924
  0
ARC
  8
0
  6
CONTINUOUS
 10
232.944641
 20
450.277924
 40
5.000000
 50
90.000000
 51
163.827835
  0
ARC
  8
0
  6
CONTINUOUS
 10
222.532623
 20
450.277924
 40
5.000000
 50
-90.000000
 51
-16.172159
  0
LINE
  8
0
  6
CONTINUOUS
 10
226.288635
 20
445.277924
 11
226.285416
 21
445.266846
  0
ARC
  8
0
  6
CONTINUOUS
 10
236.188629
 20
340.277924
 40
6.500000
 50
-231.240692
 51
50.284863
  0
LINE
  8
0
  6
CENTER
 10
246.064957
 20
340.277924
 11
227.127457
 21
340.277924
  0
ARC
  8
0
  6
CONTINUOUS
 10
248.429825
 20
343.277924
 40
5.000000
 50
196.389542
 51
270.000000
  0
LINE
  8
0
  6
CONTINUOUS
 10
243.632996
 20
341.867096
 11
242.629807
 21
345.277924
  0
LINE
  8
0
  6
CONTINUOUS
 10
228.142487
 20
348.885315
 11
227.334778
 21
351.670563
  0
LINE
  8
0
  6
CONTINUOUS
 10
232.944641
 20
345.277924
 11
242.629807
 21
345.277924
  0
ARC
  8
0
  6
CONTINUOUS
 10
232.944641
 20
350.277924
 40
5.000000
 50
-163.827835
 51
-90.000000
  0
ARC
  8
0
  6
CONTINUOUS
 10
222.532623
 20
350.277924
 40
5.000000
 50
16.172159
 51
90.000000
  0
LINE
  8
0
  6
CONTINUOUS
 10
226.288635
 20
355.277924
 11
226.285416
 21
355.289032
  0
LINE
  8
0
  6
CENTER
 10
236.188629
 20
349.430267
 11
236.188629
 21
329.930267
  0
LINE
  8
0
  6
CONTINUOUS
 10
323.744263
 20
341.867096
 11
324.747467
 21
345.277924
  0
ARC
  8
0
  6
CONTINUOUS
 10
318.947449
 20
343.277924
 40
5.000000
 50
-90.000000
 51
-16.389540
  0
LINE
  8
0
  6
CONTINUOUS
 10
339.234772
 20
348.885315
 11
340.042480
 21
351.670563
  0
LINE
  8
0
  6
CONTINUOUS
 10
334.432617
 20
345.277924
 11
324.747467
 21
345.277924
  0
LINE
  8
0
  6
CENTER
 10
321.312317
 20
340.277924
 11
340.249817
 21
340.277924
  0
LINE
  8
0
  6
CENTER
 10
331.188629
 20
349.430267
 11
331.188629
 21
329.930267
  0
ARC
  8
0
  6
CONTINUOUS
 10
331.188629
 20
340.277924
 40
6.500000
 50
-230.284866
 51
51.240688
  0
ARC
  8
0
  6
CONTINUOUS
 10
334.432617
 20
350.277924
 40
5.000000
 50
-90.000000
 51
-16.172159
  0
ARC
  8
0
  6
CONTINUOUS
 10
344.844635
 20
350.277924
 40
5.000000
 50
-270.000000
 51
-196.172165
  0
LINE
  8
0
  6
CONTINUOUS
 10
341.088623
 20
355.277924
 11
341.091858
 21
355.289032
  0
LINE
  8
0
  6
CENTER
 10
283.688629
 20
229.516174
 11
283.688629
 21
-8.412880
  0
LINE
  8
0
  6
CENTER
 10
219.804031
 20
142.220001
 11
336.373627
 21
142.220001
  0
LINE
  8
0
  6
CENTER
 10
331.188629
 20
27.495440
 11
331.188629
 21
-6.369300
  0
LINE
  8
0
  6
CENTER
 10
236.188629
 20
27.495440
 11
236.188629
 21
-6.661240
  0
LINE
  8
0
  6
CONTINUOUS
 10
207.688629
 20
2.220000
 11
359.688629
 21
2.220000
  0
LINE
  8
0
  6
CONTINUOUS
 10
207.688629
 20
20.219999
 11
359.688629
 21
20.219999
  0
LINE
  8
0
  6
CONTINUOUS
 10
359.688629
 20
170.525558
 11
359.688629
 21
2.220000
  0
LINE
  8
0
  6
CONTINUOUS
 10
207.688629
 20
165.720001
 11
207.688629
 21
170.525558
  0
LINE
  8
0
  6
CONTINUOUS
 10
257.185242
 20
207.220001
 11
310.192047
 21
207.220001
  0
LINE
  8
0
  6
CONTINUOUS
 10
202.688629
 20
161.220001
 11
195.688629
 21
161.220001
  0
LINE
  8
0
  6
CONTINUOUS
 10
202.688629
 20
33.220001
 11
195.688629
 21
33.220001
  0
LINE
  8
0
  6
CONTINUOUS
 10
356.238617
 20
177.105621
 11
314.742035
 21
205.800064
  0
LINE
  8
0
  6
CONTINUOUS
 10
211.138596
 20
177.105621
 11
252.635239
 21
205.800064
  0
ARC
  8
0
  6
CONTINUOUS
 10
310.192047
 20
199.220001
 40
8.000000
 50
55.336689
 51
90.000000
  0
ARC
  8
0
  6
CONTINUOUS
 10
351.688629
 20
170.525513
 40
8.000000
 50
0.000000
 51
55.336739
  0
ARC
  8
0
  6
CONTINUOUS
 10
257.185242
 20
199.220001
 40
8.000000
 50
90.000000
 51
124.663696
  0
ARC
  8
0
  6
CONTINUOUS
 10
215.688629
 20
170.525604
 40
8.000000
 50
124.663803
 51
180.000000
  0
LINE
  8
0
  6
CONTINUOUS
 10
207.688629
 20
28.719999
 11
207.688629
 21
2.220000
  0
ARC
  8
0
  6
CONTINUOUS
 10
202.688614
 20
166.220001
 40
5.000000
 50
-90.000000
 51
0.000000
  0
LINE
  8
0
  6
CONTINUOUS
 10
207.688629
 20
28.719999
 11
207.688629
 21
165.720001
  0
ARC
  8
0
  6
CONTINUOUS
 10
202.688644
 20
28.219980
 40
5.000000
 50
0.000000
 51
90.000000
  0
LINE
  8
0
  6
DASHED
 10
229.688629
 20
20.219999
 11
229.688629
 21
2.220000
  0
LINE
  8
0
  6
DASHED
 10
242.688629
 20
20.219999
 11
242.688629
 21
2.220000
  0
LINE
  8
0
  6
DASHED
 10
324.688629
 20
20.219999
 11
324.688629
 21
2.220000
  0
LINE
  8
0
  6
DASHED
 10
337.688629
 20
20.219999
 11
337.688629
 21
2.220000
  0
CIRCLE
  8
0
  6
CONTINUOUS
 10
283.688629
 20
142.220001
 40
39.000000
  0
ARC
  8
0
  6
CONTINUOUS
 10
283.688629
 20
142.220001
 40
44.000000
 50
12.523240
 51
167.476898
  0
ARC
  8
0
  6
CONTINUOUS
 10
258.188629
 20
83.220001
 40
29.000000
 50
167.476898
 51
270.000000
  0
ARC
  8
0
  6
CONTINUOUS
 10
309.188629
 20
83.220001
 40
29.000000
 50
-90.000000
 51
12.523240
  0
ARC
  8
0
  6
CONTINUOUS
 10
258.188629
 20
83.220001
 40
31.900000
 50
167.476898
 51
270.000000
  0
ARC
  8
0
  6
CONTINUOUS
 10
309.188629
 20
83.220001
 40
31.900000
 50
-90.000000
 51
12.523240
  0
ARC
  8
0
  6
CONTINUOUS
 10
283.688629
 20
142.220001
 40
41.099998
 50
-192.523102
 51
12.523240
  0
LINE
  8
0
  6
CONTINUOUS
 10
227.047638
 20
90.137001
 11
240.735428
 21
151.760696
  0
LINE
  8
0
  6
CONTINUOUS
 10
229.878632
 20
89.508186
 11
243.566437
 21
151.131882
  0
LINE
  8
0
  6
CONTINUOUS
 10
258.188629
 20
51.320000
 11
309.188629
 21
51.320000
  0
LINE
  8
0
  6
CONTINUOUS
 10
309.188629
 20
54.220001
 11
258.188629
 21
54.220001
  0
LINE
  8
0
  6
CONTINUOUS
 10
326.641846
 20
151.760773
 11
340.329620
 21
90.137062
  0
LINE
  8
0
  6
CONTINUOUS
 10
323.810822
 20
151.131958
 11
337.498627
 21
89.508240
  0
LINE
  8
0
  6
CONTINUOUS
 10
271.461639
 20
66.220001
 11
266.521240
 21
66.220001
  0
LINE
  8
0
  6
CONTINUOUS
 10
274.188629
 20
74.495399
 11
274.188629
 21
66.220001
  0
LINE
  8
0
  6
CONTINUOUS
 10
278.938629
 20
77.501251
 11
278.938629
 21
80.470001
  0
LINE
  8
0
  6
CONTINUOUS
 10
288.438629
 20
77.501251
 11
288.438629
 21
80.470001
  0
LINE
  8
0
  6
CONTINUOUS
 10
282.760834
 20
78.725861
 11
282.760834
 21
67.778603
  0
LINE
  8
0
  6
CONTINUOUS
 10
284.542236
 20
78.725861
 11
284.542236
 21
67.778603
  0
LINE
  8
0
  6
CONTINUOUS
 10
293.893829
 20
78.725861
 11
293.893829
 21
67.704376
  0
LINE
  8
0
  6
CONTINUOUS
 10
295.526642
 20
72.881142
 11
295.526642
 21
67.704376
  0
LINE
  8
0
  6
CONTINUOUS
 10
271.934631
 20
78.577423
 11
267.357025
 21
78.577423
  0
LINE
  8
0
  6
CONTINUOUS
 10
267.357025
 20
78.577423
 11
266.284424
 21
77.247421
  0
LINE
  8
0
  6
CONTINUOUS
 10
266.413422
 20
80.470001
 11
264.688629
 21
78.261536
  0
LINE
  8
0
  6
CONTINUOUS
 10
266.284424
 20
69.037842
 11
267.374237
 21
67.889923
  0
LINE
  8
0
  6
CONTINUOUS
 10
264.688629
 20
68.069122
 11
266.521240
 21
66.220001
  0
LINE
  8
0
  6
CONTINUOUS
 10
264.688629
 20
78.261536
 11
264.688629
 21
68.069122
  0
LINE
  8
0
  6
CONTINUOUS
 10
266.284424
 20
77.247421
 11
266.284424
 21
69.037842
  0
LINE
  8
0
  6
CONTINUOUS
 10
272.815643
 20
77.725861
 11
271.916626
 21
78.577423
  0
LINE
  8
0
  6
CONTINUOUS
 10
272.801422
 20
80.470001
 11
274.188629
 21
78.930420
  0
LINE
  8
0
  6
CONTINUOUS
 10
272.815643
 20
77.501251
 11
274.188629
 21
77.501251
  0
LINE
  8
0
  6
CONTINUOUS
 10
266.413422
 20
80.470001
 11
272.801422
 21
80.470001
  0
LINE
  8
0
  6
CONTINUOUS
 10
270.329224
 20
74.495399
 11
274.188629
 21
74.495399
  0
LINE
  8
0
  6
CONTINUOUS
 10
272.815643
 20
72.936798
 11
270.329224
 21
72.936798
  0
LINE
  8
0
  6
CONTINUOUS
 10
269.846832
 20
67.889923
 11
267.374237
 21
67.889923
  0
LINE
  8
0
  6
CONTINUOUS
 10
272.815643
 20
71.452423
 11
272.815643
 21
72.639923
  0
ARC
  8
0
  6
CONTINUOUS
 10
269.846832
 20
70.858658
 40
2.968750
 50
-89.999786
 51
0.000109
  0
LINE
  8
0
  6
CONTINUOUS
 10
272.815643
 20
67.355919
 11
272.815643
 21
66.220001
  0
LINE
  8
0
  6
CONTINUOUS
 10
274.188629
 20
78.930420
 11
274.188629
 21
77.501251
  0
LINE
  8
0
  6
CONTINUOUS
 10
272.815643
 20
72.936798
 11
272.815643
 21
70.858658
  0
LINE
  8
0
  6
CONTINUOUS
 10
270.329224
 20
74.495399
 11
270.329224
 21
72.936798
  0
LINE
  8
0
  6
CONTINUOUS
 10
272.815643
 20
66.220001
 11
274.188629
 21
66.220001
  0
LINE
  8
0
  6
CONTINUOUS
 10
272.815643
 20
67.355919
 11
271.461639
 21
66.220001
  0
LINE
  8
0
  6
CONTINUOUS
 10
284.542236
 20
67.778603
 11
285.135834
 21
67.778603
  0
LINE
  8
0
  6
CONTINUOUS
 10
282.055847
 20
67.778603
 11
282.055847
 21
66.220001
  0
LINE
  8
0
  6
CONTINUOUS
 10
285.135834
 20
67.778603
 11
285.135834
 21
66.220001
  0
LINE
  8
0
  6
CONTINUOUS
 10
287.447632
 20
77.501251
 11
288.438629
 21
77.501251
  0
LINE
  8
0
  6
CONTINUOUS
 10
278.938629
 20
77.501251
 11
279.993225
 21
77.501251
  0
LINE
  8
0
  6
CONTINUOUS
 10
278.938629
 20
80.470001
 11
288.438629
 21
80.470001
  0
LINE
  8
0
  6
CONTINUOUS
 10
282.055847
 20
66.220001
 11
285.135834
 21
66.220001
  0
LINE
  8
0
  6
CONTINUOUS
 10
282.055847
 20
67.778603
 11
282.760834
 21
67.778603
  0
ARC
  8
0
  6
CONTINUOUS
 10
298.884827
 20
76.666283
 40
3.803712
 50
-73.981873
 51
90.003510
  0
ARC
  8
0
  6
CONTINUOUS
 10
298.884827
 20
76.666283
 40
2.320524
 50
-82.585274
 51
62.411850
  0
LINE
  8
0
  6
CONTINUOUS
 10
293.188629
 20
80.470001
 11
298.884827
 21
80.470001
  0
LINE
  8
0
  6
CONTINUOUS
 10
299.184418
 20
74.365158
 11
295.526642
 21
74.365158
  0
LINE
  8
0
  6
CONTINUOUS
 10
293.188629
 20
80.470001
 11
293.188629
 21
78.725861
  0
LINE
  8
0
  6
CONTINUOUS
 10
295.526642
 20
78.725861
 11
295.526642
 21
74.365158
  0
LINE
  8
0
  6
CONTINUOUS
 10
299.934418
 20
73.010262
 11
302.288818
 21
67.704376
  0
LINE
  8
0
  6
CONTINUOUS
 10
298.567230
 20
72.881142
 11
300.795227
 21
67.704376
  0
LINE
  8
0
  6
CONTINUOUS
 10
293.188629
 20
67.704376
 11
293.893829
 21
67.704376
  0
LINE
  8
0
  6
CONTINUOUS
 10
295.526642
 20
67.704376
 11
296.176025
 21
67.704376
  0
LINE
  8
0
  6
CONTINUOUS
 10
296.176025
 20
66.220001
 11
293.188629
 21
66.220001
  0
LINE
  8
0
  6
CONTINUOUS
 10
300.499237
 20
67.704376
 11
300.795227
 21
67.704376
  0
LINE
  8
0
  6
CONTINUOUS
 10
302.288818
 20
67.704376
 11
302.688629
 21
67.704376
  0
LINE
  8
0
  6
CONTINUOUS
 10
300.499237
 20
66.220001
 11
302.688629
 21
66.220001
  0
LINE
  8
0
  6
CONTINUOUS
 10
302.688629
 20
67.704376
 11
302.688629
 21
66.220001
  0
LINE
  8
0
  6
CONTINUOUS
 10
300.499237
 20
67.704376
 11
300.499237
 21
66.220001
  0
LINE
  8
0
  6
CONTINUOUS
 10
296.176025
 20
67.704376
 11
296.176025
 21
66.220001
  0
LINE
  8
0
  6
CONTINUOUS
 10
293.188629
 20
67.704376
 11
293.188629
 21
66.220001
  0
LINE
  8
0
  6
CONTINUOUS
 10
280.503418
 20
78.725861
 11
279.993225
 21
77.501251
  0
LINE
  8
0
  6
CONTINUOUS
 10
287.017426
 20
78.725861
 11
287.447632
 21
77.501251
  0
LINE
  8
0
  6
CONTINUOUS
 10
284.542236
 20
78.725861
 11
287.017426
 21
78.725861
  0
LINE
  8
0
  6
CONTINUOUS
 10
282.760834
 20
78.725861
 11
280.503418
 21
78.725861
  0
LINE
  8
0
  6
CONTINUOUS
 10
295.526642
 20
72.881142
 11
298.567230
 21
72.881142
  0
LINE
  8
0
  6
CONTINUOUS
 10
293.188629
 20
78.725861
 11
293.893829
 21
78.725861
  0
LINE
  8
0
  6
CONTINUOUS
 10
295.526642
 20
78.725861
 11
299.959625
 21
78.722977
  0
LINE
  8
0
  6
CONTINUOUS
 10
272.815643
 20
77.725861
 11
272.815643
 21
77.501251
  0
ARC
  8
0
  6
CONTINUOUS
 10
387.397430
 20
97.220001
 40
185.208893
 50
166.001907
 51
193.998093
  0
LINE
  8
0
  6
CONTINUOUS
 10
221.688629
 20
18.153440
 11
221.688629
 21
2.220000
  0
LINE
  8
0
  6
CONTINUOUS
 10
345.688629
 20
18.153440
 11
345.688629
 21
2.220000
  0
LINE
  8
0
  6
CONTINUOUS
 10
307.446045
 20
25.219999
 11
259.931244
 21
25.219999
  0
LINE
  8
0
  6
CONTINUOUS
 10
258.688629
 20
24.284121
 11
258.688629
 21
21.219999
  0
LINE
  8
0
  6
CONTINUOUS
 10
309.567230
 20
24.341320
 11
312.224243
 21
21.684460
  0
LINE
  8
0
  6
CONTINUOUS
 10
257.810028
 20
24.341320
 11
255.153229
 21
21.684500
  0
LINE
  8
0
  6
CONTINUOUS
 10
308.688629
 20
24.284121
 11
308.688629
 21
21.219999
  0
ARC
  8
0
  6
CONTINUOUS
 10
251.617630
 20
25.219999
 40
5.000000
 50
270.000000
 51
315.000092
  0
ARC
  8
0
  6
CONTINUOUS
 10
259.931244
 20
22.219999
 40
3.000000
 50
90.000000
 51
135.000305
  0
ARC
  8
0
  6
CONTINUOUS
 10
257.688629
 20
21.219999
 40
1.000000
 50
-90.000000
 51
0.000000
  0
ARC
  8
0
  6
CONTINUOUS
 10
315.759644
 20
25.219999
 40
5.000000
 50
225.000000
 51
270.000000
  0
ARC
  8
0
  6
CONTINUOUS
 10
307.446045
 20
22.219999
 40
3.000000
 50
45.000160
 51
90.000000
  0
ARC
  8
0
  6
CONTINUOUS
 10
309.688629
 20
21.219999
 40
1.000000
 50
180.000000
 51
270.000000
  0
LINE
  8
0
  6
CONTINUOUS
 10
294.688629
 20
137.220047
 11
294.688629
 21
147.220047
  0
LINE
  8
0
  6
CONTINUOUS
 10
302.688629
 20
137.220062
 11
302.688629
 21
147.220062
  0
LINE
  8
0
  6
CONTINUOUS
 10
302.688629
 20
137.220062
 11
294.688629
 21
137.220047
  0
LINE
  8
0
  6
CONTINUOUS
 10
302.688629
 20
147.220062
 11
294.688629
 21
147.220047
  0
ARC
  8
0
  6
CONTINUOUS
 10
283.688629
 20
142.220001
 40
16.000000
 50
18.209900
 51
341.790100
  0
LINE
  8
0
  6
CENTER
 10
561.837524
 20
-12.900000
 11
561.837524
 21
238.945587
  0
LINE
  8
0
  6
CENTER
 10
481.250122
 20
97.220001
 11
641.620117
 21
97.220001
  0
LINE
  8
0
  6
CENTER
 10
427.187500
 20
142.220001
 11
696.014526
 21
142.220001
  0
LINE
  8
0
  6
CENTER
 10
621.837524
 20
28.818741
 11
621.837524
 21
-9.080380
  0
LINE
  8
0
  6
CENTER
 10
501.837494
 20
28.818741
 11
501.837494
 21
-9.080380
  0
LINE
  8
0
  6
CONTINUOUS
 10
486.837494
 20
2.220000
 11
531.837524
 21
2.220000
  0
LINE
  8
0
  6
CONTINUOUS
 10
591.837524
 20
2.220000
 11
636.837524
 21
2.220000
  0
LINE
  8
0
  6
CONTINUOUS
 10
634.337524
 20
20.219999
 11
610.837524
 21
20.219999
  0
LINE
  8
0
  6
CONTINUOUS
 10
489.337494
 20
20.219999
 11
512.837524
 21
20.219999
  0
LINE
  8
0
  6
CONTINUOUS
 10
606.837524
 20
203.486755
 11
606.837524
 21
2.220000
  0
LINE
  8
0
  6
CONTINUOUS
 10
516.837524
 20
189.961197
 11
516.837524
 21
203.486282
  0
LINE
  8
0
  6
CONTINUOUS
 10
636.837524
 20
18.102180
 11
636.837524
 21
2.220000
  0
LINE
  8
0
  6
CONTINUOUS
 10
486.837494
 20
18.102180
 11
486.837494
 21
2.220000
  0
LINE
  8
0
  6
CONTINUOUS
 10
533.337524
 20
3.720000
 11
590.337524
 21
3.720000
  0
LINE
  8
0
  6
CONTINUOUS
 10
603.889893
 20
206.486298
 11
561.837524
 21
207.220001
  0
LINE
  8
0
  6
CONTINUOUS
 10
519.785095
 20
206.485825
 11
561.837524
 21
207.220001
  0
LINE
  8
0
  6
CONTINUOUS
 10
499.837494
 20
106.961197
 11
499.837494
 21
177.478821
  0
LINE
  8
0
  6
CONTINUOUS
 10
623.837524
 20
106.961197
 11
623.837524
 21
177.478821
  0
LINE
  8
0
  6
CONTINUOUS
 10
506.837494
 20
57.976002
 11
506.837494
 21
146.130402
  0
LINE
  8
0
  6
CONTINUOUS
 10
616.837524
 20
57.976021
 11
616.837524
 21
146.130402
  0
LINE
  8
0
  6
DASHED
 10
628.337524
 20
20.219999
 11
628.337524
 21
2.220000
  0
LINE
  8
0
  6
DASHED
 10
615.337524
 20
20.219999
 11
615.337524
 21
2.220000
  0
LINE
  8
0
  6
DASHED
 10
508.337494
 20
20.219999
 11
508.337494
 21
2.220000
  0
LINE
  8
0
  6
DASHED
 10
495.337494
 20
20.219999
 11
495.337494
 21
2.220000
  0
ARC
  8
0
  6
CONTINUOUS
 10
519.837524
 20
203.486282
 40
3.000000
 50
91.000603
 51
180.000000
  0
ARC
  8
0
  6
CONTINUOUS
 10
603.837524
 20
203.486740
 40
3.000000
 50
0.000000
 51
89.000580
  0
LINE
  8
0
  6
CONTINUOUS
 10
513.248291
 20
185.164352
 11
503.426697
 21
182.275620
  0
LINE
  8
0
  6
CONTINUOUS
 10
503.426697
 20
102.164368
 11
503.966095
 21
102.005692
  0
LINE
  8
0
  6
CONTINUOUS
 10
510.444885
 20
53.173859
 11
513.230103
 21
52.366138
  0
LINE
  8
0
  6
CONTINUOUS
 10
488.926514
 20
20.568159
 11
514.330688
 21
24.802200
  0
LINE
  8
0
  6
CONTINUOUS
 10
634.748474
 20
20.568180
 11
609.344299
 21
24.802219
  0
LINE
  8
0
  6
CONTINUOUS
 10
613.230103
 20
53.173859
 11
610.444885
 21
52.366138
  0
LINE
  8
0
  6
CONTINUOUS
 10
620.248291
 20
102.164368
 11
619.708923
 21
102.005684
  0
LINE
  8
0
  6
CONTINUOUS
 10
620.248291
 20
182.275635
 11
610.426697
 21
185.164352
  0
LINE
  8
0
  6
CONTINUOUS
 10
519.411926
 20
174.720001
 11
604.090088
 21
174.720001
  0
ARC
  8
0
  6
CONTINUOUS
 10
504.837494
 20
177.478836
 40
5.000000
 50
106.389900
 51
180.000000
  0
ARC
  8
0
  6
CONTINUOUS
 10
618.837524
 20
177.478806
 40
5.000000
 50
0.000000
 51
73.610527
  0
ARC
  8
0
  6
CONTINUOUS
 10
504.837494
 20
106.961227
 40
5.000000
 50
180.000000
 51
253.610794
  0
ARC
  8
0
  6
CONTINUOUS
 10
618.837524
 20
106.961182
 40
5.000000
 50
-73.610321
 51
0.000000
  0
ARC
  8
0
  6
CONTINUOUS
 10
611.837524
 20
57.976002
 40
5.000000
 50
-73.827698
 51
0.000000
  0
ARC
  8
0
  6
CONTINUOUS
 10
511.837494
 20
57.976040
 40
5.000000
 50
180.000000
 51
253.828201
  0
LINE
  8
0
  6
CONTINUOUS
 10
516.837524
 20
189.961197
 11
516.837524
 21
2.220000
  0
ARC
  8
0
  6
CONTINUOUS
 10
511.837494
 20
189.961182
 40
5.000000
 50
-73.610229
 51
0.000000
  0
ARC
  8
0
  6
CONTINUOUS
 10
502.837494
 20
98.168213
 40
4.000000
 50
0.000000
 51
73.610649
  0
ARC
  8
0
  6
CONTINUOUS
 10
511.837494
 20
47.563980
 40
5.000000
 50
0.000000
 51
73.827919
  0
ARC
  8
0
  6
CONTINUOUS
 10
611.837524
 20
47.564018
 40
5.000000
 50
106.172501
 51
180.000000
  0
ARC
  8
0
  6
CONTINUOUS
 10
620.837524
 20
98.168251
 40
4.000000
 50
106.389999
 51
180.000000
  0
ARC
  8
0
  6
CONTINUOUS
 10
611.837524
 20
189.961227
 40
5.000000
 50
180.000000
 51
253.610794
  0
ARC
  8
0
  6
CONTINUOUS
 10
513.837524
 20
27.761379
 40
3.000000
 50
-80.537483
 51
0.000000
  0
ARC
  8
0
  6
CONTINUOUS
 10
512.837524
 20
24.219959
 40
4.000000
 50
-90.000000
 51
0.000000
  0
ARC
  8
0
  6
CONTINUOUS
 10
489.337494
 20
17.720020
 40
2.500000
 50
90.000000
 51
180.000000
  0
LINE
  8
0
  6
CONTINUOUS
 10
531.837524
 20
2.220000
 11
533.337524
 21
3.720000
  0
LINE
  8
0
  6
CONTINUOUS
 10
591.837524
 20
2.220000
 11
590.337524
 21
3.720000
  0
ARC
  8
0
  6
CONTINUOUS
 10
609.837524
 20
27.761419
 40
3.000000
 50
180.000000
 51
260.537903
  0
ARC
  8
0
  6
CONTINUOUS
 10
610.837524
 20
24.219999
 40
4.000000
 50
180.000000
 51
270.000000
  0
ARC
  8
0
  6
CONTINUOUS
 10
634.337524
 20
17.719999
 40
2.500000
 50
0.000000
 51
90.000000
  0
LINE
  8
0
  6
CONTINUOUS
 10
681.837524
 20
126.220001
 11
681.837524
 21
158.220001
  0
LINE
  8
0
  6
CONTINUOUS
 10
626.837524
 20
158.220001
 11
681.837524
 21
158.220001
  0
LINE
  8
0
  6
CONTINUOUS
 10
626.837524
 20
126.220001
 11
681.837524
 21
126.220001
  0
LINE
  8
0
  6
CONTINUOUS
 10
626.837524
 20
159.720001
 11
626.837524
 21
124.720001
  0
LINE
  8
0
  6
CONTINUOUS
 10
623.837524
 20
159.720001
 11
626.837524
 21
159.720001
  0
LINE
  8
0
  6
CONTINUOUS
 10
623.837524
 20
124.720001
 11
626.837524
 21
124.720001
  0
ARC
  8
0
  6
CONTINUOUS
 10
636.837524
 20
142.220001
 40
5.000000
 50
90.000000
 51
270.000000
  0
LINE
  8
0
  6
CONTINUOUS
 10
636.837524
 20
147.220001
 11
681.837524
 21
147.220001
  0
LINE
  8
0
  6
CONTINUOUS
 10
636.837524
 20
137.220001
 11
681.837524
 21
137.220001
  0
LINE
  8
0
  6
CONTINUOUS
 10
441.837494
 20
126.220001
 11
441.837494
 21
158.220001
  0
LINE
  8
0
  6
CONTINUOUS
 10
496.837494
 20
158.220001
 11
441.837494
 21
158.220001
  0
LINE
  8
0
  6
CONTINUOUS
 10
496.837494
 20
126.220001
 11
441.837494
 21
126.220001
  0
LINE
  8
0
  6
CONTINUOUS
 10
496.837494
 20
159.720001
 11
496.837494
 21
124.720001
  0
LINE
  8
0
  6
CONTINUOUS
 10
499.837494
 20
159.720001
 11
496.837494
 21
159.720001
  0
LINE
  8
0
  6
CONTINUOUS
 10
499.837494
 20
124.720001
 11
496.837494
 21
124.720001
  0
ARC
  8
0
  6
CONTINUOUS
 10
486.837494
 20
142.220001
 40
5.000000
 50
-90.000000
 51
90.000000
  0
LINE
  8
0
  6
CONTINUOUS
 10
486.837494
 20
147.220001
 11
441.837494
 21
147.220001
  0
LINE
  8
0
  6
CONTINUOUS
 10
486.837494
 20
137.220001
 11
441.837494
 21
137.220001
  0
ARC
  8
0
  6
CONTINUOUS
 10
489.337494
 20
18.102200
 40
2.500000
 50
99.462753
 51
180.000000
  0
ARC
  8
0
  6
CONTINUOUS
 10
634.337524
 20
18.102180
 40
2.500000
 50
0.000000
 51
80.537682
  0
LINE
  8
0
  6
CONTINUOUS
 10
195.688629
 20
161.220001
 11
195.688629
 21
33.220001
  0
ARC
  8
0
  6
CONTINUOUS
 10
561.837524
 20
97.220001
 40
64.000000
 50
165.638489
 51
210.753525
  0
ARC
  8
0
  6
CONTINUOUS
 10
561.837524
 20
97.220001
 40
64.000000
 50
-30.753519
 51
14.361512
  0
ARC
  8
0
  6
CONTINUOUS
 10
520.825317
 20
56.207779
 40
8.000000
 50
211.001404
 51
233.216995
  0
ARC
  8
0
  6
CONTINUOUS
 10
514.837524
 20
48.198662
 40
2.000000
 50
30.947910
 51
53.217121
  0
ARC
  8
0
  6
CONTINUOUS
 10
602.849670
 20
56.207779
 40
8.000000
 50
-53.216999
 51
-31.001400
  0
ARC
  8
0
  6
CONTINUOUS
 10
608.837524
 20
48.198662
 40
2.000000
 50
126.782883
 51
149.052094
  0
LINE
  8
0
  6
CENTER
 10
-15.934219
 20
84.220001
 11
240.574997
 21
84.220001
  0
LINE
  8
0
  6
CENTER
 10
111.495934
 20
97.220001
 11
240.574997
 21
97.220001
  0
LINE
  8
0
  6
CONTINUOUS
 10
187.188629
 20
338.277924
 11
187.188629
 21
462.277924
  0
LINE
  8
0
  6
CONTINUOUS
 10
141.188629
 20
445.277924
 11
184.752243
 21
446.799194
  0
LINE
  8
0
  6
CONTINUOUS
 10
141.188629
 20
355.277924
 11
184.752243
 21
353.756653
  0
LINE
  8
0
  6
CONTINUOUS
 10
141.188629
 20
449.289917
 11
141.188629
 21
351.265930
  0
LINE
  8
0
  6
CONTINUOUS
 10
189.188629
 20
464.277924
 11
195.688629
 21
464.277924
  0
LINE
  8
0
  6
CONTINUOUS
 10
189.188629
 20
336.277924
 11
195.688629
 21
336.277924
  0
LINE
  8
0
  6
CONTINUOUS
 10
180.045639
 20
424.277924
 11
187.160614
 21
424.277924
  0
LINE
  8
0
  6
CONTINUOUS
 10
180.650787
 20
376.277924
 11
187.160614
 21
376.277924
  0
LINE
  8
0
  6
CONTINUOUS
 10
180.045639
 20
422.073425
 11
180.045639
 21
378.360840
  0
LINE
  8
0
  6
CONTINUOUS
 10
132.188629
 20
443.277924
 11
132.188629
 21
429.277924
  0
LINE
  8
0
  6
CONTINUOUS
 10
22.188631
 20
445.277924
 11
141.188629
 21
445.277924
  0
LINE
  8
0
  6
CONTINUOUS
 10
22.188631
 20
355.277924
 11
141.188629
 21
355.277924
  0
LINE
  8
0
  6
CONTINUOUS
 10
22.188631
 20
445.277924
 11
22.188631
 21
425.277924
  0
LINE
  8
0
  6
CONTINUOUS
 10
22.188631
 20
429.277924
 11
132.188629
 21
429.277924
  0
LINE
  8
0
  6
CONTINUOUS
 10
22.188631
 20
371.277924
 11
132.188629
 21
371.277924
  0
ARC
  8
0
  6
CONTINUOUS
 10
134.188629
 20
443.277954
 40
2.000000
 50
90.000000
 51
180.000000
  0
ARC
  8
0
  6
CONTINUOUS
 10
134.188629
 20
357.277924
 40
2.000000
 50
180.000000
 51
270.000000
  0
LINE
  8
0
  6
CONTINUOUS
 10
1.688632
 20
365.277924
 11
1.688632
 21
435.277924
  0
LINE
  8
0
  6
CONTINUOUS
 10
6.230074
 20
445.277924
 11
22.188631
 21
445.277924
  0
LINE
  8
0
  6
CONTINUOUS
 10
2.188632
 20
442.277924
 11
2.188632
 21
358.277924
  0
LINE
  8
0
  6
CONTINUOUS
 10
22.188631
 20
429.277924
 11
3.938632
 21
429.277924
  0
LINE
  8
0
  6
CONTINUOUS
 10
2.765978
 20
443.277924
 11
2.188632
 21
442.277924
  0
ARC
  8
0
  6
CONTINUOUS
 10
6.230090
 20
441.277924
 40
4.000000
 50
90.000000
 51
150.000397
  0
LINE
  8
0
  6
CONTINUOUS
 10
6.230074
 20
355.277924
 11
22.188631
 21
355.277924
  0
LINE
  8
0
  6
CONTINUOUS
 10
22.188631
 20
371.277924
 11
3.938632
 21
371.277924
  0
LINE
  8
0
  6
CONTINUOUS
 10
2.765978
 20
357.277924
 11
2.188632
 21
358.277924
  0
ARC
  8
0
  6
CONTINUOUS
 10
6.230090
 20
359.277924
 40
4.000000
 50
-150.000397
 51
-90.000000
  0
LINE
  8
0
  6
CONTINUOUS
 10
1.688632
 20
435.277924
 11
2.188632
 21
435.777924
  0
LINE
  8
0
  6
CONTINUOUS
 10
1.688632
 20
365.277924
 11
2.188632
 21
364.777924
  0
LINE
  8
0
  6
CONTINUOUS
 10
141.188629
 20
445.277924
 11
141.188629
 21
355.277924
  0
ARC
  8
0
  6
CONTINUOUS
 10
189.188629
 20
462.277924
 40
2.000000
 50
90.000000
 51
180.000000
  0
ARC
  8
0
  6
CONTINUOUS
 10
189.188629
 20
338.277924
 40
2.000000
 50
180.000000
 51
270.000000
  0
ARC
  8
0
  6
CONTINUOUS
 10
184.665009
 20
449.297668
 40
2.500000
 50
272.000000
 51
359.895721
  0
ARC
  8
0
  6
CONTINUOUS
 10
184.665009
 20
351.258179
 40
2.500000
 50
0.104292
 51
88.000000
  0
LINE
  8
0
  6
CONTINUOUS
 10
187.188629
 20
446.884277
 11
187.160614
 21
446.883301
  0
LINE
  8
0
  6
CONTINUOUS
 10
141.688324
 20
449.807373
 11
187.188629
 21
451.396271
  0
LINE
  8
0
  6
CONTINUOUS
 10
141.188629
 20
449.289917
 11
141.688324
 21
449.807373
  0
LINE
  8
0
  6
CONTINUOUS
 10
141.688324
 20
350.748474
 11
187.188629
 21
349.159576
  0
LINE
  8
0
  6
CONTINUOUS
 10
141.188629
 20
351.265930
 11
141.688324
 21
350.748474
  0
LINE
  8
0
  6
CONTINUOUS
 10
22.188631
 20
375.277924
 11
22.188631
 21
355.277924
  0
LINE
  8
0
  6
CONTINUOUS
 10
132.188629
 20
127.220001
 11
132.188629
 21
41.219978
  0
LINE
  8
0
  6
CONTINUOUS
 10
22.188631
 20
129.220001
 11
141.188629
 21
129.220001
  0
LINE
  8
0
  6
CONTINUOUS
 10
22.188631
 20
39.220001
 11
141.188629
 21
39.220001
  0
LINE
  8
0
  6
CONTINUOUS
 10
22.188631
 20
129.220001
 11
22.188631
 21
39.220001
  0
LINE
  8
0
  6
CONTINUOUS
 10
22.188631
 20
118.629303
 11
131.150955
 21
118.629303
  0
LINE
  8
0
  6
CONTINUOUS
 10
22.188631
 20
49.810699
 11
131.150955
 21
49.810699
  0
ARC
  8
0
  6
CONTINUOUS
 10
134.188629
 20
127.220016
 40
2.000000
 50
90.000000
 51
180.000000
  0
ARC
  8
0
  6
CONTINUOUS
 10
134.188629
 20
41.220001
 40
2.000000
 50
180.000000
 51
270.000000
  0
LINE
  8
0
  6
CONTINUOUS
 10
1.688632
 20
49.220001
 11
1.688632
 21
119.220001
  0
LINE
  8
0
  6
CONTINUOUS
 10
6.230074
 20
129.220001
 11
22.188631
 21
129.220001
  0
LINE
  8
0
  6
CONTINUOUS
 10
2.188632
 20
126.220001
 11
2.188632
 21
42.220001
  0
LINE
  8
0
  6
CONTINUOUS
 10
22.188631
 20
118.629303
 11
3.938632
 21
118.629303
  0
LINE
  8
0
  6
CONTINUOUS
 10
2.765978
 20
127.219978
 11
2.188632
 21
126.220001
  0
ARC
  8
0
  6
CONTINUOUS
 10
6.230090
 20
125.220001
 40
4.000000
 50
90.000000
 51
150.000397
  0
LINE
  8
0
  6
CONTINUOUS
 10
6.230074
 20
39.220001
 11
22.188631
 21
39.220001
  0
LINE
  8
0
  6
CONTINUOUS
 10
22.188631
 20
49.810699
 11
3.938632
 21
49.810699
  0
LINE
  8
0
  6
CONTINUOUS
 10
2.765978
 20
41.220001
 11
2.188632
 21
42.220001
  0
ARC
  8
0
  6
CONTINUOUS
 10
6.230090
 20
43.219978
 40
4.000000
 50
-150.000397
 51
-90.000000
  0
LINE
  8
0
  6
CONTINUOUS
 10
1.688632
 20
119.220001
 11
2.188632
 21
119.720001
  0
LINE
  8
0
  6
CONTINUOUS
 10
1.688632
 20
49.220001
 11
2.188632
 21
48.720001
  0
LINE
  8
0
  6
CONTINUOUS
 10
189.188629
 20
161.220108
 11
195.688629
 21
161.220108
  0
LINE
  8
0
  6
CONTINUOUS
 10
189.188629
 20
33.219902
 11
195.688629
 21
33.219902
  0
LINE
  8
0
  6
CONTINUOUS
 10
141.188629
 20
129.220001
 11
187.188629
 21
130.826355
  0
LINE
  8
0
  6
CONTINUOUS
 10
195.688629
 20
37.316818
 11
141.188629
 21
39.220001
  0
ARC
  8
0
  6
CONTINUOUS
 10
189.188644
 20
159.220123
 40
2.000000
 50
90.000000
 51
180.000000
  0
ARC
  8
0
  6
CONTINUOUS
 10
189.188629
 20
35.219902
 40
2.000000
 50
180.260773
 51
270.000000
  0
LINE
  8
0
  6
CONTINUOUS
 10
141.188629
 20
129.220001
 11
141.188629
 21
39.220001
  0
LINE
  8
0
  6
CONTINUOUS
 10
186.456406
 20
136.987762
 11
180.741882
 21
131.273254
  0
LINE
  8
0
  6
CONTINUOUS
 10
141.188629
 20
63.714001
 11
185.188629
 21
63.714001
  0
LINE
  8
0
  6
CONTINUOUS
 10
141.188629
 20
48.701000
 11
195.688629
 21
48.701000
  0
LINE
  8
0
  6
CONTINUOUS
 10
187.756607
 20
56.653000
 11
195.688629
 21
56.653000
  0
LINE
  8
0
  6
CONTINUOUS
 10
187.188629
 20
57.867733
 11
187.188629
 21
159.220123
  0
ARC
  8
0
  6
CONTINUOUS
 10
184.688675
 20
35.199421
 40
2.500000
 50
0.260773
 51
88.000000
  0
ARC
  8
0
  6
CONTINUOUS
 10
184.688629
 20
138.755539
 40
2.500000
 50
-45.000000
 51
0.000000
  0
ARC
  8
0
  6
CONTINUOUS
 10
178.974121
 20
133.041016
 40
2.500000
 50
272.000000
 51
315.000000
  0
LINE
  8
0
  6
CONTINUOUS
 10
13.188632
 20
377.277924
 11
13.188632
 21
423.277924
  0
LINE
  8
0
  6
CONTINUOUS
 10
15.188632
 20
425.277924
 11
13.188632
 21
423.277924
  0
LINE
  8
0
  6
CONTINUOUS
 10
15.188632
 20
425.277924
 11
61.188622
 21
425.277924
  0
LINE
  8
0
  6
CONTINUOUS
 10
55.688633
 20
420.777924
 11
55.688633
 21
425.277924
  0
ARC
  8
0
  6
CONTINUOUS
 10
58.688633
 20
420.777924
 40
3.000000
 50
180.000000
 51
270.000000
  0
LINE
  8
0
  6
CONTINUOUS
 10
58.688633
 20
417.777924
 11
63.188622
 21
417.777924
  0
CIRCLE
  8
0
  6
CONTINUOUS
 10
59.688633
 20
421.777924
 40
2.250000
  0
LINE
  8
0
  6
CONTINUOUS
 10
63.188625
 20
377.277924
 11
63.188622
 21
423.277924
  0
LINE
  8
0
  6
CONTINUOUS
 10
61.188622
 20
425.277924
 11
63.188622
 21
423.277924
  0
LINE
  8
0
  6
CONTINUOUS
 10
61.188625
 20
375.277924
 11
63.188625
 21
377.277924
  0
LINE
  8
0
  6
CONTINUOUS
 10
61.188625
 20
375.277924
 11
15.188632
 21
375.277924
  0
LINE
  8
0
  6
CONTINUOUS
 10
13.188632
 20
377.277924
 11
15.188632
 21
375.277924
  0
LINE
  8
0
  6
CONTINUOUS
 10
17.688631
 20
382.777924
 11
13.188642
 21
382.777924
  0
CIRCLE
  8
0
  6
CONTINUOUS
 10
16.688631
 20
378.777924
 40
2.250000
  0
ARC
  8
0
  6
CONTINUOUS
 10
17.688631
 20
379.777924
 40
3.000000
 50
0.000000
 51
90.000000
  0
LINE
  8
0
  6
CONTINUOUS
 10
20.688631
 20
379.777924
 11
20.688631
 21
375.277924
  0
LINE
  8
0
  6
CENTER
 10
38.188633
 20
367.812134
 11
38.188633
 21
431.944153
  0
LINE
  8
0
  6
CONTINUOUS
 10
14.188638
 20
382.777924
 11
14.188638
 21
417.777924
  0
LINE
  8
0
  6
CONTINUOUS
 10
55.688633
 20
424.277924
 11
20.688652
 21
424.277924
  0
LINE
  8
0
  6
CONTINUOUS
 10
62.188625
 20
417.777924
 11
62.188625
 21
382.777924
  0
LINE
  8
0
  6
CONTINUOUS
 10
20.688631
 20
376.277924
 11
55.688614
 21
376.277924
  0
LINE
  8
0
  6
CONTINUOUS
 10
17.688652
 20
417.777924
 11
13.188652
 21
417.777924
  0
ARC
  8
0
  6
CONTINUOUS
 10
17.688652
 20
420.777924
 40
3.000000
 50
-90.000000
 51
0.000000
  0
LINE
  8
0
  6
CONTINUOUS
 10
20.688652
 20
420.777924
 11
20.688652
 21
425.277924
  0
CIRCLE
  8
0
  6
CONTINUOUS
 10
16.688652
 20
421.777924
 40
2.250000
  0
LINE
  8
0
  6
CONTINUOUS
 10
58.688614
 20
382.777924
 11
63.188614
 21
382.777924
  0
ARC
  8
0
  6
CONTINUOUS
 10
58.688614
 20
379.777924
 40
3.000000
 50
90.000000
 51
180.000000
  0
LINE
  8
0
  6
CONTINUOUS
 10
55.688614
 20
379.777924
 11
55.688614
 21
375.277954
  0
CIRCLE
  8
0
  6
CONTINUOUS
 10
59.688614
 20
378.777924
 40
2.250000
  0
LINE
  8
0
  6
CONTINUOUS
 10
14.688632
 20
130.720001
 11
61.188633
 21
130.720001
  0
LINE
  8
0
  6
CONTINUOUS
 10
63.188614
 20
174.720001
 11
63.188633
 21
132.720001
  0
LINE
  8
0
  6
CONTINUOUS
 10
13.188632
 20
174.720001
 11
13.188632
 21
132.720001
  0
LINE
  8
0
  6
CONTINUOUS
 10
13.188632
 20
142.720001
 11
63.188633
 21
142.720001
  0
LINE
  8
0
  6
CONTINUOUS
 10
61.188633
 20
130.720001
 11
63.188633
 21
132.720001
  0
LINE
  8
0
  6
CONTINUOUS
 10
13.188632
 20
132.720001
 11
15.188632
 21
130.720001
  0
LINE
  8
0
  6
CONTINUOUS
 10
13.188632
 20
132.720001
 11
63.188633
 21
132.720001
  0
LINE
  8
0
  6
CONTINUOUS
 10
13.188632
 20
143.720001
 11
63.188622
 21
143.720001
  0
LINE
  8
0
  6
CONTINUOUS
 10
14.188632
 20
175.720001
 11
62.188614
 21
175.720001
  0
LINE
  8
0
  6
CONTINUOUS
 10
62.188614
 20
175.720001
 11
63.188614
 21
174.720001
  0
LINE
  8
0
  6
CONTINUOUS
 10
14.188632
 20
175.720001
 11
13.188632
 21
174.720001
  0
LINE
  8
0
  6
CONTINUOUS
 10
13.188632
 20
174.720001
 11
63.188614
 21
174.720001
  0
LINE
  8
0
  6
CENTER
 10
38.188633
 20
124.330490
 11
38.188633
 21
181.030487
  0
LINE
  8
0
  6
CENTER
 10
10.813632
 20
158.720001
 11
15.438632
 21
158.720001
  0
LINE
  8
0
  6
CONTINUOUS
 10
14.688632
 20
130.720001
 11
14.688632
 21
129.220001
  0
LINE
  8
0
  6
CONTINUOUS
 10
60.688633
 20
130.720001
 11
60.688633
 21
129.220001
  0
LINE
  8
0
  6
CONTINUOUS
 10
12.313632
 20
169.220001
 11
14.313632
 21
169.220001
  0
LINE
  8
0
  6
CONTINUOUS
 10
12.313632
 20
148.220001
 11
14.313632
 21
148.220001
  0
LINE
  8
0
  6
CONTINUOUS
 10
132.188629
 20
371.277924
 11
132.188629
 21
357.277924
  0
TEXT
  8
0
 10
-15.000000
 20
-12.000000
 40
4.000000
 41
1.000000
  1
HLM-32T-1200~1800-T40K
 50
0.000000
  0
ENDSEC
  0
EOF
