  0
SECTION
  2
HEADER
  9
$CLAYER
  8
1
  9
$LTSCALE
 40
3.0
  0
ENDSEC
  0
SECTION
  2
TABLES
  0
TABLE
  2
LTYPE
 70
     4
  0
LTYPE
  2
CONTINUOUS
  3
solid line
 70
    64
 72
    65
 73
     0
 40
0.0
  0
LTYPE
  2
DASHED
  3
__ __ __ __ __ __ __ __ __ __ __ __ __ __ __
 70
    64
 72
    65
 73
     2
 40
0.75
 49
0.5
 49
-0.25
  0
LTYPE
  2
CENTER
  3
____ _ ____ _ ____ _ ____ _ ____ _ ____ _ ____
 70
    64
 72
    65
 73
     4
 40
2.0
 49
1.25
 49
-0.25
 49
0.25
 49
-0.25
  0
LTYPE
  2
PHANTOM
  3
_____ _ _ _____ _ _ _____ _ _ _____ _ _ ____
 70
    64
 72
    65
 73
     6
 40
2.5
 49
1.25
 49
-0.25
 49
0.25
 49
-0.25
 49
0.25
 49
-0.25
  0
ENDTAB
  0
TABLE
  2
LAYER
 70
     1
  0
LAYER
  2
0
 70
    64
 62
     7
  6
CONTINUOUS
  0
ENDTAB
  0
TABLE
  2
STYLE
 70
     1
  0
STYLE
  2
STANDARD
 70
     0
 40
0.000000
 41
1.000000
 50
0.000000
 71
     0
 42
3.000000
  3
txt
  4
BIGFONT
  0
ENDTAB
  0
ENDSEC
  0
SECTION
  2
BLOCKS
  0
ENDSEC
  0
SECTION
  2
ENTITIES
  0
LINE
  8
0
  6
CENTER
 10
280.271118
 20
531.757935
 11
280.271118
 21
278.257935
  0
LINE
  8
0
  6
CONTINUOUS
 10
356.271332
 20
403.695435
 11
355.485840
 21
448.695435
  0
LINE
  8
0
  6
CONTINUOUS
 10
221.821075
 20
478.695435
 11
264.271118
 21
478.695435
  0
LINE
  8
0
  6
CONTINUOUS
 10
346.214722
 20
473.496643
 11
355.485840
 21
448.695435
  0
ARC
  8
0
  6
CONTINUOUS
 10
338.721191
 20
470.695435
 40
8.000000
 50
20.496618
 51
90.000000
  0
LINE
  8
0
  6
CONTINUOUS
 10
356.271332
 20
403.695435
 11
355.485840
 21
358.695435
  0
LINE
  8
0
  6
CONTINUOUS
 10
221.821075
 20
328.695435
 11
264.271118
 21
328.695435
  0
LINE
  8
0
  6
CONTINUOUS
 10
346.214722
 20
333.894226
 11
355.485840
 21
358.695435
  0
ARC
  8
0
  6
CONTINUOUS
 10
338.721191
 20
336.695435
 40
8.000000
 50
-90.000000
 51
-20.496618
  0
LINE
  8
0
  6
CONTINUOUS
 10
214.327530
 20
473.496643
 11
205.272751
 21
449.274139
  0
ARC
  8
0
  6
CONTINUOUS
 10
221.821075
 20
470.695435
 40
8.000000
 50
90.000000
 51
159.503387
  0
LINE
  8
0
  6
CONTINUOUS
 10
214.327530
 20
333.894226
 11
205.272751
 21
358.116699
  0
ARC
  8
0
  6
CONTINUOUS
 10
221.821075
 20
336.695435
 40
8.000000
 50
200.496613
 51
270.000000
  0
LINE
  8
0
  6
CONTINUOUS
 10
207.607773
 20
448.695435
 11
352.537750
 21
448.695435
  0
LINE
  8
0
  6
CONTINUOUS
 10
352.537750
 20
358.695435
 11
207.607773
 21
358.695435
  0
LINE
  8
0
  6
CONTINUOUS
 10
280.271118
 20
465.695435
 11
315.529938
 21
465.695435
  0
ARC
  8
0
  6
CONTINUOUS
 10
352.537750
 20
445.695435
 40
3.000000
 50
1.000000
 51
90.000000
  0
ARC
  8
0
  6
CONTINUOUS
 10
352.537750
 20
361.695435
 40
3.000000
 50
270.000000
 51
359.000000
  0
LINE
  8
0
  6
CONTINUOUS
 10
309.271118
 20
445.695435
 11
309.271118
 21
361.695435
  0
LINE
  8
0
  6
CONTINUOUS
 10
251.271133
 20
445.695435
 11
251.271133
 21
361.695435
  0
LINE
  8
0
  6
CONTINUOUS
 10
192.271133
 20
467.695435
 11
192.271133
 21
339.695435
  0
LINE
  8
0
  6
CONTINUOUS
 10
194.843460
 20
467.695435
 11
192.271133
 21
467.695435
  0
LINE
  8
0
  6
CONTINUOUS
 10
320.326782
 20
462.106262
 11
321.329956
 21
458.695435
  0
ARC
  8
0
  6
CONTINUOUS
 10
315.529938
 20
460.695435
 40
5.000000
 50
16.389540
 51
90.000000
  0
LINE
  8
0
  6
CONTINUOUS
 10
335.817261
 20
455.088043
 11
336.625000
 21
452.302795
  0
LINE
  8
0
  6
CONTINUOUS
 10
331.015137
 20
458.695435
 11
321.329956
 21
458.695435
  0
LINE
  8
0
  6
CONTINUOUS
 10
280.271118
 20
465.695435
 11
245.012314
 21
465.695435
  0
LINE
  8
0
  6
CONTINUOUS
 10
280.271118
 20
341.695435
 11
315.529938
 21
341.695435
  0
LINE
  8
0
  6
CONTINUOUS
 10
280.271118
 20
341.695435
 11
245.012329
 21
341.695435
  0
LINE
  8
0
  6
CONTINUOUS
 10
299.271118
 20
523.695435
 11
264.271118
 21
523.695435
  0
LINE
  8
0
  6
CONTINUOUS
 10
264.271118
 20
468.695435
 11
264.271118
 21
523.695435
  0
LINE
  8
0
  6
CONTINUOUS
 10
296.271118
 20
468.695435
 11
296.271118
 21
473.695435
  0
LINE
  8
0
  6
CONTINUOUS
 10
262.771118
 20
468.695435
 11
297.771118
 21
468.695435
  0
LINE
  8
0
  6
CONTINUOUS
 10
262.771118
 20
465.695435
 11
262.771118
 21
468.695435
  0
LINE
  8
0
  6
CONTINUOUS
 10
297.771118
 20
465.695435
 11
297.771118
 21
468.695435
  0
LINE
  8
0
  6
CONTINUOUS
 10
299.271118
 20
478.695435
 11
338.721191
 21
478.695435
  0
LINE
  8
0
  6
CONTINUOUS
 10
299.271118
 20
523.695435
 11
299.271118
 21
473.695435
  0
LINE
  8
0
  6
CONTINUOUS
 10
295.469818
 20
473.695435
 11
299.271118
 21
473.695435
  0
LINE
  8
0
  6
CONTINUOUS
 10
295.469818
 20
473.695435
 11
295.469818
 21
523.695435
  0
LINE
  8
0
  6
CONTINUOUS
 10
299.271118
 20
283.695435
 11
264.271118
 21
283.695435
  0
LINE
  8
0
  6
CONTINUOUS
 10
264.271118
 20
338.695435
 11
264.271118
 21
283.695435
  0
LINE
  8
0
  6
CONTINUOUS
 10
296.271118
 20
338.695435
 11
296.271118
 21
333.695435
  0
LINE
  8
0
  6
CONTINUOUS
 10
262.771118
 20
338.695435
 11
297.771118
 21
338.695435
  0
LINE
  8
0
  6
CONTINUOUS
 10
262.771118
 20
341.695435
 11
262.771118
 21
338.695435
  0
LINE
  8
0
  6
CONTINUOUS
 10
297.771118
 20
341.695435
 11
297.771118
 21
338.695435
  0
LINE
  8
0
  6
CONTINUOUS
 10
299.271118
 20
283.695435
 11
299.271118
 21
333.695435
  0
LINE
  8
0
  6
CONTINUOUS
 10
295.469818
 20
333.695435
 11
299.271118
 21
333.695435
  0
LINE
  8
0
  6
CONTINUOUS
 10
295.469818
 20
333.695435
 11
295.469818
 21
283.695435
  0
LINE
  8
0
  6
CONTINUOUS
 10
299.271118
 20
328.695435
 11
338.721191
 21
328.695435
  0
LINE
  8
0
  6
CENTER
 10
317.894806
 20
463.695435
 11
336.832306
 21
463.695435
  0
LINE
  8
0
  6
CENTER
 10
327.771118
 20
454.543091
 11
327.771118
 21
474.043091
  0
ARC
  8
0
  6
CONTINUOUS
 10
327.771118
 20
463.695435
 40
6.500000
 50
-51.240688
 51
230.284866
  0
ARC
  8
0
  6
CONTINUOUS
 10
232.771133
 20
463.695435
 40
6.500000
 50
-50.284863
 51
231.240692
  0
LINE
  8
0
  6
CENTER
 10
232.771133
 20
454.543091
 11
232.771133
 21
474.043091
  0
LINE
  8
0
  6
CENTER
 10
242.647461
 20
463.695435
 11
223.709961
 21
463.695435
  0
LINE
  8
0
  6
CENTER
 10
-18.788593
 20
403.695435
 11
367.692139
 21
403.695435
  0
LINE
  8
0
  6
CONTINUOUS
 10
199.673096
 20
463.989532
 11
202.778137
 21
452.401337
  0
ARC
  8
0
  6
CONTINUOUS
 10
207.607773
 20
453.695435
 40
5.000000
 50
195.000000
 51
270.000000
  0
ARC
  8
0
  6
CONTINUOUS
 10
194.843460
 20
462.695435
 40
5.000000
 50
15.000000
 51
90.000000
  0
LINE
  8
0
  6
CONTINUOUS
 10
194.843460
 20
339.695435
 11
192.271133
 21
339.695435
  0
LINE
  8
0
  6
CONTINUOUS
 10
199.673096
 20
343.401337
 11
202.778137
 21
354.989532
  0
ARC
  8
0
  6
CONTINUOUS
 10
194.843460
 20
344.695435
 40
5.000000
 50
-90.000000
 51
-15.000000
  0
ARC
  8
0
  6
CONTINUOUS
 10
207.607773
 20
353.695435
 40
5.000000
 50
-270.000000
 51
-195.000000
  0
LINE
  8
0
  6
CONTINUOUS
 10
204.270935
 20
403.695435
 11
205.004959
 21
445.747772
  0
LINE
  8
0
  6
CONTINUOUS
 10
204.270935
 20
403.695435
 11
205.004959
 21
361.643066
  0
ARC
  8
0
  6
CONTINUOUS
 10
208.004501
 20
445.695435
 40
3.000000
 50
90.000000
 51
179.000000
  0
ARC
  8
0
  6
CONTINUOUS
 10
208.004501
 20
361.695435
 40
3.000000
 50
-179.000000
 51
-90.000000
  0
ARC
  8
0
  6
CONTINUOUS
 10
331.015137
 20
453.695435
 40
5.000000
 50
16.172159
 51
90.000000
  0
ARC
  8
0
  6
CONTINUOUS
 10
341.427124
 20
453.695435
 40
5.000000
 50
196.172165
 51
270.000000
  0
LINE
  8
0
  6
CONTINUOUS
 10
337.671143
 20
448.695435
 11
337.674347
 21
448.684357
  0
ARC
  8
0
  6
CONTINUOUS
 10
245.012329
 20
460.695435
 40
5.000000
 50
90.000000
 51
163.610458
  0
LINE
  8
0
  6
CONTINUOUS
 10
240.215500
 20
462.106262
 11
239.212311
 21
458.695435
  0
LINE
  8
0
  6
CONTINUOUS
 10
224.724991
 20
455.088043
 11
223.917267
 21
452.302795
  0
LINE
  8
0
  6
CONTINUOUS
 10
229.527145
 20
458.695435
 11
239.212311
 21
458.695435
  0
ARC
  8
0
  6
CONTINUOUS
 10
229.527145
 20
453.695435
 40
5.000000
 50
90.000000
 51
163.827835
  0
ARC
  8
0
  6
CONTINUOUS
 10
219.115128
 20
453.695435
 40
5.000000
 50
-90.000000
 51
-16.172159
  0
LINE
  8
0
  6
CONTINUOUS
 10
222.871140
 20
448.695435
 11
222.867920
 21
448.684357
  0
ARC
  8
0
  6
CONTINUOUS
 10
232.771133
 20
343.695435
 40
6.500000
 50
-231.240692
 51
50.284863
  0
LINE
  8
0
  6
CENTER
 10
242.647461
 20
343.695435
 11
223.709961
 21
343.695435
  0
ARC
  8
0
  6
CONTINUOUS
 10
245.012329
 20
346.695435
 40
5.000000
 50
196.389542
 51
270.000000
  0
LINE
  8
0
  6
CONTINUOUS
 10
240.215500
 20
345.284607
 11
239.212311
 21
348.695435
  0
LINE
  8
0
  6
CONTINUOUS
 10
224.724991
 20
352.302795
 11
223.917267
 21
355.088043
  0
LINE
  8
0
  6
CONTINUOUS
 10
229.527145
 20
348.695435
 11
239.212311
 21
348.695435
  0
ARC
  8
0
  6
CONTINUOUS
 10
229.527145
 20
353.695435
 40
5.000000
 50
-163.827835
 51
-90.000000
  0
ARC
  8
0
  6
CONTINUOUS
 10
219.115128
 20
353.695435
 40
5.000000
 50
16.172159
 51
90.000000
  0
LINE
  8
0
  6
CONTINUOUS
 10
222.871140
 20
358.695435
 11
222.867920
 21
358.706512
  0
LINE
  8
0
  6
CENTER
 10
232.771133
 20
352.847778
 11
232.771133
 21
333.347778
  0
LINE
  8
0
  6
CONTINUOUS
 10
320.326782
 20
345.284607
 11
321.329956
 21
348.695435
  0
ARC
  8
0
  6
CONTINUOUS
 10
315.529938
 20
346.695435
 40
5.000000
 50
-90.000000
 51
-16.389540
  0
LINE
  8
0
  6
CONTINUOUS
 10
335.817261
 20
352.302795
 11
336.625000
 21
355.088043
  0
LINE
  8
0
  6
CONTINUOUS
 10
331.015137
 20
348.695435
 11
321.329956
 21
348.695435
  0
LINE
  8
0
  6
CENTER
 10
317.894806
 20
343.695435
 11
336.832306
 21
343.695435
  0
LINE
  8
0
  6
CENTER
 10
327.771118
 20
352.847778
 11
327.771118
 21
333.347778
  0
ARC
  8
0
  6
CONTINUOUS
 10
327.771118
 20
343.695435
 40
6.500000
 50
-230.284866
 51
51.240688
  0
ARC
  8
0
  6
CONTINUOUS
 10
331.015137
 20
353.695435
 40
5.000000
 50
-90.000000
 51
-16.172159
  0
ARC
  8
0
  6
CONTINUOUS
 10
341.427124
 20
353.695435
 40
5.000000
 50
-270.000000
 51
-196.172165
  0
LINE
  8
0
  6
CONTINUOUS
 10
337.671143
 20
358.695435
 11
337.674347
 21
358.706512
  0
LINE
  8
0
  6
CENTER
 10
280.271118
 20
232.933685
 11
280.271118
 21
-4.995380
  0
LINE
  8
0
  6
CENTER
 10
216.386536
 20
145.637497
 11
332.956146
 21
145.637497
  0
LINE
  8
0
  6
CENTER
 10
327.771118
 20
30.912939
 11
327.771118
 21
-2.951800
  0
LINE
  8
0
  6
CENTER
 10
232.771133
 20
30.912939
 11
232.771133
 21
-3.243740
  0
LINE
  8
0
  6
CONTINUOUS
 10
204.271133
 20
5.637500
 11
356.271118
 21
5.637500
  0
LINE
  8
0
  6
CONTINUOUS
 10
204.271133
 20
23.637501
 11
356.271118
 21
23.637501
  0
LINE
  8
0
  6
CONTINUOUS
 10
356.271118
 20
173.943054
 11
356.271118
 21
5.637500
  0
LINE
  8
0
  6
CONTINUOUS
 10
204.271133
 20
169.137497
 11
204.271133
 21
173.943054
  0
LINE
  8
0
  6
CONTINUOUS
 10
253.767731
 20
210.637497
 11
306.774536
 21
210.637497
  0
LINE
  8
0
  6
CONTINUOUS
 10
199.271133
 20
164.637497
 11
192.271133
 21
164.637497
  0
LINE
  8
0
  6
CONTINUOUS
 10
199.271133
 20
36.637501
 11
192.271133
 21
36.637501
  0
LINE
  8
0
  6
CONTINUOUS
 10
352.821136
 20
180.523117
 11
311.324524
 21
209.217560
  0
LINE
  8
0
  6
CONTINUOUS
 10
207.721085
 20
180.523117
 11
249.217728
 21
209.217560
  0
ARC
  8
0
  6
CONTINUOUS
 10
306.774536
 20
202.637497
 40
8.000000
 50
55.336689
 51
90.000000
  0
ARC
  8
0
  6
CONTINUOUS
 10
348.271118
 20
173.943024
 40
8.000000
 50
0.000000
 51
55.336739
  0
ARC
  8
0
  6
CONTINUOUS
 10
253.767731
 20
202.637497
 40
8.000000
 50
90.000000
 51
124.663696
  0
ARC
  8
0
  6
CONTINUOUS
 10
212.271133
 20
173.943100
 40
8.000000
 50
124.663803
 51
180.000000
  0
LINE
  8
0
  6
CONTINUOUS
 10
204.271133
 20
32.137501
 11
204.271133
 21
5.637500
  0
ARC
  8
0
  6
CONTINUOUS
 10
199.271118
 20
169.637497
 40
5.000000
 50
-90.000000
 51
0.000000
  0
LINE
  8
0
  6
CONTINUOUS
 10
204.271133
 20
32.137501
 11
204.271133
 21
169.137497
  0
ARC
  8
0
  6
CONTINUOUS
 10
199.271149
 20
31.637480
 40
5.000000
 50
0.000000
 51
90.000000
  0
LINE
  8
0
  6
DASHED
 10
226.271133
 20
23.637501
 11
226.271133
 21
5.637500
  0
LINE
  8
0
  6
DASHED
 10
239.271133
 20
23.637501
 11
239.271133
 21
5.637500
  0
LINE
  8
0
  6
DASHED
 10
321.271118
 20
23.637501
 11
321.271118
 21
5.637500
  0
LINE
  8
0
  6
DASHED
 10
334.271118
 20
23.637501
 11
334.271118
 21
5.637500
  0
CIRCLE
  8
0
  6
CONTINUOUS
 10
280.271118
 20
145.637497
 40
39.000000
  0
ARC
  8
0
  6
CONTINUOUS
 10
280.271118
 20
145.637497
 40
44.000000
 50
12.523240
 51
167.476898
  0
ARC
  8
0
  6
CONTINUOUS
 10
254.771133
 20
86.637497
 40
29.000000
 50
167.476898
 51
270.000000
  0
ARC
  8
0
  6
CONTINUOUS
 10
305.771118
 20
86.637497
 40
29.000000
 50
-90.000000
 51
12.523240
  0
ARC
  8
0
  6
CONTINUOUS
 10
254.771133
 20
86.637497
 40
31.900000
 50
167.476898
 51
270.000000
  0
ARC
  8
0
  6
CONTINUOUS
 10
305.771118
 20
86.637497
 40
31.900000
 50
-90.000000
 51
12.523240
  0
ARC
  8
0
  6
CONTINUOUS
 10
280.271118
 20
145.637497
 40
41.099998
 50
-192.523102
 51
12.523240
  0
LINE
  8
0
  6
CONTINUOUS
 10
223.630127
 20
93.554504
 11
237.317932
 21
155.178207
  0
LINE
  8
0
  6
CONTINUOUS
 10
226.461136
 20
92.925690
 11
240.148926
 21
154.549377
  0
LINE
  8
0
  6
CONTINUOUS
 10
254.771133
 20
54.737499
 11
305.771118
 21
54.737499
  0
LINE
  8
0
  6
CONTINUOUS
 10
305.771118
 20
57.637501
 11
254.771133
 21
57.637501
  0
LINE
  8
0
  6
CONTINUOUS
 10
323.224335
 20
155.178284
 11
336.912140
 21
93.554565
  0
LINE
  8
0
  6
CONTINUOUS
 10
320.393341
 20
154.549454
 11
334.081146
 21
92.925743
  0
LINE
  8
0
  6
CONTINUOUS
 10
268.044128
 20
69.637497
 11
263.103729
 21
69.637497
  0
LINE
  8
0
  6
CONTINUOUS
 10
270.771118
 20
77.912903
 11
270.771118
 21
69.637497
  0
LINE
  8
0
  6
CONTINUOUS
 10
275.521118
 20
80.918747
 11
275.521118
 21
83.887497
  0
LINE
  8
0
  6
CONTINUOUS
 10
285.021118
 20
80.918747
 11
285.021118
 21
83.887497
  0
LINE
  8
0
  6
CONTINUOUS
 10
279.343323
 20
82.143356
 11
279.343323
 21
71.196098
  0
LINE
  8
0
  6
CONTINUOUS
 10
281.124725
 20
82.143356
 11
281.124725
 21
71.196098
  0
LINE
  8
0
  6
CONTINUOUS
 10
290.476318
 20
82.143356
 11
290.476318
 21
71.121880
  0
LINE
  8
0
  6
CONTINUOUS
 10
292.109131
 20
76.298637
 11
292.109131
 21
71.121880
  0
LINE
  8
0
  6
CONTINUOUS
 10
268.517120
 20
81.994919
 11
263.939545
 21
81.994919
  0
LINE
  8
0
  6
CONTINUOUS
 10
263.939545
 20
81.994919
 11
262.866943
 21
80.664925
  0
LINE
  8
0
  6
CONTINUOUS
 10
262.995941
 20
83.887497
 11
261.271118
 21
81.679031
  0
LINE
  8
0
  6
CONTINUOUS
 10
262.866943
 20
72.455338
 11
263.956726
 21
71.307419
  0
LINE
  8
0
  6
CONTINUOUS
 10
261.271118
 20
71.486618
 11
263.103729
 21
69.637497
  0
LINE
  8
0
  6
CONTINUOUS
 10
261.271118
 20
81.679031
 11
261.271118
 21
71.486618
  0
LINE
  8
0
  6
CONTINUOUS
 10
262.866943
 20
80.664925
 11
262.866943
 21
72.455338
  0
LINE
  8
0
  6
CONTINUOUS
 10
269.398132
 20
81.143356
 11
268.499146
 21
81.994919
  0
LINE
  8
0
  6
CONTINUOUS
 10
269.383942
 20
83.887497
 11
270.771118
 21
82.347916
  0
LINE
  8
0
  6
CONTINUOUS
 10
269.398132
 20
80.918747
 11
270.771118
 21
80.918747
  0
LINE
  8
0
  6
CONTINUOUS
 10
262.995941
 20
83.887497
 11
269.383942
 21
83.887497
  0
LINE
  8
0
  6
CONTINUOUS
 10
266.911743
 20
77.912903
 11
270.771118
 21
77.912903
  0
LINE
  8
0
  6
CONTINUOUS
 10
269.398132
 20
76.354301
 11
266.911743
 21
76.354301
  0
LINE
  8
0
  6
CONTINUOUS
 10
266.429321
 20
71.307419
 11
263.956726
 21
71.307419
  0
LINE
  8
0
  6
CONTINUOUS
 10
269.398132
 20
74.869919
 11
269.398132
 21
76.057419
  0
ARC
  8
0
  6
CONTINUOUS
 10
266.429321
 20
74.276161
 40
2.968750
 50
-89.999786
 51
0.000109
  0
LINE
  8
0
  6
CONTINUOUS
 10
269.398132
 20
70.773422
 11
269.398132
 21
69.637497
  0
LINE
  8
0
  6
CONTINUOUS
 10
270.771118
 20
82.347916
 11
270.771118
 21
80.918747
  0
LINE
  8
0
  6
CONTINUOUS
 10
269.398132
 20
76.354301
 11
269.398132
 21
74.276161
  0
LINE
  8
0
  6
CONTINUOUS
 10
266.911743
 20
77.912903
 11
266.911743
 21
76.354301
  0
LINE
  8
0
  6
CONTINUOUS
 10
269.398132
 20
69.637497
 11
270.771118
 21
69.637497
  0
LINE
  8
0
  6
CONTINUOUS
 10
269.398132
 20
70.773422
 11
268.044128
 21
69.637497
  0
LINE
  8
0
  6
CONTINUOUS
 10
281.124725
 20
71.196098
 11
281.718323
 21
71.196098
  0
LINE
  8
0
  6
CONTINUOUS
 10
278.638336
 20
71.196098
 11
278.638336
 21
69.637497
  0
LINE
  8
0
  6
CONTINUOUS
 10
281.718323
 20
71.196098
 11
281.718323
 21
69.637497
  0
LINE
  8
0
  6
CONTINUOUS
 10
284.030121
 20
80.918747
 11
285.021118
 21
80.918747
  0
LINE
  8
0
  6
CONTINUOUS
 10
275.521118
 20
80.918747
 11
276.575745
 21
80.918747
  0
LINE
  8
0
  6
CONTINUOUS
 10
275.521118
 20
83.887497
 11
285.021118
 21
83.887497
  0
LINE
  8
0
  6
CONTINUOUS
 10
278.638336
 20
69.637497
 11
281.718323
 21
69.637497
  0
LINE
  8
0
  6
CONTINUOUS
 10
278.638336
 20
71.196098
 11
279.343323
 21
71.196098
  0
ARC
  8
0
  6
CONTINUOUS
 10
295.467346
 20
80.083778
 40
3.803712
 50
-73.981873
 51
90.003510
  0
ARC
  8
0
  6
CONTINUOUS
 10
295.467346
 20
80.083778
 40
2.320524
 50
-82.585274
 51
62.411850
  0
LINE
  8
0
  6
CONTINUOUS
 10
289.771118
 20
83.887497
 11
295.467346
 21
83.887497
  0
LINE
  8
0
  6
CONTINUOUS
 10
295.766937
 20
77.782661
 11
292.109131
 21
77.782661
  0
LINE
  8
0
  6
CONTINUOUS
 10
289.771118
 20
83.887497
 11
289.771118
 21
82.143356
  0
LINE
  8
0
  6
CONTINUOUS
 10
292.109131
 20
82.143356
 11
292.109131
 21
77.782661
  0
LINE
  8
0
  6
CONTINUOUS
 10
296.516937
 20
76.427757
 11
298.871338
 21
71.121880
  0
LINE
  8
0
  6
CONTINUOUS
 10
295.149719
 20
76.298637
 11
297.377747
 21
71.121880
  0
LINE
  8
0
  6
CONTINUOUS
 10
289.771118
 20
71.121880
 11
290.476318
 21
71.121880
  0
LINE
  8
0
  6
CONTINUOUS
 10
292.109131
 20
71.121880
 11
292.758545
 21
71.121880
  0
LINE
  8
0
  6
CONTINUOUS
 10
292.758545
 20
69.637497
 11
289.771118
 21
69.637497
  0
LINE
  8
0
  6
CONTINUOUS
 10
297.081726
 20
71.121880
 11
297.377747
 21
71.121880
  0
LINE
  8
0
  6
CONTINUOUS
 10
298.871338
 20
71.121880
 11
299.271118
 21
71.121880
  0
LINE
  8
0
  6
CONTINUOUS
 10
297.081726
 20
69.637497
 11
299.271118
 21
69.637497
  0
LINE
  8
0
  6
CONTINUOUS
 10
299.271118
 20
71.121880
 11
299.271118
 21
69.637497
  0
LINE
  8
0
  6
CONTINUOUS
 10
297.081726
 20
71.121880
 11
297.081726
 21
69.637497
  0
LINE
  8
0
  6
CONTINUOUS
 10
292.758545
 20
71.121880
 11
292.758545
 21
69.637497
  0
LINE
  8
0
  6
CONTINUOUS
 10
289.771118
 20
71.121880
 11
289.771118
 21
69.637497
  0
LINE
  8
0
  6
CONTINUOUS
 10
277.085938
 20
82.143356
 11
276.575745
 21
80.918747
  0
LINE
  8
0
  6
CONTINUOUS
 10
283.599945
 20
82.143356
 11
284.030121
 21
80.918747
  0
LINE
  8
0
  6
CONTINUOUS
 10
281.124725
 20
82.143356
 11
283.599945
 21
82.143356
  0
LINE
  8
0
  6
CONTINUOUS
 10
279.343323
 20
82.143356
 11
277.085938
 21
82.143356
  0
LINE
  8
0
  6
CONTINUOUS
 10
292.109131
 20
76.298637
 11
295.149719
 21
76.298637
  0
LINE
  8
0
  6
CONTINUOUS
 10
289.771118
 20
82.143356
 11
290.476318
 21
82.143356
  0
LINE
  8
0
  6
CONTINUOUS
 10
292.109131
 20
82.143356
 11
296.542145
 21
82.140472
  0
LINE
  8
0
  6
CONTINUOUS
 10
269.398132
 20
81.143356
 11
269.398132
 21
80.918747
  0
ARC
  8
0
  6
CONTINUOUS
 10
383.979919
 20
100.637497
 40
185.208893
 50
166.001907
 51
193.998093
  0
LINE
  8
0
  6
CONTINUOUS
 10
218.271133
 20
21.570940
 11
218.271133
 21
5.637500
  0
LINE
  8
0
  6
CONTINUOUS
 10
342.271118
 20
21.570940
 11
342.271118
 21
5.637500
  0
LINE
  8
0
  6
CONTINUOUS
 10
304.028534
 20
28.637501
 11
256.513733
 21
28.637501
  0
LINE
  8
0
  6
CONTINUOUS
 10
255.271133
 20
27.701620
 11
255.271133
 21
24.637501
  0
LINE
  8
0
  6
CONTINUOUS
 10
306.149719
 20
27.758820
 11
308.806732
 21
25.101959
  0
LINE
  8
0
  6
CONTINUOUS
 10
254.392532
 20
27.758820
 11
251.735733
 21
25.101999
  0
LINE
  8
0
  6
CONTINUOUS
 10
305.271118
 20
27.701620
 11
305.271118
 21
24.637501
  0
ARC
  8
0
  6
CONTINUOUS
 10
248.200134
 20
28.637501
 40
5.000000
 50
270.000000
 51
315.000092
  0
ARC
  8
0
  6
CONTINUOUS
 10
256.513733
 20
25.637501
 40
3.000000
 50
90.000000
 51
135.000305
  0
ARC
  8
0
  6
CONTINUOUS
 10
254.271133
 20
24.637501
 40
1.000000
 50
-90.000000
 51
0.000000
  0
ARC
  8
0
  6
CONTINUOUS
 10
312.342133
 20
28.637501
 40
5.000000
 50
225.000000
 51
270.000000
  0
ARC
  8
0
  6
CONTINUOUS
 10
304.028534
 20
25.637501
 40
3.000000
 50
45.000160
 51
90.000000
  0
ARC
  8
0
  6
CONTINUOUS
 10
306.271118
 20
24.637501
 40
1.000000
 50
180.000000
 51
270.000000
  0
LINE
  8
0
  6
CONTINUOUS
 10
291.271118
 20
140.637543
 11
291.271118
 21
150.637543
  0
LINE
  8
0
  6
CONTINUOUS
 10
299.271118
 20
140.637558
 11
299.271118
 21
150.637558
  0
LINE
  8
0
  6
CONTINUOUS
 10
299.271118
 20
140.637558
 11
291.271118
 21
140.637543
  0
LINE
  8
0
  6
CONTINUOUS
 10
299.271118
 20
150.637558
 11
291.271118
 21
150.637543
  0
ARC
  8
0
  6
CONTINUOUS
 10
280.271118
 20
145.637497
 40
16.000000
 50
18.209900
 51
341.790100
  0
LINE
  8
0
  6
CENTER
 10
560.128723
 20
-9.482500
 11
560.128723
 21
242.363083
  0
LINE
  8
0
  6
CENTER
 10
479.541382
 20
100.637497
 11
639.911377
 21
100.637497
  0
LINE
  8
0
  6
CENTER
 10
425.478760
 20
145.637497
 11
694.305725
 21
145.637497
  0
LINE
  8
0
  6
CENTER
 10
620.128723
 20
32.236240
 11
620.128723
 21
-5.662880
  0
LINE
  8
0
  6
CENTER
 10
500.128754
 20
32.236240
 11
500.128754
 21
-5.662880
  0
LINE
  8
0
  6
CONTINUOUS
 10
485.128754
 20
5.637500
 11
530.128723
 21
5.637500
  0
LINE
  8
0
  6
CONTINUOUS
 10
590.128723
 20
5.637500
 11
635.128723
 21
5.637500
  0
LINE
  8
0
  6
CONTINUOUS
 10
632.628723
 20
23.637501
 11
609.128723
 21
23.637501
  0
LINE
  8
0
  6
CONTINUOUS
 10
487.628754
 20
23.637501
 11
511.128754
 21
23.637501
  0
LINE
  8
0
  6
CONTINUOUS
 10
605.128723
 20
206.904266
 11
605.128723
 21
5.637500
  0
LINE
  8
0
  6
CONTINUOUS
 10
515.128723
 20
193.378693
 11
515.128723
 21
206.903778
  0
LINE
  8
0
  6
CONTINUOUS
 10
635.128723
 20
21.519680
 11
635.128723
 21
5.637500
  0
LINE
  8
0
  6
CONTINUOUS
 10
485.128754
 20
21.519680
 11
485.128754
 21
5.637500
  0
LINE
  8
0
  6
CONTINUOUS
 10
531.628723
 20
7.137500
 11
588.628723
 21
7.137500
  0
LINE
  8
0
  6
CONTINUOUS
 10
602.181152
 20
209.903793
 11
560.128723
 21
210.637497
  0
LINE
  8
0
  6
CONTINUOUS
 10
518.076355
 20
209.903320
 11
560.128723
 21
210.637497
  0
LINE
  8
0
  6
CONTINUOUS
 10
498.128754
 20
110.378693
 11
498.128754
 21
180.896317
  0
LINE
  8
0
  6
CONTINUOUS
 10
622.128723
 20
110.378693
 11
622.128723
 21
180.896317
  0
LINE
  8
0
  6
CONTINUOUS
 10
505.128754
 20
61.393501
 11
505.128754
 21
149.547897
  0
LINE
  8
0
  6
CONTINUOUS
 10
615.128723
 20
61.393520
 11
615.128723
 21
149.547897
  0
LINE
  8
0
  6
DASHED
 10
626.628723
 20
23.637501
 11
626.628723
 21
5.637500
  0
LINE
  8
0
  6
DASHED
 10
613.628723
 20
23.637501
 11
613.628723
 21
5.637500
  0
LINE
  8
0
  6
DASHED
 10
506.628754
 20
23.637501
 11
506.628754
 21
5.637500
  0
LINE
  8
0
  6
DASHED
 10
493.628754
 20
23.637501
 11
493.628754
 21
5.637500
  0
ARC
  8
0
  6
CONTINUOUS
 10
518.128723
 20
206.903778
 40
3.000000
 50
91.000603
 51
180.000000
  0
ARC
  8
0
  6
CONTINUOUS
 10
602.128723
 20
206.904236
 40
3.000000
 50
0.000000
 51
89.000580
  0
LINE
  8
0
  6
CONTINUOUS
 10
511.539551
 20
188.581863
 11
501.717957
 21
185.693115
  0
LINE
  8
0
  6
CONTINUOUS
 10
501.717957
 20
105.581863
 11
502.257355
 21
105.423195
  0
LINE
  8
0
  6
CONTINUOUS
 10
508.736145
 20
56.591358
 11
511.521362
 21
55.783642
  0
LINE
  8
0
  6
CONTINUOUS
 10
487.217743
 20
23.985661
 11
512.621948
 21
28.219700
  0
LINE
  8
0
  6
CONTINUOUS
 10
633.039734
 20
23.985680
 11
607.635559
 21
28.219721
  0
LINE
  8
0
  6
CONTINUOUS
 10
611.521362
 20
56.591358
 11
608.736145
 21
55.783642
  0
LINE
  8
0
  6
CONTINUOUS
 10
618.539551
 20
105.581863
 11
618.000122
 21
105.423187
  0
LINE
  8
0
  6
CONTINUOUS
 10
618.539551
 20
185.693146
 11
608.717957
 21
188.581863
  0
LINE
  8
0
  6
CONTINUOUS
 10
517.703125
 20
178.137497
 11
602.381348
 21
178.137497
  0
ARC
  8
0
  6
CONTINUOUS
 10
503.128754
 20
180.896347
 40
5.000000
 50
106.389900
 51
180.000000
  0
ARC
  8
0
  6
CONTINUOUS
 10
617.128723
 20
180.896301
 40
5.000000
 50
0.000000
 51
73.610527
  0
ARC
  8
0
  6
CONTINUOUS
 10
503.128754
 20
110.378731
 40
5.000000
 50
180.000000
 51
253.610794
  0
ARC
  8
0
  6
CONTINUOUS
 10
617.128723
 20
110.378685
 40
5.000000
 50
-73.610321
 51
0.000000
  0
ARC
  8
0
  6
CONTINUOUS
 10
610.128723
 20
61.393501
 40
5.000000
 50
-73.827698
 51
0.000000
  0
ARC
  8
0
  6
CONTINUOUS
 10
510.128754
 20
61.393539
 40
5.000000
 50
180.000000
 51
253.828201
  0
LINE
  8
0
  6
CONTINUOUS
 10
515.128723
 20
193.378693
 11
515.128723
 21
5.637500
  0
ARC
  8
0
  6
CONTINUOUS
 10
510.128754
 20
193.378677
 40
5.000000
 50
-73.610229
 51
0.000000
  0
ARC
  8
0
  6
CONTINUOUS
 10
501.128754
 20
101.585716
 40
4.000000
 50
0.000000
 51
73.610649
  0
ARC
  8
0
  6
CONTINUOUS
 10
510.128754
 20
50.981480
 40
5.000000
 50
0.000000
 51
73.827919
  0
ARC
  8
0
  6
CONTINUOUS
 10
610.128723
 20
50.981522
 40
5.000000
 50
106.172501
 51
180.000000
  0
ARC
  8
0
  6
CONTINUOUS
 10
619.128723
 20
101.585747
 40
4.000000
 50
106.389999
 51
180.000000
  0
ARC
  8
0
  6
CONTINUOUS
 10
610.128723
 20
193.378723
 40
5.000000
 50
180.000000
 51
253.610794
  0
ARC
  8
0
  6
CONTINUOUS
 10
512.128723
 20
31.178881
 40
3.000000
 50
-80.537483
 51
0.000000
  0
ARC
  8
0
  6
CONTINUOUS
 10
511.128754
 20
27.637461
 40
4.000000
 50
-90.000000
 51
0.000000
  0
ARC
  8
0
  6
CONTINUOUS
 10
487.628754
 20
21.137520
 40
2.500000
 50
90.000000
 51
180.000000
  0
LINE
  8
0
  6
CONTINUOUS
 10
530.128723
 20
5.637500
 11
531.628723
 21
7.137500
  0
LINE
  8
0
  6
CONTINUOUS
 10
590.128723
 20
5.637500
 11
588.628723
 21
7.137500
  0
ARC
  8
0
  6
CONTINUOUS
 10
608.128723
 20
31.178921
 40
3.000000
 50
180.000000
 51
260.537903
  0
ARC
  8
0
  6
CONTINUOUS
 10
609.128723
 20
27.637501
 40
4.000000
 50
180.000000
 51
270.000000
  0
ARC
  8
0
  6
CONTINUOUS
 10
632.628723
 20
21.137501
 40
2.500000
 50
0.000000
 51
90.000000
  0
LINE
  8
0
  6
CONTINUOUS
 10
680.128723
 20
129.637497
 11
680.128723
 21
161.637497
  0
LINE
  8
0
  6
CONTINUOUS
 10
625.128723
 20
161.637497
 11
680.128723
 21
161.637497
  0
LINE
  8
0
  6
CONTINUOUS
 10
625.128723
 20
129.637497
 11
680.128723
 21
129.637497
  0
LINE
  8
0
  6
CONTINUOUS
 10
625.128723
 20
163.137497
 11
625.128723
 21
128.137497
  0
LINE
  8
0
  6
CONTINUOUS
 10
622.128723
 20
163.137497
 11
625.128723
 21
163.137497
  0
LINE
  8
0
  6
CONTINUOUS
 10
622.128723
 20
128.137497
 11
625.128723
 21
128.137497
  0
ARC
  8
0
  6
CONTINUOUS
 10
635.128723
 20
145.637497
 40
5.000000
 50
90.000000
 51
270.000000
  0
LINE
  8
0
  6
CONTINUOUS
 10
635.128723
 20
150.637497
 11
680.128723
 21
150.637497
  0
LINE
  8
0
  6
CONTINUOUS
 10
635.128723
 20
140.637497
 11
680.128723
 21
140.637497
  0
LINE
  8
0
  6
CONTINUOUS
 10
440.128754
 20
129.637497
 11
440.128754
 21
161.637497
  0
LINE
  8
0
  6
CONTINUOUS
 10
495.128754
 20
161.637497
 11
440.128754
 21
161.637497
  0
LINE
  8
0
  6
CONTINUOUS
 10
495.128754
 20
129.637497
 11
440.128754
 21
129.637497
  0
LINE
  8
0
  6
CONTINUOUS
 10
495.128754
 20
163.137497
 11
495.128754
 21
128.137497
  0
LINE
  8
0
  6
CONTINUOUS
 10
498.128754
 20
163.137497
 11
495.128754
 21
163.137497
  0
LINE
  8
0
  6
CONTINUOUS
 10
498.128754
 20
128.137497
 11
495.128754
 21
128.137497
  0
ARC
  8
0
  6
CONTINUOUS
 10
485.128754
 20
145.637497
 40
5.000000
 50
-90.000000
 51
90.000000
  0
LINE
  8
0
  6
CONTINUOUS
 10
485.128754
 20
150.637497
 11
440.128754
 21
150.637497
  0
LINE
  8
0
  6
CONTINUOUS
 10
485.128754
 20
140.637497
 11
440.128754
 21
140.637497
  0
ARC
  8
0
  6
CONTINUOUS
 10
487.628754
 20
21.519699
 40
2.500000
 50
99.462753
 51
180.000000
  0
ARC
  8
0
  6
CONTINUOUS
 10
632.628723
 20
21.519680
 40
2.500000
 50
0.000000
 51
80.537682
  0
LINE
  8
0
  6
CONTINUOUS
 10
192.271133
 20
164.637497
 11
192.271133
 21
36.637501
  0
ARC
  8
0
  6
CONTINUOUS
 10
560.128723
 20
100.637497
 40
64.000000
 50
165.638489
 51
210.753525
  0
ARC
  8
0
  6
CONTINUOUS
 10
560.128723
 20
100.637497
 40
64.000000
 50
-30.753519
 51
14.361512
  0
ARC
  8
0
  6
CONTINUOUS
 10
519.116577
 20
59.625278
 40
8.000000
 50
211.001404
 51
233.216995
  0
ARC
  8
0
  6
CONTINUOUS
 10
513.128723
 20
51.616161
 40
2.000000
 50
30.947910
 51
53.217121
  0
ARC
  8
0
  6
CONTINUOUS
 10
601.140930
 20
59.625278
 40
8.000000
 50
-53.216999
 51
-31.001400
  0
ARC
  8
0
  6
CONTINUOUS
 10
607.128723
 20
51.616161
 40
2.000000
 50
126.782883
 51
149.052094
  0
LINE
  8
0
  6
CENTER
 10
-19.351719
 20
87.637497
 11
237.157501
 21
87.637497
  0
LINE
  8
0
  6
CENTER
 10
161.565308
 20
100.637497
 11
237.157501
 21
100.637497
  0
LINE
  8
0
  6
CONTINUOUS
 10
183.771133
 20
341.695435
 11
183.771133
 21
465.695435
  0
LINE
  8
0
  6
CONTINUOUS
 10
137.771133
 20
448.695435
 11
181.334747
 21
450.216705
  0
LINE
  8
0
  6
CONTINUOUS
 10
137.771133
 20
358.695435
 11
181.334747
 21
357.174164
  0
LINE
  8
0
  6
CONTINUOUS
 10
137.771133
 20
452.707428
 11
137.771133
 21
354.683441
  0
LINE
  8
0
  6
CONTINUOUS
 10
185.771133
 20
467.695435
 11
192.271133
 21
467.695435
  0
LINE
  8
0
  6
CONTINUOUS
 10
185.771133
 20
339.695435
 11
192.271133
 21
339.695435
  0
LINE
  8
0
  6
CONTINUOUS
 10
176.628128
 20
427.695435
 11
183.743103
 21
427.695435
  0
LINE
  8
0
  6
CONTINUOUS
 10
177.233276
 20
379.695435
 11
183.743103
 21
379.695435
  0
LINE
  8
0
  6
CONTINUOUS
 10
176.628128
 20
425.490936
 11
176.628128
 21
381.778351
  0
LINE
  8
0
  6
CONTINUOUS
 10
128.771133
 20
446.695435
 11
128.771133
 21
432.695435
  0
LINE
  8
0
  6
CONTINUOUS
 10
18.771132
 20
448.695435
 11
137.771133
 21
448.695435
  0
LINE
  8
0
  6
CONTINUOUS
 10
18.771132
 20
358.695435
 11
137.771133
 21
358.695435
  0
LINE
  8
0
  6
CONTINUOUS
 10
18.771132
 20
448.695435
 11
18.771132
 21
410.561462
  0
LINE
  8
0
  6
CONTINUOUS
 10
18.771132
 20
432.695435
 11
128.771133
 21
432.695435
  0
LINE
  8
0
  6
CONTINUOUS
 10
18.771132
 20
374.695435
 11
128.771133
 21
374.695435
  0
ARC
  8
0
  6
CONTINUOUS
 10
130.771133
 20
446.695465
 40
2.000000
 50
90.000000
 51
180.000000
  0
ARC
  8
0
  6
CONTINUOUS
 10
130.771133
 20
360.695435
 40
2.000000
 50
180.000000
 51
270.000000
  0
LINE
  8
0
  6
CONTINUOUS
 10
-1.728868
 20
368.695435
 11
-1.728868
 21
438.695435
  0
LINE
  8
0
  6
CONTINUOUS
 10
2.812574
 20
448.695435
 11
18.771132
 21
448.695435
  0
LINE
  8
0
  6
CONTINUOUS
 10
-1.228868
 20
445.695435
 11
-1.228868
 21
361.695435
  0
LINE
  8
0
  6
CONTINUOUS
 10
18.771132
 20
432.695435
 11
0.521132
 21
432.695435
  0
LINE
  8
0
  6
CONTINUOUS
 10
-0.651522
 20
446.695404
 11
-1.228868
 21
445.695435
  0
ARC
  8
0
  6
CONTINUOUS
 10
2.812590
 20
444.695435
 40
4.000000
 50
90.000000
 51
150.000397
  0
LINE
  8
0
  6
CONTINUOUS
 10
2.812574
 20
358.695435
 11
18.771132
 21
358.695435
  0
LINE
  8
0
  6
CONTINUOUS
 10
18.771132
 20
374.695435
 11
0.521132
 21
374.695435
  0
LINE
  8
0
  6
CONTINUOUS
 10
-0.651522
 20
360.695435
 11
-1.228868
 21
361.695435
  0
ARC
  8
0
  6
CONTINUOUS
 10
2.812590
 20
362.695404
 40
4.000000
 50
-150.000397
 51
-90.000000
  0
LINE
  8
0
  6
CONTINUOUS
 10
-1.728868
 20
438.695435
 11
-1.228868
 21
439.195435
  0
LINE
  8
0
  6
CONTINUOUS
 10
-1.728868
 20
368.695435
 11
-1.228868
 21
368.195435
  0
LINE
  8
0
  6
CONTINUOUS
 10
137.771133
 20
448.695435
 11
137.771133
 21
358.695435
  0
ARC
  8
0
  6
CONTINUOUS
 10
185.771133
 20
465.695435
 40
2.000000
 50
90.000000
 51
180.000000
  0
ARC
  8
0
  6
CONTINUOUS
 10
185.771133
 20
341.695435
 40
2.000000
 50
180.000000
 51
270.000000
  0
ARC
  8
0
  6
CONTINUOUS
 10
181.247498
 20
452.715179
 40
2.500000
 50
272.000000
 51
359.895721
  0
ARC
  8
0
  6
CONTINUOUS
 10
181.247498
 20
354.675690
 40
2.500000
 50
0.104292
 51
88.000000
  0
LINE
  8
0
  6
CONTINUOUS
 10
183.771133
 20
450.301788
 11
183.743103
 21
450.300812
  0
LINE
  8
0
  6
CONTINUOUS
 10
138.270828
 20
453.224884
 11
183.771133
 21
454.813782
  0
LINE
  8
0
  6
CONTINUOUS
 10
137.771133
 20
452.707428
 11
138.270828
 21
453.224884
  0
LINE
  8
0
  6
CONTINUOUS
 10
138.270828
 20
354.165985
 11
183.771133
 21
352.577087
  0
LINE
  8
0
  6
CONTINUOUS
 10
137.771133
 20
354.683441
 11
138.270828
 21
354.165985
  0
LINE
  8
0
  6
CONTINUOUS
 10
12.271132
 20
397.695435
 11
12.271132
 21
409.695435
  0
LINE
  8
0
  6
CONTINUOUS
 10
19.271132
 20
397.695435
 11
19.271132
 21
409.695435
  0
LINE
  8
0
  6
CONTINUOUS
 10
13.271132
 20
410.695435
 11
18.271132
 21
410.695435
  0
LINE
  8
0
  6
CONTINUOUS
 10
18.271132
 20
396.695435
 11
13.271132
 21
396.695435
  0
ARC
  8
0
  6
CONTINUOUS
 10
18.271132
 20
409.695435
 40
1.000000
 50
0.000000
 51
90.000000
  0
ARC
  8
0
  6
CONTINUOUS
 10
13.271132
 20
409.695435
 40
1.000000
 50
90.000000
 51
180.000000
  0
ARC
  8
0
  6
CONTINUOUS
 10
13.271132
 20
397.695435
 40
1.000000
 50
180.000000
 51
270.000000
  0
ARC
  8
0
  6
CONTINUOUS
 10
18.271132
 20
397.695435
 40
1.000000
 50
-90.000000
 51
0.000000
  0
LINE
  8
0
  6
CONTINUOUS
 10
16.771132
 20
400.195435
 11
16.771132
 21
407.195435
  0
LINE
  8
0
  6
CONTINUOUS
 10
14.771132
 20
400.195435
 11
14.771132
 21
407.195435
  0
ARC
  8
0
  6
CONTINUOUS
 10
15.771132
 20
407.195435
 40
1.000000
 50
90.000000
 51
180.000000
  0
ARC
  8
0
  6
CONTINUOUS
 10
15.771132
 20
407.195435
 40
1.000000
 50
0.000000
 51
90.000000
  0
ARC
  8
0
  6
CONTINUOUS
 10
15.771132
 20
400.195435
 40
1.000000
 50
180.000000
 51
270.000000
  0
ARC
  8
0
  6
CONTINUOUS
 10
15.771132
 20
400.195435
 40
1.000000
 50
-90.000000
 51
0.000000
  0
LINE
  8
0
  6
CONTINUOUS
 10
18.771132
 20
396.829407
 11
18.771132
 21
358.695435
  0
LINE
  8
0
  6
CONTINUOUS
 10
128.771133
 20
130.637497
 11
128.771133
 21
44.637482
  0
LINE
  8
0
  6
CONTINUOUS
 10
18.771132
 20
132.637497
 11
137.771133
 21
132.637497
  0
LINE
  8
0
  6
CONTINUOUS
 10
18.771132
 20
42.637501
 11
137.771133
 21
42.637501
  0
LINE
  8
0
  6
CONTINUOUS
 10
18.771132
 20
132.637497
 11
18.771132
 21
42.637501
  0
LINE
  8
0
  6
CONTINUOUS
 10
18.771132
 20
122.046799
 11
127.733452
 21
122.046799
  0
LINE
  8
0
  6
CONTINUOUS
 10
18.771132
 20
53.228199
 11
127.733452
 21
53.228199
  0
ARC
  8
0
  6
CONTINUOUS
 10
130.771133
 20
130.637527
 40
2.000000
 50
90.000000
 51
180.000000
  0
ARC
  8
0
  6
CONTINUOUS
 10
130.771133
 20
44.637501
 40
2.000000
 50
180.000000
 51
270.000000
  0
LINE
  8
0
  6
CONTINUOUS
 10
-1.728868
 20
52.637501
 11
-1.728868
 21
122.637497
  0
LINE
  8
0
  6
CONTINUOUS
 10
2.812574
 20
132.637497
 11
18.771132
 21
132.637497
  0
LINE
  8
0
  6
CONTINUOUS
 10
-1.228868
 20
129.637497
 11
-1.228868
 21
45.637501
  0
LINE
  8
0
  6
CONTINUOUS
 10
18.771132
 20
122.046799
 11
0.521132
 21
122.046799
  0
LINE
  8
0
  6
CONTINUOUS
 10
-0.651522
 20
130.637482
 11
-1.228868
 21
129.637497
  0
ARC
  8
0
  6
CONTINUOUS
 10
2.812590
 20
128.637497
 40
4.000000
 50
90.000000
 51
150.000397
  0
LINE
  8
0
  6
CONTINUOUS
 10
2.812574
 20
42.637501
 11
18.771132
 21
42.637501
  0
LINE
  8
0
  6
CONTINUOUS
 10
18.771132
 20
53.228199
 11
0.521132
 21
53.228199
  0
LINE
  8
0
  6
CONTINUOUS
 10
-0.651522
 20
44.637501
 11
-1.228868
 21
45.637501
  0
ARC
  8
0
  6
CONTINUOUS
 10
2.812590
 20
46.637482
 40
4.000000
 50
-150.000397
 51
-90.000000
  0
LINE
  8
0
  6
CONTINUOUS
 10
19.271132
 20
134.137497
 11
19.271132
 21
132.637497
  0
LINE
  8
0
  6
CONTINUOUS
 10
12.271132
 20
134.137497
 11
12.271132
 21
132.637497
  0
LINE
  8
0
  6
CONTINUOUS
 10
12.271132
 20
134.137497
 11
19.271132
 21
134.137497
  0
LINE
  8
0
  6
CONTINUOUS
 10
16.671135
 20
147.137497
 11
16.671135
 21
134.137497
  0
LINE
  8
0
  6
CONTINUOUS
 10
14.871130
 20
147.762497
 11
14.871130
 21
134.137497
  0
LINE
  8
0
  6
CONTINUOUS
 10
13.071136
 20
145.699997
 11
13.071136
 21
134.137497
  0
LINE
  8
0
  6
CONTINUOUS
 10
18.471132
 20
146.512497
 11
18.471132
 21
134.137497
  0
LINE
  8
0
  6
CONTINUOUS
 10
14.871130
 20
147.762497
 11
16.671135
 21
147.137497
  0
LINE
  8
0
  6
CONTINUOUS
 10
13.071136
 20
145.699997
 11
14.871130
 21
146.324997
  0
LINE
  8
0
  6
CONTINUOUS
 10
18.471132
 20
146.512497
 11
16.672132
 21
146.064774
  0
LINE
  8
0
  6
CONTINUOUS
 10
-1.728868
 20
122.637497
 11
-1.228868
 21
123.137497
  0
LINE
  8
0
  6
CONTINUOUS
 10
-1.728868
 20
52.637501
 11
-1.228868
 21
52.137501
  0
LINE
  8
0
  6
CONTINUOUS
 10
185.771133
 20
164.637604
 11
192.271133
 21
164.637604
  0
LINE
  8
0
  6
CONTINUOUS
 10
185.771133
 20
36.637402
 11
192.271133
 21
36.637402
  0
LINE
  8
0
  6
CONTINUOUS
 10
137.771133
 20
132.637497
 11
183.771133
 21
134.243851
  0
LINE
  8
0
  6
CONTINUOUS
 10
192.271133
 20
40.734318
 11
137.771133
 21
42.637501
  0
ARC
  8
0
  6
CONTINUOUS
 10
185.771149
 20
162.637619
 40
2.000000
 50
90.000000
 51
180.000000
  0
ARC
  8
0
  6
CONTINUOUS
 10
185.771133
 20
38.637402
 40
2.000000
 50
180.260773
 51
270.000000
  0
LINE
  8
0
  6
CONTINUOUS
 10
137.771133
 20
132.637497
 11
137.771133
 21
42.637501
  0
LINE
  8
0
  6
CONTINUOUS
 10
183.038895
 20
140.405273
 11
177.324387
 21
134.690750
  0
LINE
  8
0
  6
CONTINUOUS
 10
137.771133
 20
67.131500
 11
181.771133
 21
67.131500
  0
LINE
  8
0
  6
CONTINUOUS
 10
137.771133
 20
52.118500
 11
192.271133
 21
52.118500
  0
LINE
  8
0
  6
CONTINUOUS
 10
184.339096
 20
60.070499
 11
192.271133
 21
60.070499
  0
LINE
  8
0
  6
CONTINUOUS
 10
183.771133
 20
61.285233
 11
183.771133
 21
162.637619
  0
ARC
  8
0
  6
CONTINUOUS
 10
181.271179
 20
38.616920
 40
2.500000
 50
0.260773
 51
88.000000
  0
ARC
  8
0
  6
CONTINUOUS
 10
181.271133
 20
142.173035
 40
2.500000
 50
-45.000000
 51
0.000000
  0
ARC
  8
0
  6
CONTINUOUS
 10
175.556625
 20
136.458527
 40
2.500000
 50
272.000000
 51
315.000000
  0
LINE
  8
0
  6
CONTINUOUS
 10
128.771133
 20
374.695435
 11
128.771133
 21
360.695404
  0
TEXT
  8
0
 10
-19.000000
 20
-9.000000
 40
4.000000
 41
1.000000
  1
HLM-32T-600~900-T90
 50
0.000000
  0
ENDSEC
  0
EOF
