  0
SECTION
  2
HEADER
  9
$CLAYER
  8
1
  9
$LTSCALE
 40
3.0
  0
ENDSEC
  0
SECTION
  2
TABLES
  0
TABLE
  2
LTYPE
 70
     4
  0
LTYPE
  2
CONTINUOUS
  3
solid line
 70
    64
 72
    65
 73
     0
 40
0.0
  0
LTYPE
  2
DASHED
  3
__ __ __ __ __ __ __ __ __ __ __ __ __ __ __
 70
    64
 72
    65
 73
     2
 40
0.75
 49
0.5
 49
-0.25
  0
LTYPE
  2
CENTER
  3
____ _ ____ _ ____ _ ____ _ ____ _ ____ _ ____
 70
    64
 72
    65
 73
     4
 40
2.0
 49
1.25
 49
-0.25
 49
0.25
 49
-0.25
  0
LTYPE
  2
PHANTOM
  3
_____ _ _ _____ _ _ _____ _ _ _____ _ _ ____
 70
    64
 72
    65
 73
     6
 40
2.5
 49
1.25
 49
-0.25
 49
0.25
 49
-0.25
 49
0.25
 49
-0.25
  0
ENDTAB
  0
TABLE
  2
LAYER
 70
     1
  0
LAYER
  2
0
 70
    64
 62
     7
  6
CONTINUOUS
  0
ENDTAB
  0
TABLE
  2
STYLE
 70
     1
  0
STYLE
  2
STANDARD
 70
     0
 40
0.000000
 41
1.000000
 50
0.000000
 71
     0
 42
3.000000
  3
txt
  4
BIGFONT
  0
ENDTAB
  0
ENDSEC
  0
SECTION
  2
BLOCKS
  0
ENDSEC
  0
SECTION
  2
ENTITIES
  0
LINE
  8
0
  6
CENTER
 10
312.737396
 20
543.719177
 11
312.737396
 21
290.219177
  0
LINE
  8
0
  6
CONTINUOUS
 10
388.737579
 20
415.656677
 11
387.952118
 21
460.656677
  0
LINE
  8
0
  6
CONTINUOUS
 10
254.287323
 20
490.656677
 11
296.737396
 21
490.656677
  0
LINE
  8
0
  6
CONTINUOUS
 10
378.680969
 20
485.457886
 11
387.952118
 21
460.656677
  0
ARC
  8
0
  6
CONTINUOUS
 10
371.187439
 20
482.656677
 40
8.000000
 50
20.496618
 51
90.000000
  0
LINE
  8
0
  6
CONTINUOUS
 10
388.737579
 20
415.656677
 11
387.952118
 21
370.656677
  0
LINE
  8
0
  6
CONTINUOUS
 10
254.287323
 20
340.656677
 11
296.737396
 21
340.656677
  0
LINE
  8
0
  6
CONTINUOUS
 10
378.680969
 20
345.855469
 11
387.952118
 21
370.656677
  0
ARC
  8
0
  6
CONTINUOUS
 10
371.187439
 20
348.656677
 40
8.000000
 50
-90.000000
 51
-20.496618
  0
LINE
  8
0
  6
CONTINUOUS
 10
246.793793
 20
485.457886
 11
237.738998
 21
461.235413
  0
ARC
  8
0
  6
CONTINUOUS
 10
254.287323
 20
482.656677
 40
8.000000
 50
90.000000
 51
159.503387
  0
LINE
  8
0
  6
CONTINUOUS
 10
246.793793
 20
345.855469
 11
237.738998
 21
370.077942
  0
ARC
  8
0
  6
CONTINUOUS
 10
254.287323
 20
348.656677
 40
8.000000
 50
200.496613
 51
270.000000
  0
LINE
  8
0
  6
CONTINUOUS
 10
240.074020
 20
460.656677
 11
385.003998
 21
460.656677
  0
LINE
  8
0
  6
CONTINUOUS
 10
385.003998
 20
370.656677
 11
240.074020
 21
370.656677
  0
LINE
  8
0
  6
CONTINUOUS
 10
312.737396
 20
477.656677
 11
347.996185
 21
477.656677
  0
ARC
  8
0
  6
CONTINUOUS
 10
385.003998
 20
457.656677
 40
3.000000
 50
1.000000
 51
90.000000
  0
ARC
  8
0
  6
CONTINUOUS
 10
385.003998
 20
373.656677
 40
3.000000
 50
270.000000
 51
359.000000
  0
LINE
  8
0
  6
CONTINUOUS
 10
341.737396
 20
457.656677
 11
341.737396
 21
373.656677
  0
LINE
  8
0
  6
CONTINUOUS
 10
283.737396
 20
457.656677
 11
283.737396
 21
373.656677
  0
LINE
  8
0
  6
CONTINUOUS
 10
224.737381
 20
479.656677
 11
224.737381
 21
351.656677
  0
LINE
  8
0
  6
CONTINUOUS
 10
227.309708
 20
479.656677
 11
224.737381
 21
479.656677
  0
LINE
  8
0
  6
CONTINUOUS
 10
352.793030
 20
474.067505
 11
353.796204
 21
470.656677
  0
ARC
  8
0
  6
CONTINUOUS
 10
347.996185
 20
472.656677
 40
5.000000
 50
16.389540
 51
90.000000
  0
LINE
  8
0
  6
CONTINUOUS
 10
368.283508
 20
467.049316
 11
369.091248
 21
464.264069
  0
LINE
  8
0
  6
CONTINUOUS
 10
363.481384
 20
470.656677
 11
353.796204
 21
470.656677
  0
LINE
  8
0
  6
CONTINUOUS
 10
312.737396
 20
477.656677
 11
277.478577
 21
477.656677
  0
LINE
  8
0
  6
CONTINUOUS
 10
312.737396
 20
353.656677
 11
347.996185
 21
353.656677
  0
LINE
  8
0
  6
CONTINUOUS
 10
312.737396
 20
353.656677
 11
277.478577
 21
353.656677
  0
LINE
  8
0
  6
CONTINUOUS
 10
331.737396
 20
535.656677
 11
296.737396
 21
535.656677
  0
LINE
  8
0
  6
CONTINUOUS
 10
296.737396
 20
480.656677
 11
296.737396
 21
535.656677
  0
LINE
  8
0
  6
CONTINUOUS
 10
328.737396
 20
480.656677
 11
328.737396
 21
485.656677
  0
LINE
  8
0
  6
CONTINUOUS
 10
295.237396
 20
480.656677
 11
330.237396
 21
480.656677
  0
LINE
  8
0
  6
CONTINUOUS
 10
295.237396
 20
477.656677
 11
295.237396
 21
480.656677
  0
LINE
  8
0
  6
CONTINUOUS
 10
330.237396
 20
477.656677
 11
330.237396
 21
480.656677
  0
LINE
  8
0
  6
CONTINUOUS
 10
331.737396
 20
490.656677
 11
371.187439
 21
490.656677
  0
LINE
  8
0
  6
CONTINUOUS
 10
331.737396
 20
535.656677
 11
331.737396
 21
485.656677
  0
LINE
  8
0
  6
CONTINUOUS
 10
327.936066
 20
485.656677
 11
331.737396
 21
485.656677
  0
LINE
  8
0
  6
CONTINUOUS
 10
327.936066
 20
485.656677
 11
327.936066
 21
535.656677
  0
LINE
  8
0
  6
CONTINUOUS
 10
331.737396
 20
295.656677
 11
296.737396
 21
295.656677
  0
LINE
  8
0
  6
CONTINUOUS
 10
296.737396
 20
350.656677
 11
296.737396
 21
295.656677
  0
LINE
  8
0
  6
CONTINUOUS
 10
328.737396
 20
350.656677
 11
328.737396
 21
345.656677
  0
LINE
  8
0
  6
CONTINUOUS
 10
295.237396
 20
350.656677
 11
330.237396
 21
350.656677
  0
LINE
  8
0
  6
CONTINUOUS
 10
295.237396
 20
353.656677
 11
295.237396
 21
350.656677
  0
LINE
  8
0
  6
CONTINUOUS
 10
330.237396
 20
353.656677
 11
330.237396
 21
350.656677
  0
LINE
  8
0
  6
CONTINUOUS
 10
331.737396
 20
295.656677
 11
331.737396
 21
345.656677
  0
LINE
  8
0
  6
CONTINUOUS
 10
327.936066
 20
345.656677
 11
331.737396
 21
345.656677
  0
LINE
  8
0
  6
CONTINUOUS
 10
327.936066
 20
345.656677
 11
327.936066
 21
295.656677
  0
LINE
  8
0
  6
CONTINUOUS
 10
331.737396
 20
340.656677
 11
371.187439
 21
340.656677
  0
LINE
  8
0
  6
CENTER
 10
350.361053
 20
475.656677
 11
369.298553
 21
475.656677
  0
LINE
  8
0
  6
CENTER
 10
360.237396
 20
466.504333
 11
360.237396
 21
486.004333
  0
ARC
  8
0
  6
CONTINUOUS
 10
360.237396
 20
475.656677
 40
6.500000
 50
-51.240688
 51
230.284866
  0
ARC
  8
0
  6
CONTINUOUS
 10
265.237396
 20
475.656677
 40
6.500000
 50
-50.284863
 51
231.240692
  0
LINE
  8
0
  6
CENTER
 10
265.237396
 20
466.504333
 11
265.237396
 21
486.004333
  0
LINE
  8
0
  6
CENTER
 10
275.113708
 20
475.656677
 11
256.176208
 21
475.656677
  0
LINE
  8
0
  6
CENTER
 10
-25.183750
 20
415.656677
 11
407.894989
 21
415.656677
  0
LINE
  8
0
  6
CONTINUOUS
 10
232.139343
 20
475.950775
 11
235.244385
 21
464.362579
  0
ARC
  8
0
  6
CONTINUOUS
 10
240.074020
 20
465.656677
 40
5.000000
 50
195.000000
 51
270.000000
  0
ARC
  8
0
  6
CONTINUOUS
 10
227.309708
 20
474.656677
 40
5.000000
 50
15.000000
 51
90.000000
  0
LINE
  8
0
  6
CONTINUOUS
 10
227.309708
 20
351.656677
 11
224.737381
 21
351.656677
  0
LINE
  8
0
  6
CONTINUOUS
 10
232.139343
 20
355.362579
 11
235.244385
 21
366.950775
  0
ARC
  8
0
  6
CONTINUOUS
 10
227.309708
 20
356.656677
 40
5.000000
 50
-90.000000
 51
-15.000000
  0
ARC
  8
0
  6
CONTINUOUS
 10
240.074020
 20
365.656677
 40
5.000000
 50
-270.000000
 51
-195.000000
  0
LINE
  8
0
  6
CONTINUOUS
 10
236.737183
 20
415.656677
 11
237.471207
 21
457.709045
  0
LINE
  8
0
  6
CONTINUOUS
 10
236.737183
 20
415.656677
 11
237.471207
 21
373.604309
  0
ARC
  8
0
  6
CONTINUOUS
 10
240.470749
 20
457.656677
 40
3.000000
 50
90.000000
 51
179.000000
  0
ARC
  8
0
  6
CONTINUOUS
 10
240.470749
 20
373.656677
 40
3.000000
 50
-179.000000
 51
-90.000000
  0
ARC
  8
0
  6
CONTINUOUS
 10
363.481384
 20
465.656677
 40
5.000000
 50
16.172159
 51
90.000000
  0
ARC
  8
0
  6
CONTINUOUS
 10
373.893402
 20
465.656677
 40
5.000000
 50
196.172165
 51
270.000000
  0
LINE
  8
0
  6
CONTINUOUS
 10
370.137390
 20
460.656677
 11
370.140594
 21
460.645599
  0
ARC
  8
0
  6
CONTINUOUS
 10
277.478577
 20
472.656677
 40
5.000000
 50
90.000000
 51
163.610458
  0
LINE
  8
0
  6
CONTINUOUS
 10
272.681732
 20
474.067505
 11
271.678558
 21
470.656677
  0
LINE
  8
0
  6
CONTINUOUS
 10
257.191254
 20
467.049316
 11
256.383514
 21
464.264069
  0
LINE
  8
0
  6
CONTINUOUS
 10
261.993378
 20
470.656677
 11
271.678558
 21
470.656677
  0
ARC
  8
0
  6
CONTINUOUS
 10
261.993378
 20
465.656677
 40
5.000000
 50
90.000000
 51
163.827835
  0
ARC
  8
0
  6
CONTINUOUS
 10
251.581375
 20
465.656677
 40
5.000000
 50
-90.000000
 51
-16.172159
  0
LINE
  8
0
  6
CONTINUOUS
 10
255.337387
 20
460.656677
 11
255.334167
 21
460.645599
  0
ARC
  8
0
  6
CONTINUOUS
 10
265.237396
 20
355.656677
 40
6.500000
 50
-231.240692
 51
50.284863
  0
LINE
  8
0
  6
CENTER
 10
275.113708
 20
355.656677
 11
256.176208
 21
355.656677
  0
ARC
  8
0
  6
CONTINUOUS
 10
277.478577
 20
358.656677
 40
5.000000
 50
196.389542
 51
270.000000
  0
LINE
  8
0
  6
CONTINUOUS
 10
272.681732
 20
357.245850
 11
271.678558
 21
360.656677
  0
LINE
  8
0
  6
CONTINUOUS
 10
257.191254
 20
364.264069
 11
256.383514
 21
367.049316
  0
LINE
  8
0
  6
CONTINUOUS
 10
261.993378
 20
360.656677
 11
271.678558
 21
360.656677
  0
ARC
  8
0
  6
CONTINUOUS
 10
261.993378
 20
365.656677
 40
5.000000
 50
-163.827835
 51
-90.000000
  0
ARC
  8
0
  6
CONTINUOUS
 10
251.581375
 20
365.656677
 40
5.000000
 50
16.172159
 51
90.000000
  0
LINE
  8
0
  6
CONTINUOUS
 10
255.337387
 20
370.656677
 11
255.334167
 21
370.667755
  0
LINE
  8
0
  6
CENTER
 10
265.237396
 20
364.809021
 11
265.237396
 21
345.309021
  0
LINE
  8
0
  6
CONTINUOUS
 10
352.793030
 20
357.245850
 11
353.796204
 21
360.656677
  0
ARC
  8
0
  6
CONTINUOUS
 10
347.996185
 20
358.656677
 40
5.000000
 50
-90.000000
 51
-16.389540
  0
LINE
  8
0
  6
CONTINUOUS
 10
368.283508
 20
364.264069
 11
369.091248
 21
367.049316
  0
LINE
  8
0
  6
CONTINUOUS
 10
363.481384
 20
360.656677
 11
353.796204
 21
360.656677
  0
LINE
  8
0
  6
CENTER
 10
350.361053
 20
355.656677
 11
369.298553
 21
355.656677
  0
LINE
  8
0
  6
CENTER
 10
360.237396
 20
364.809021
 11
360.237396
 21
345.309021
  0
ARC
  8
0
  6
CONTINUOUS
 10
360.237396
 20
355.656677
 40
6.500000
 50
-230.284866
 51
51.240688
  0
ARC
  8
0
  6
CONTINUOUS
 10
363.481384
 20
365.656677
 40
5.000000
 50
-90.000000
 51
-16.172159
  0
ARC
  8
0
  6
CONTINUOUS
 10
373.893402
 20
365.656677
 40
5.000000
 50
-270.000000
 51
-196.172165
  0
LINE
  8
0
  6
CONTINUOUS
 10
370.137390
 20
370.656677
 11
370.140594
 21
370.667755
  0
LINE
  8
0
  6
CENTER
 10
312.737396
 20
244.894928
 11
312.737396
 21
6.965870
  0
LINE
  8
0
  6
CENTER
 10
248.852783
 20
157.598755
 11
375.696869
 21
157.598755
  0
LINE
  8
0
  6
CENTER
 10
360.237396
 20
42.874191
 11
360.237396
 21
9.009450
  0
LINE
  8
0
  6
CENTER
 10
265.237396
 20
42.874191
 11
265.237396
 21
8.717510
  0
LINE
  8
0
  6
CONTINUOUS
 10
236.737381
 20
17.598749
 11
388.737396
 21
17.598749
  0
LINE
  8
0
  6
CONTINUOUS
 10
236.737381
 20
35.598751
 11
388.737396
 21
35.598751
  0
LINE
  8
0
  6
CONTINUOUS
 10
388.737396
 20
185.904312
 11
388.737396
 21
17.598749
  0
LINE
  8
0
  6
CONTINUOUS
 10
236.737381
 20
181.098755
 11
236.737381
 21
185.904312
  0
LINE
  8
0
  6
CONTINUOUS
 10
286.233978
 20
222.598755
 11
339.240784
 21
222.598755
  0
LINE
  8
0
  6
CONTINUOUS
 10
231.737381
 20
176.598755
 11
224.737381
 21
176.598755
  0
LINE
  8
0
  6
CONTINUOUS
 10
231.737381
 20
48.598751
 11
224.737381
 21
48.598751
  0
LINE
  8
0
  6
CONTINUOUS
 10
385.287384
 20
192.484375
 11
343.790771
 21
221.178802
  0
LINE
  8
0
  6
CONTINUOUS
 10
240.187347
 20
192.484375
 11
281.683990
 21
221.178802
  0
ARC
  8
0
  6
CONTINUOUS
 10
339.240784
 20
214.598755
 40
8.000000
 50
55.336689
 51
90.000000
  0
ARC
  8
0
  6
CONTINUOUS
 10
380.737396
 20
185.904266
 40
8.000000
 50
0.000000
 51
55.336739
  0
ARC
  8
0
  6
CONTINUOUS
 10
286.233978
 20
214.598755
 40
8.000000
 50
90.000000
 51
124.663696
  0
ARC
  8
0
  6
CONTINUOUS
 10
244.737381
 20
185.904343
 40
8.000000
 50
124.663803
 51
180.000000
  0
LINE
  8
0
  6
CONTINUOUS
 10
236.737381
 20
44.098751
 11
236.737381
 21
17.598749
  0
ARC
  8
0
  6
CONTINUOUS
 10
231.737366
 20
181.598755
 40
5.000000
 50
-90.000000
 51
0.000000
  0
LINE
  8
0
  6
CONTINUOUS
 10
236.737381
 20
44.098751
 11
236.737381
 21
181.098755
  0
ARC
  8
0
  6
CONTINUOUS
 10
231.737396
 20
43.598728
 40
5.000000
 50
0.000000
 51
90.000000
  0
LINE
  8
0
  6
DASHED
 10
258.737396
 20
35.598751
 11
258.737396
 21
17.598749
  0
LINE
  8
0
  6
DASHED
 10
271.737396
 20
35.598751
 11
271.737396
 21
17.598749
  0
LINE
  8
0
  6
DASHED
 10
353.737396
 20
35.598751
 11
353.737396
 21
17.598749
  0
LINE
  8
0
  6
DASHED
 10
366.737396
 20
35.598751
 11
366.737396
 21
17.598749
  0
CIRCLE
  8
0
  6
CONTINUOUS
 10
312.737396
 20
157.598755
 40
39.000000
  0
ARC
  8
0
  6
CONTINUOUS
 10
312.737396
 20
157.598755
 40
44.000000
 50
12.523240
 51
167.476898
  0
ARC
  8
0
  6
CONTINUOUS
 10
287.237396
 20
98.598747
 40
29.000000
 50
167.476898
 51
270.000000
  0
ARC
  8
0
  6
CONTINUOUS
 10
338.237396
 20
98.598747
 40
29.000000
 50
-90.000000
 51
12.523240
  0
ARC
  8
0
  6
CONTINUOUS
 10
287.237396
 20
98.598747
 40
31.900000
 50
167.476898
 51
270.000000
  0
ARC
  8
0
  6
CONTINUOUS
 10
338.237396
 20
98.598747
 40
31.900000
 50
-90.000000
 51
12.523240
  0
ARC
  8
0
  6
CONTINUOUS
 10
312.737396
 20
157.598755
 40
41.099998
 50
-192.523102
 51
12.523240
  0
LINE
  8
0
  6
CONTINUOUS
 10
256.096375
 20
105.515755
 11
269.784180
 21
167.139450
  0
LINE
  8
0
  6
CONTINUOUS
 10
258.927368
 20
104.886932
 11
272.615173
 21
166.510635
  0
LINE
  8
0
  6
CONTINUOUS
 10
287.237396
 20
66.698753
 11
338.237396
 21
66.698753
  0
LINE
  8
0
  6
CONTINUOUS
 10
338.237396
 20
69.598747
 11
287.237396
 21
69.598747
  0
LINE
  8
0
  6
CONTINUOUS
 10
355.690582
 20
167.139526
 11
369.378387
 21
105.515816
  0
LINE
  8
0
  6
CONTINUOUS
 10
352.859589
 20
166.510712
 11
366.547394
 21
104.886993
  0
LINE
  8
0
  6
CONTINUOUS
 10
300.510376
 20
81.598747
 11
295.569977
 21
81.598747
  0
LINE
  8
0
  6
CONTINUOUS
 10
303.237396
 20
89.874153
 11
303.237396
 21
81.598747
  0
LINE
  8
0
  6
CONTINUOUS
 10
307.987396
 20
92.879997
 11
307.987396
 21
95.848747
  0
LINE
  8
0
  6
CONTINUOUS
 10
317.487396
 20
92.879997
 11
317.487396
 21
95.848747
  0
LINE
  8
0
  6
CONTINUOUS
 10
311.809570
 20
94.104607
 11
311.809570
 21
83.157349
  0
LINE
  8
0
  6
CONTINUOUS
 10
313.590973
 20
94.104607
 11
313.590973
 21
83.157349
  0
LINE
  8
0
  6
CONTINUOUS
 10
322.942596
 20
94.104607
 11
322.942596
 21
83.083130
  0
LINE
  8
0
  6
CONTINUOUS
 10
324.575378
 20
88.259888
 11
324.575378
 21
83.083130
  0
LINE
  8
0
  6
CONTINUOUS
 10
300.983368
 20
93.956169
 11
296.405792
 21
93.956169
  0
LINE
  8
0
  6
CONTINUOUS
 10
296.405792
 20
93.956169
 11
295.333191
 21
92.626175
  0
LINE
  8
0
  6
CONTINUOUS
 10
295.462189
 20
95.848747
 11
293.737396
 21
93.640282
  0
LINE
  8
0
  6
CONTINUOUS
 10
295.333191
 20
84.416588
 11
296.422974
 21
83.268669
  0
LINE
  8
0
  6
CONTINUOUS
 10
293.737396
 20
83.447868
 11
295.569977
 21
81.598747
  0
LINE
  8
0
  6
CONTINUOUS
 10
293.737396
 20
93.640282
 11
293.737396
 21
83.447868
  0
LINE
  8
0
  6
CONTINUOUS
 10
295.333191
 20
92.626175
 11
295.333191
 21
84.416588
  0
LINE
  8
0
  6
CONTINUOUS
 10
301.864380
 20
93.104607
 11
300.965393
 21
93.956169
  0
LINE
  8
0
  6
CONTINUOUS
 10
301.850189
 20
95.848747
 11
303.237396
 21
94.309166
  0
LINE
  8
0
  6
CONTINUOUS
 10
301.864380
 20
92.879997
 11
303.237396
 21
92.879997
  0
LINE
  8
0
  6
CONTINUOUS
 10
295.462189
 20
95.848747
 11
301.850189
 21
95.848747
  0
LINE
  8
0
  6
CONTINUOUS
 10
299.377991
 20
89.874153
 11
303.237396
 21
89.874153
  0
LINE
  8
0
  6
CONTINUOUS
 10
301.864380
 20
88.315552
 11
299.377991
 21
88.315552
  0
LINE
  8
0
  6
CONTINUOUS
 10
298.895569
 20
83.268669
 11
296.422974
 21
83.268669
  0
LINE
  8
0
  6
CONTINUOUS
 10
301.864380
 20
86.831169
 11
301.864380
 21
88.018669
  0
ARC
  8
0
  6
CONTINUOUS
 10
298.895569
 20
86.237411
 40
2.968750
 50
-89.999786
 51
0.000109
  0
LINE
  8
0
  6
CONTINUOUS
 10
301.864380
 20
82.734673
 11
301.864380
 21
81.598747
  0
LINE
  8
0
  6
CONTINUOUS
 10
303.237396
 20
94.309166
 11
303.237396
 21
92.879997
  0
LINE
  8
0
  6
CONTINUOUS
 10
301.864380
 20
88.315552
 11
301.864380
 21
86.237411
  0
LINE
  8
0
  6
CONTINUOUS
 10
299.377991
 20
89.874153
 11
299.377991
 21
88.315552
  0
LINE
  8
0
  6
CONTINUOUS
 10
301.864380
 20
81.598747
 11
303.237396
 21
81.598747
  0
LINE
  8
0
  6
CONTINUOUS
 10
301.864380
 20
82.734673
 11
300.510376
 21
81.598747
  0
LINE
  8
0
  6
CONTINUOUS
 10
313.590973
 20
83.157349
 11
314.184570
 21
83.157349
  0
LINE
  8
0
  6
CONTINUOUS
 10
311.104584
 20
83.157349
 11
311.104584
 21
81.598747
  0
LINE
  8
0
  6
CONTINUOUS
 10
314.184570
 20
83.157349
 11
314.184570
 21
81.598747
  0
LINE
  8
0
  6
CONTINUOUS
 10
316.496368
 20
92.879997
 11
317.487396
 21
92.879997
  0
LINE
  8
0
  6
CONTINUOUS
 10
307.987396
 20
92.879997
 11
309.041992
 21
92.879997
  0
LINE
  8
0
  6
CONTINUOUS
 10
307.987396
 20
95.848747
 11
317.487396
 21
95.848747
  0
LINE
  8
0
  6
CONTINUOUS
 10
311.104584
 20
81.598747
 11
314.184570
 21
81.598747
  0
LINE
  8
0
  6
CONTINUOUS
 10
311.104584
 20
83.157349
 11
311.809570
 21
83.157349
  0
ARC
  8
0
  6
CONTINUOUS
 10
327.933594
 20
92.045029
 40
3.803712
 50
-73.981873
 51
90.003510
  0
ARC
  8
0
  6
CONTINUOUS
 10
327.933594
 20
92.045029
 40
2.320524
 50
-82.585274
 51
62.411850
  0
LINE
  8
0
  6
CONTINUOUS
 10
322.237396
 20
95.848747
 11
327.933594
 21
95.848747
  0
LINE
  8
0
  6
CONTINUOUS
 10
328.233185
 20
89.743912
 11
324.575378
 21
89.743912
  0
LINE
  8
0
  6
CONTINUOUS
 10
322.237396
 20
95.848747
 11
322.237396
 21
94.104607
  0
LINE
  8
0
  6
CONTINUOUS
 10
324.575378
 20
94.104607
 11
324.575378
 21
89.743912
  0
LINE
  8
0
  6
CONTINUOUS
 10
328.983185
 20
88.389008
 11
331.337585
 21
83.083130
  0
LINE
  8
0
  6
CONTINUOUS
 10
327.615967
 20
88.259888
 11
329.843994
 21
83.083130
  0
LINE
  8
0
  6
CONTINUOUS
 10
322.237396
 20
83.083130
 11
322.942596
 21
83.083130
  0
LINE
  8
0
  6
CONTINUOUS
 10
324.575378
 20
83.083130
 11
325.224792
 21
83.083130
  0
LINE
  8
0
  6
CONTINUOUS
 10
325.224792
 20
81.598747
 11
322.237396
 21
81.598747
  0
LINE
  8
0
  6
CONTINUOUS
 10
329.547974
 20
83.083130
 11
329.843994
 21
83.083130
  0
LINE
  8
0
  6
CONTINUOUS
 10
331.337585
 20
83.083130
 11
331.737396
 21
83.083130
  0
LINE
  8
0
  6
CONTINUOUS
 10
329.547974
 20
81.598747
 11
331.737396
 21
81.598747
  0
LINE
  8
0
  6
CONTINUOUS
 10
331.737396
 20
83.083130
 11
331.737396
 21
81.598747
  0
LINE
  8
0
  6
CONTINUOUS
 10
329.547974
 20
83.083130
 11
329.547974
 21
81.598747
  0
LINE
  8
0
  6
CONTINUOUS
 10
325.224792
 20
83.083130
 11
325.224792
 21
81.598747
  0
LINE
  8
0
  6
CONTINUOUS
 10
322.237396
 20
83.083130
 11
322.237396
 21
81.598747
  0
LINE
  8
0
  6
CONTINUOUS
 10
309.552185
 20
94.104607
 11
309.041992
 21
92.879997
  0
LINE
  8
0
  6
CONTINUOUS
 10
316.066193
 20
94.104607
 11
316.496368
 21
92.879997
  0
LINE
  8
0
  6
CONTINUOUS
 10
313.590973
 20
94.104607
 11
316.066193
 21
94.104607
  0
LINE
  8
0
  6
CONTINUOUS
 10
311.809570
 20
94.104607
 11
309.552185
 21
94.104607
  0
LINE
  8
0
  6
CONTINUOUS
 10
324.575378
 20
88.259888
 11
327.615967
 21
88.259888
  0
LINE
  8
0
  6
CONTINUOUS
 10
322.237396
 20
94.104607
 11
322.942596
 21
94.104607
  0
LINE
  8
0
  6
CONTINUOUS
 10
324.575378
 20
94.104607
 11
329.008392
 21
94.101723
  0
LINE
  8
0
  6
CONTINUOUS
 10
301.864380
 20
93.104607
 11
301.864380
 21
92.879997
  0
ARC
  8
0
  6
CONTINUOUS
 10
416.446167
 20
112.598747
 40
185.208893
 50
166.001907
 51
193.998093
  0
LINE
  8
0
  6
CONTINUOUS
 10
250.737381
 20
33.532188
 11
250.737381
 21
17.598749
  0
LINE
  8
0
  6
CONTINUOUS
 10
374.737396
 20
33.532188
 11
374.737396
 21
17.598749
  0
LINE
  8
0
  6
CONTINUOUS
 10
336.494781
 20
40.598751
 11
288.979980
 21
40.598751
  0
LINE
  8
0
  6
CONTINUOUS
 10
287.737396
 20
39.662868
 11
287.737396
 21
36.598751
  0
LINE
  8
0
  6
CONTINUOUS
 10
338.615967
 20
39.720070
 11
341.272980
 21
37.063210
  0
LINE
  8
0
  6
CONTINUOUS
 10
286.858795
 20
39.720070
 11
284.201996
 21
37.063251
  0
LINE
  8
0
  6
CONTINUOUS
 10
337.737396
 20
39.662868
 11
337.737396
 21
36.598751
  0
ARC
  8
0
  6
CONTINUOUS
 10
280.666382
 20
40.598751
 40
5.000000
 50
270.000000
 51
315.000092
  0
ARC
  8
0
  6
CONTINUOUS
 10
288.979980
 20
37.598751
 40
3.000000
 50
90.000000
 51
135.000305
  0
ARC
  8
0
  6
CONTINUOUS
 10
286.737396
 20
36.598751
 40
1.000000
 50
-90.000000
 51
0.000000
  0
ARC
  8
0
  6
CONTINUOUS
 10
344.808380
 20
40.598751
 40
5.000000
 50
225.000000
 51
270.000000
  0
ARC
  8
0
  6
CONTINUOUS
 10
336.494781
 20
37.598751
 40
3.000000
 50
45.000160
 51
90.000000
  0
ARC
  8
0
  6
CONTINUOUS
 10
338.737396
 20
36.598751
 40
1.000000
 50
180.000000
 51
270.000000
  0
LINE
  8
0
  6
CONTINUOUS
 10
323.737396
 20
152.598785
 11
323.737396
 21
162.598785
  0
LINE
  8
0
  6
CONTINUOUS
 10
331.737396
 20
152.598816
 11
331.737396
 21
162.598816
  0
LINE
  8
0
  6
CONTINUOUS
 10
331.737396
 20
152.598816
 11
323.737396
 21
152.598785
  0
LINE
  8
0
  6
CONTINUOUS
 10
331.737396
 20
162.598816
 11
323.737396
 21
162.598785
  0
ARC
  8
0
  6
CONTINUOUS
 10
312.737396
 20
157.598755
 40
16.000000
 50
18.209900
 51
341.790100
  0
LINE
  8
0
  6
CENTER
 10
588.094971
 20
2.478750
 11
588.094971
 21
254.324326
  0
LINE
  8
0
  6
CENTER
 10
507.507629
 20
112.598747
 11
667.877625
 21
112.598747
  0
LINE
  8
0
  6
CENTER
 10
453.445007
 20
157.598755
 11
722.271973
 21
157.598755
  0
LINE
  8
0
  6
CENTER
 10
648.094971
 20
44.197491
 11
648.094971
 21
6.298370
  0
LINE
  8
0
  6
CENTER
 10
528.094971
 20
44.197491
 11
528.094971
 21
6.298370
  0
LINE
  8
0
  6
CONTINUOUS
 10
513.094971
 20
17.598749
 11
558.094971
 21
17.598749
  0
LINE
  8
0
  6
CONTINUOUS
 10
618.094971
 20
17.598749
 11
663.094971
 21
17.598749
  0
LINE
  8
0
  6
CONTINUOUS
 10
660.594971
 20
35.598751
 11
637.094971
 21
35.598751
  0
LINE
  8
0
  6
CONTINUOUS
 10
515.594971
 20
35.598751
 11
539.094971
 21
35.598751
  0
LINE
  8
0
  6
CONTINUOUS
 10
633.094971
 20
218.865509
 11
633.094971
 21
17.598749
  0
LINE
  8
0
  6
CONTINUOUS
 10
543.094971
 20
205.339951
 11
543.094971
 21
218.865036
  0
LINE
  8
0
  6
CONTINUOUS
 10
663.094971
 20
33.480930
 11
663.094971
 21
17.598749
  0
LINE
  8
0
  6
CONTINUOUS
 10
513.094971
 20
33.480930
 11
513.094971
 21
17.598749
  0
LINE
  8
0
  6
CONTINUOUS
 10
559.594971
 20
19.098749
 11
616.594971
 21
19.098749
  0
LINE
  8
0
  6
CONTINUOUS
 10
630.147400
 20
221.865051
 11
588.094971
 21
222.598755
  0
LINE
  8
0
  6
CONTINUOUS
 10
546.042603
 20
221.864563
 11
588.094971
 21
222.598755
  0
LINE
  8
0
  6
CONTINUOUS
 10
526.094971
 20
122.339943
 11
526.094971
 21
192.857574
  0
LINE
  8
0
  6
CONTINUOUS
 10
650.094971
 20
122.339943
 11
650.094971
 21
192.857574
  0
LINE
  8
0
  6
CONTINUOUS
 10
533.094971
 20
73.354752
 11
533.094971
 21
161.509155
  0
LINE
  8
0
  6
CONTINUOUS
 10
643.094971
 20
73.354767
 11
643.094971
 21
161.509155
  0
LINE
  8
0
  6
DASHED
 10
654.594971
 20
35.598751
 11
654.594971
 21
17.598749
  0
LINE
  8
0
  6
DASHED
 10
641.594971
 20
35.598751
 11
641.594971
 21
17.598749
  0
LINE
  8
0
  6
DASHED
 10
534.594971
 20
35.598751
 11
534.594971
 21
17.598749
  0
LINE
  8
0
  6
DASHED
 10
521.594971
 20
35.598751
 11
521.594971
 21
17.598749
  0
ARC
  8
0
  6
CONTINUOUS
 10
546.094971
 20
218.865036
 40
3.000000
 50
91.000603
 51
180.000000
  0
ARC
  8
0
  6
CONTINUOUS
 10
630.094971
 20
218.865494
 40
3.000000
 50
0.000000
 51
89.000580
  0
LINE
  8
0
  6
CONTINUOUS
 10
539.505798
 20
200.543106
 11
529.684204
 21
197.654373
  0
LINE
  8
0
  6
CONTINUOUS
 10
529.684204
 20
117.543114
 11
530.223572
 21
117.384445
  0
LINE
  8
0
  6
CONTINUOUS
 10
536.702393
 20
68.552612
 11
539.487610
 21
67.744888
  0
LINE
  8
0
  6
CONTINUOUS
 10
515.184021
 20
35.946911
 11
540.588196
 21
40.180950
  0
LINE
  8
0
  6
CONTINUOUS
 10
661.005981
 20
35.946930
 11
635.601807
 21
40.180969
  0
LINE
  8
0
  6
CONTINUOUS
 10
639.487610
 20
68.552612
 11
636.702393
 21
67.744888
  0
LINE
  8
0
  6
CONTINUOUS
 10
646.505798
 20
117.543114
 11
645.966370
 21
117.384438
  0
LINE
  8
0
  6
CONTINUOUS
 10
646.505798
 20
197.654388
 11
636.684204
 21
200.543106
  0
LINE
  8
0
  6
CONTINUOUS
 10
545.669373
 20
190.098755
 11
630.347595
 21
190.098755
  0
ARC
  8
0
  6
CONTINUOUS
 10
531.094971
 20
192.857590
 40
5.000000
 50
106.389900
 51
180.000000
  0
ARC
  8
0
  6
CONTINUOUS
 10
645.094971
 20
192.857544
 40
5.000000
 50
0.000000
 51
73.610527
  0
ARC
  8
0
  6
CONTINUOUS
 10
531.094971
 20
122.339981
 40
5.000000
 50
180.000000
 51
253.610794
  0
ARC
  8
0
  6
CONTINUOUS
 10
645.094971
 20
122.339935
 40
5.000000
 50
-73.610321
 51
0.000000
  0
ARC
  8
0
  6
CONTINUOUS
 10
638.094971
 20
73.354752
 40
5.000000
 50
-73.827698
 51
0.000000
  0
ARC
  8
0
  6
CONTINUOUS
 10
538.094971
 20
73.354790
 40
5.000000
 50
180.000000
 51
253.828201
  0
LINE
  8
0
  6
CONTINUOUS
 10
543.094971
 20
205.339951
 11
543.094971
 21
17.598749
  0
ARC
  8
0
  6
CONTINUOUS
 10
538.094971
 20
205.339935
 40
5.000000
 50
-73.610229
 51
0.000000
  0
ARC
  8
0
  6
CONTINUOUS
 10
529.094971
 20
113.546967
 40
4.000000
 50
0.000000
 51
73.610649
  0
ARC
  8
0
  6
CONTINUOUS
 10
538.094971
 20
62.942730
 40
5.000000
 50
0.000000
 51
73.827919
  0
ARC
  8
0
  6
CONTINUOUS
 10
638.094971
 20
62.942768
 40
5.000000
 50
106.172501
 51
180.000000
  0
ARC
  8
0
  6
CONTINUOUS
 10
647.094971
 20
113.546997
 40
4.000000
 50
106.389999
 51
180.000000
  0
ARC
  8
0
  6
CONTINUOUS
 10
638.094971
 20
205.339966
 40
5.000000
 50
180.000000
 51
253.610794
  0
ARC
  8
0
  6
CONTINUOUS
 10
540.094971
 20
43.140129
 40
3.000000
 50
-80.537483
 51
0.000000
  0
ARC
  8
0
  6
CONTINUOUS
 10
539.094971
 20
39.598709
 40
4.000000
 50
-90.000000
 51
0.000000
  0
ARC
  8
0
  6
CONTINUOUS
 10
515.594971
 20
33.098770
 40
2.500000
 50
90.000000
 51
180.000000
  0
LINE
  8
0
  6
CONTINUOUS
 10
558.094971
 20
17.598749
 11
559.594971
 21
19.098749
  0
LINE
  8
0
  6
CONTINUOUS
 10
618.094971
 20
17.598749
 11
616.594971
 21
19.098749
  0
ARC
  8
0
  6
CONTINUOUS
 10
636.094971
 20
43.140171
 40
3.000000
 50
180.000000
 51
260.537903
  0
ARC
  8
0
  6
CONTINUOUS
 10
637.094971
 20
39.598751
 40
4.000000
 50
180.000000
 51
270.000000
  0
ARC
  8
0
  6
CONTINUOUS
 10
660.594971
 20
33.098751
 40
2.500000
 50
0.000000
 51
90.000000
  0
LINE
  8
0
  6
CONTINUOUS
 10
708.094971
 20
141.598755
 11
708.094971
 21
173.598755
  0
LINE
  8
0
  6
CONTINUOUS
 10
653.094971
 20
173.598755
 11
708.094971
 21
173.598755
  0
LINE
  8
0
  6
CONTINUOUS
 10
653.094971
 20
141.598755
 11
708.094971
 21
141.598755
  0
LINE
  8
0
  6
CONTINUOUS
 10
653.094971
 20
175.098755
 11
653.094971
 21
140.098755
  0
LINE
  8
0
  6
CONTINUOUS
 10
650.094971
 20
175.098755
 11
653.094971
 21
175.098755
  0
LINE
  8
0
  6
CONTINUOUS
 10
650.094971
 20
140.098755
 11
653.094971
 21
140.098755
  0
ARC
  8
0
  6
CONTINUOUS
 10
663.094971
 20
157.598755
 40
5.000000
 50
90.000000
 51
270.000000
  0
LINE
  8
0
  6
CONTINUOUS
 10
663.094971
 20
162.598755
 11
708.094971
 21
162.598755
  0
LINE
  8
0
  6
CONTINUOUS
 10
663.094971
 20
152.598755
 11
708.094971
 21
152.598755
  0
LINE
  8
0
  6
CONTINUOUS
 10
468.095001
 20
141.598755
 11
468.095001
 21
173.598755
  0
LINE
  8
0
  6
CONTINUOUS
 10
523.094971
 20
173.598755
 11
468.095001
 21
173.598755
  0
LINE
  8
0
  6
CONTINUOUS
 10
523.094971
 20
141.598755
 11
468.095001
 21
141.598755
  0
LINE
  8
0
  6
CONTINUOUS
 10
523.094971
 20
175.098755
 11
523.094971
 21
140.098755
  0
LINE
  8
0
  6
CONTINUOUS
 10
526.094971
 20
175.098755
 11
523.094971
 21
175.098755
  0
LINE
  8
0
  6
CONTINUOUS
 10
526.094971
 20
140.098755
 11
523.094971
 21
140.098755
  0
ARC
  8
0
  6
CONTINUOUS
 10
513.094971
 20
157.598755
 40
5.000000
 50
-90.000000
 51
90.000000
  0
LINE
  8
0
  6
CONTINUOUS
 10
513.094971
 20
162.598755
 11
468.095001
 21
162.598755
  0
LINE
  8
0
  6
CONTINUOUS
 10
513.094971
 20
152.598755
 11
468.095001
 21
152.598755
  0
ARC
  8
0
  6
CONTINUOUS
 10
515.594971
 20
33.480949
 40
2.500000
 50
99.462753
 51
180.000000
  0
ARC
  8
0
  6
CONTINUOUS
 10
660.594971
 20
33.480930
 40
2.500000
 50
0.000000
 51
80.537682
  0
LINE
  8
0
  6
CONTINUOUS
 10
224.737381
 20
176.598755
 11
224.737381
 21
48.598751
  0
ARC
  8
0
  6
CONTINUOUS
 10
588.094971
 20
112.598747
 40
64.000000
 50
165.638489
 51
210.753525
  0
ARC
  8
0
  6
CONTINUOUS
 10
588.094971
 20
112.598747
 40
64.000000
 50
-30.753519
 51
14.361512
  0
ARC
  8
0
  6
CONTINUOUS
 10
547.082825
 20
71.586533
 40
8.000000
 50
211.001404
 51
233.216995
  0
ARC
  8
0
  6
CONTINUOUS
 10
541.094971
 20
63.577412
 40
2.000000
 50
30.947910
 51
53.217121
  0
ARC
  8
0
  6
CONTINUOUS
 10
629.107178
 20
71.586533
 40
8.000000
 50
-53.216999
 51
-31.001400
  0
ARC
  8
0
  6
CONTINUOUS
 10
635.094971
 20
63.577412
 40
2.000000
 50
126.782883
 51
149.052094
  0
LINE
  8
0
  6
CENTER
 10
-19.937500
 20
99.598747
 11
269.623749
 21
99.598747
  0
LINE
  8
0
  6
CENTER
 10
192.006256
 20
112.598747
 11
269.623749
 21
112.598747
  0
LINE
  8
0
  6
CONTINUOUS
 10
216.237381
 20
353.656677
 11
216.237381
 21
477.656677
  0
LINE
  8
0
  6
CONTINUOUS
 10
170.237381
 20
460.656677
 11
213.800995
 21
462.177948
  0
LINE
  8
0
  6
CONTINUOUS
 10
170.237381
 20
370.656677
 11
213.800995
 21
369.135406
  0
LINE
  8
0
  6
CONTINUOUS
 10
170.237381
 20
464.668671
 11
170.237381
 21
366.644684
  0
LINE
  8
0
  6
CONTINUOUS
 10
218.237381
 20
479.656677
 11
224.737381
 21
479.656677
  0
LINE
  8
0
  6
CONTINUOUS
 10
218.237381
 20
351.656677
 11
224.737381
 21
351.656677
  0
LINE
  8
0
  6
CONTINUOUS
 10
209.094376
 20
439.656677
 11
216.209366
 21
439.656677
  0
LINE
  8
0
  6
CONTINUOUS
 10
209.699524
 20
391.656677
 11
216.209366
 21
391.656677
  0
LINE
  8
0
  6
CONTINUOUS
 10
209.094376
 20
437.452179
 11
209.094376
 21
393.739594
  0
LINE
  8
0
  6
CONTINUOUS
 10
161.237381
 20
458.656677
 11
161.237381
 21
444.656677
  0
LINE
  8
0
  6
CONTINUOUS
 10
51.237381
 20
460.656677
 11
170.237381
 21
460.656677
  0
LINE
  8
0
  6
CONTINUOUS
 10
51.237381
 20
370.656677
 11
170.237381
 21
370.656677
  0
LINE
  8
0
  6
CONTINUOUS
 10
51.237381
 20
444.656677
 11
161.237381
 21
444.656677
  0
LINE
  8
0
  6
CONTINUOUS
 10
51.237381
 20
386.656677
 11
161.237381
 21
386.656677
  0
ARC
  8
0
  6
CONTINUOUS
 10
163.237381
 20
458.656708
 40
2.000000
 50
90.000000
 51
180.000000
  0
ARC
  8
0
  6
CONTINUOUS
 10
163.237381
 20
372.656677
 40
2.000000
 50
180.000000
 51
270.000000
  0
LINE
  8
0
  6
CONTINUOUS
 10
170.237381
 20
460.656677
 11
170.237381
 21
370.656677
  0
ARC
  8
0
  6
CONTINUOUS
 10
218.237381
 20
477.656677
 40
2.000000
 50
90.000000
 51
180.000000
  0
ARC
  8
0
  6
CONTINUOUS
 10
218.237381
 20
353.656677
 40
2.000000
 50
180.000000
 51
270.000000
  0
ARC
  8
0
  6
CONTINUOUS
 10
213.713745
 20
464.676422
 40
2.500000
 50
272.000000
 51
359.895721
  0
ARC
  8
0
  6
CONTINUOUS
 10
213.713745
 20
366.636932
 40
2.500000
 50
0.104292
 51
88.000000
  0
LINE
  8
0
  6
CONTINUOUS
 10
216.237381
 20
462.263031
 11
216.209366
 21
462.262054
  0
LINE
  8
0
  6
CONTINUOUS
 10
170.737076
 20
465.186127
 11
216.237381
 21
466.775024
  0
LINE
  8
0
  6
CONTINUOUS
 10
170.237381
 20
464.668671
 11
170.737076
 21
465.186127
  0
LINE
  8
0
  6
CONTINUOUS
 10
170.737076
 20
366.127228
 11
216.237381
 21
364.538330
  0
LINE
  8
0
  6
CONTINUOUS
 10
170.237381
 20
366.644684
 11
170.737076
 21
366.127228
  0
LINE
  8
0
  6
CONTINUOUS
 10
161.237381
 20
142.598755
 11
161.237381
 21
56.598728
  0
LINE
  8
0
  6
CONTINUOUS
 10
51.237381
 20
144.598755
 11
170.237381
 21
144.598755
  0
LINE
  8
0
  6
CONTINUOUS
 10
51.237381
 20
54.598751
 11
170.237381
 21
54.598751
  0
LINE
  8
0
  6
CONTINUOUS
 10
51.237381
 20
134.008057
 11
160.199707
 21
134.008057
  0
LINE
  8
0
  6
CONTINUOUS
 10
51.237381
 20
65.189453
 11
160.199707
 21
65.189453
  0
ARC
  8
0
  6
CONTINUOUS
 10
163.237381
 20
142.598770
 40
2.000000
 50
90.000000
 51
180.000000
  0
ARC
  8
0
  6
CONTINUOUS
 10
163.237381
 20
56.598751
 40
2.000000
 50
180.000000
 51
270.000000
  0
LINE
  8
0
  6
CONTINUOUS
 10
218.237381
 20
176.598846
 11
224.737381
 21
176.598846
  0
LINE
  8
0
  6
CONTINUOUS
 10
218.237381
 20
48.598652
 11
224.737381
 21
48.598652
  0
LINE
  8
0
  6
CONTINUOUS
 10
170.237381
 20
144.598755
 11
216.237381
 21
146.205109
  0
LINE
  8
0
  6
CONTINUOUS
 10
224.737381
 20
52.695568
 11
170.237381
 21
54.598751
  0
ARC
  8
0
  6
CONTINUOUS
 10
218.237396
 20
174.598877
 40
2.000000
 50
90.000000
 51
180.000000
  0
ARC
  8
0
  6
CONTINUOUS
 10
218.237381
 20
50.598652
 40
2.000000
 50
180.260773
 51
270.000000
  0
LINE
  8
0
  6
CONTINUOUS
 10
170.237381
 20
144.598755
 11
170.237381
 21
54.598751
  0
LINE
  8
0
  6
CONTINUOUS
 10
215.505142
 20
152.366516
 11
209.790634
 21
146.652008
  0
LINE
  8
0
  6
CONTINUOUS
 10
170.237381
 20
79.092751
 11
214.237381
 21
79.092751
  0
LINE
  8
0
  6
CONTINUOUS
 10
170.237381
 20
64.079750
 11
224.737381
 21
64.079750
  0
LINE
  8
0
  6
CONTINUOUS
 10
216.805344
 20
72.031754
 11
224.737381
 21
72.031754
  0
LINE
  8
0
  6
CONTINUOUS
 10
216.237381
 20
73.246483
 11
216.237381
 21
174.598877
  0
ARC
  8
0
  6
CONTINUOUS
 10
213.737427
 20
50.578171
 40
2.500000
 50
0.260773
 51
88.000000
  0
ARC
  8
0
  6
CONTINUOUS
 10
213.737381
 20
154.134277
 40
2.500000
 50
-45.000000
 51
0.000000
  0
ARC
  8
0
  6
CONTINUOUS
 10
208.022873
 20
148.419769
 40
2.500000
 50
272.000000
 51
315.000000
  0
LINE
  8
0
  6
CONTINUOUS
 10
41.737381
 20
460.656677
 11
51.237381
 21
460.656677
  0
LINE
  8
0
  6
CONTINUOUS
 10
51.237381
 20
444.656677
 11
41.737381
 21
444.656677
  0
LINE
  8
0
  6
CONTINUOUS
 10
41.737381
 20
370.656677
 11
51.237381
 21
370.656677
  0
LINE
  8
0
  6
CONTINUOUS
 10
51.237381
 20
370.656677
 11
51.237381
 21
408.790649
  0
LINE
  8
0
  6
CONTINUOUS
 10
51.237381
 20
386.656677
 11
41.737381
 21
386.656677
  0
LINE
  8
0
  6
CONTINUOUS
 10
44.737381
 20
409.656677
 11
44.737381
 21
421.656677
  0
LINE
  8
0
  6
CONTINUOUS
 10
51.737381
 20
409.656677
 11
51.737381
 21
421.656677
  0
LINE
  8
0
  6
CONTINUOUS
 10
45.737381
 20
422.656677
 11
50.737381
 21
422.656677
  0
LINE
  8
0
  6
CONTINUOUS
 10
50.737381
 20
408.656677
 11
45.737381
 21
408.656677
  0
ARC
  8
0
  6
CONTINUOUS
 10
50.737381
 20
421.656677
 40
1.000000
 50
0.000000
 51
90.000000
  0
ARC
  8
0
  6
CONTINUOUS
 10
45.737381
 20
421.656677
 40
1.000000
 50
90.000000
 51
180.000000
  0
ARC
  8
0
  6
CONTINUOUS
 10
45.737381
 20
409.656677
 40
1.000000
 50
180.000000
 51
270.000000
  0
ARC
  8
0
  6
CONTINUOUS
 10
50.737381
 20
409.656677
 40
1.000000
 50
-90.000000
 51
0.000000
  0
LINE
  8
0
  6
CONTINUOUS
 10
49.237381
 20
412.156677
 11
49.237381
 21
419.156677
  0
LINE
  8
0
  6
CONTINUOUS
 10
47.237381
 20
412.156677
 11
47.237381
 21
419.156677
  0
ARC
  8
0
  6
CONTINUOUS
 10
48.237381
 20
419.156677
 40
1.000000
 50
90.000000
 51
180.000000
  0
ARC
  8
0
  6
CONTINUOUS
 10
48.237381
 20
419.156677
 40
1.000000
 50
0.000000
 51
90.000000
  0
ARC
  8
0
  6
CONTINUOUS
 10
48.237381
 20
412.156677
 40
1.000000
 50
180.000000
 51
270.000000
  0
ARC
  8
0
  6
CONTINUOUS
 10
48.237381
 20
412.156677
 40
1.000000
 50
-90.000000
 51
0.000000
  0
LINE
  8
0
  6
CONTINUOUS
 10
51.237381
 20
422.522705
 11
51.237381
 21
460.656677
  0
LINE
  8
0
  6
CONTINUOUS
 10
41.737381
 20
462.656677
 11
41.737381
 21
368.656677
  0
LINE
  8
0
  6
CONTINUOUS
 10
41.737381
 20
444.656677
 11
-2.237648
 21
444.656677
  0
LINE
  8
0
  6
CONTINUOUS
 10
41.737381
 20
386.656677
 11
-2.237648
 21
386.656677
  0
LINE
  8
0
  6
CONTINUOUS
 10
-0.762638
 20
462.656677
 11
41.737381
 21
462.656677
  0
LINE
  8
0
  6
CONTINUOUS
 10
-0.762638
 20
368.656677
 11
41.737381
 21
368.656677
  0
ARC
  8
0
  6
CONTINUOUS
 10
-0.762608
 20
457.656677
 40
5.000000
 50
90.000000
 51
180.000000
  0
ARC
  8
0
  6
CONTINUOUS
 10
-0.762638
 20
373.656677
 40
5.000000
 50
180.000000
 51
270.000000
  0
LINE
  8
0
  6
CONTINUOUS
 10
-5.762608
 20
457.656677
 11
-5.762638
 21
373.656677
  0
LINE
  8
0
  6
CONTINUOUS
 10
41.737381
 20
144.598755
 11
51.237381
 21
144.598755
  0
LINE
  8
0
  6
CONTINUOUS
 10
51.237381
 20
134.008057
 11
41.737381
 21
134.008057
  0
LINE
  8
0
  6
CONTINUOUS
 10
41.737381
 20
54.598751
 11
51.237381
 21
54.598751
  0
LINE
  8
0
  6
CONTINUOUS
 10
51.237381
 20
65.189461
 11
41.737381
 21
65.189461
  0
LINE
  8
0
  6
CONTINUOUS
 10
41.737381
 20
146.598755
 11
41.737381
 21
52.598751
  0
LINE
  8
0
  6
CONTINUOUS
 10
41.737381
 20
128.598755
 11
-2.237648
 21
128.598755
  0
LINE
  8
0
  6
CONTINUOUS
 10
41.737381
 20
70.598747
 11
-2.237648
 21
70.598747
  0
LINE
  8
0
  6
CONTINUOUS
 10
51.737381
 20
146.098755
 11
51.737381
 21
144.598755
  0
LINE
  8
0
  6
CONTINUOUS
 10
44.737381
 20
146.098755
 11
44.737381
 21
144.598755
  0
LINE
  8
0
  6
CONTINUOUS
 10
44.737381
 20
146.098755
 11
51.737381
 21
146.098755
  0
LINE
  8
0
  6
CONTINUOUS
 10
49.137371
 20
159.098755
 11
49.137371
 21
146.098755
  0
LINE
  8
0
  6
CONTINUOUS
 10
47.337372
 20
159.723755
 11
47.337372
 21
146.098755
  0
LINE
  8
0
  6
CONTINUOUS
 10
45.537373
 20
157.661255
 11
45.537373
 21
146.098755
  0
LINE
  8
0
  6
CONTINUOUS
 10
50.937382
 20
158.473755
 11
50.937382
 21
146.098755
  0
LINE
  8
0
  6
CONTINUOUS
 10
47.337372
 20
159.723755
 11
49.137371
 21
159.098755
  0
LINE
  8
0
  6
CONTINUOUS
 10
45.537373
 20
157.661255
 11
47.337372
 21
158.286255
  0
LINE
  8
0
  6
CONTINUOUS
 10
50.937382
 20
158.473755
 11
49.138382
 21
158.026047
  0
LINE
  8
0
  6
CONTINUOUS
 10
-0.762638
 20
146.598755
 11
41.737381
 21
146.598755
  0
LINE
  8
0
  6
CONTINUOUS
 10
-0.762638
 20
52.598751
 11
41.737381
 21
52.598751
  0
ARC
  8
0
  6
CONTINUOUS
 10
-0.762608
 20
141.598755
 40
5.000000
 50
90.000000
 51
180.000000
  0
ARC
  8
0
  6
CONTINUOUS
 10
-0.762638
 20
57.598751
 40
5.000000
 50
180.000000
 51
270.000000
  0
LINE
  8
0
  6
CONTINUOUS
 10
-5.762608
 20
141.598755
 11
-5.762638
 21
57.598740
  0
LINE
  8
0
  6
CONTINUOUS
 10
51.237381
 20
54.598751
 11
51.237381
 21
144.598755
  0
LINE
  8
0
  6
CONTINUOUS
 10
161.237381
 20
386.656677
 11
161.237381
 21
372.656647
  0
TEXT
  8
0
 10
-25.000000
 20
2.000000
 40
4.000000
 41
1.000000
  1
HLM-32T-600~900-T90W
 50
0.000000
  0
ENDSEC
  0
EOF
