  0
SECTION
  2
HEADER
  9
$CLAYER
  8
1
  9
$LTSCALE
 40
3.0
  0
ENDSEC
  0
SECTION
  2
TABLES
  0
TABLE
  2
LTYPE
 70
     4
  0
LTYPE
  2
CONTINUOUS
  3
solid line
 70
    64
 72
    65
 73
     0
 40
0.0
  0
LTYPE
  2
DASHED
  3
__ __ __ __ __ __ __ __ __ __ __ __ __ __ __
 70
    64
 72
    65
 73
     2
 40
0.75
 49
0.5
 49
-0.25
  0
LTYPE
  2
CENTER
  3
____ _ ____ _ ____ _ ____ _ ____ _ ____ _ ____
 70
    64
 72
    65
 73
     4
 40
2.0
 49
1.25
 49
-0.25
 49
0.25
 49
-0.25
  0
LTYPE
  2
PHANTOM
  3
_____ _ _ _____ _ _ _____ _ _ _____ _ _ ____
 70
    64
 72
    65
 73
     6
 40
2.5
 49
1.25
 49
-0.25
 49
0.25
 49
-0.25
 49
0.25
 49
-0.25
  0
ENDTAB
  0
TABLE
  2
LAYER
 70
     1
  0
LAYER
  2
0
 70
    64
 62
     7
  6
CONTINUOUS
  0
ENDTAB
  0
TABLE
  2
STYLE
 70
     1
  0
STYLE
  2
STANDARD
 70
     0
 40
0.000000
 41
1.000000
 50
0.000000
 71
     0
 42
3.000000
  3
txt
  4
BIGFONT
  0
ENDTAB
  0
ENDSEC
  0
SECTION
  2
BLOCKS
  0
ENDSEC
  0
SECTION
  2
ENTITIES
  0
LINE
  8
0
  6
CONTINUOUS
 10
531.959900
 20
55.992500
 11
531.959900
 21
197.992493
  0
LINE
  8
0
  6
CENTER
 10
578.320007
 20
126.992500
 11
485.469879
 21
126.992500
  0
LINE
  8
0
  6
CONTINUOUS
 10
718.459900
 20
164.992493
 11
588.459900
 21
164.992493
  0
LINE
  8
0
  6
CONTINUOUS
 10
718.459900
 20
58.992500
 11
588.459900
 21
58.992500
  0
LINE
  8
0
  6
CONTINUOUS
 10
718.459900
 20
154.615845
 11
599.798096
 21
154.615845
  0
LINE
  8
0
  6
CONTINUOUS
 10
718.459900
 20
69.369141
 11
599.798096
 21
69.369141
  0
LINE
  8
0
  6
CONTINUOUS
 10
598.459900
 20
162.992493
 11
598.459900
 21
60.992481
  0
ARC
  8
0
  6
CONTINUOUS
 10
596.459900
 20
162.992523
 40
2.000000
 50
0.000000
 51
90.000000
  0
ARC
  8
0
  6
CONTINUOUS
 10
596.459900
 20
60.992500
 40
2.000000
 50
-90.000000
 51
0.000000
  0
LINE
  8
0
  6
CENTER
 10
97.739883
 20
-1.017500
 11
97.739883
 21
271.137512
  0
LINE
  8
0
  6
CENTER
 10
-3.062500
 20
126.992500
 11
193.647507
 21
126.992500
  0
LINE
  8
0
  6
CENTER
 10
4.837500
 20
180.492493
 11
255.176682
 21
180.492493
  0
LINE
  8
0
  6
CENTER
 10
27.739882
 20
47.172501
 11
27.739882
 21
8.462500
  0
LINE
  8
0
  6
CENTER
 10
167.739883
 20
44.407501
 11
167.739883
 21
7.672500
  0
LINE
  8
0
  6
DASHED
 10
160.239883
 20
35.492500
 11
160.239883
 21
15.492500
  0
LINE
  8
0
  6
DASHED
 10
175.239883
 20
35.492500
 11
175.239883
 21
15.492500
  0
LINE
  8
0
  6
DASHED
 10
35.239883
 20
35.492500
 11
35.239883
 21
15.492500
  0
LINE
  8
0
  6
DASHED
 10
20.239882
 20
35.492500
 11
20.239882
 21
15.492500
  0
LINE
  8
0
  6
CONTINUOUS
 10
7.739882
 20
15.492500
 11
62.739883
 21
15.492500
  0
LINE
  8
0
  6
CONTINUOUS
 10
132.739883
 20
15.492500
 11
187.739883
 21
15.492500
  0
LINE
  8
0
  6
CONTINUOUS
 10
154.739883
 20
35.492500
 11
184.739883
 21
35.492500
  0
LINE
  8
0
  6
CONTINUOUS
 10
10.739882
 20
35.492500
 11
40.739883
 21
35.492500
  0
LINE
  8
0
  6
CONTINUOUS
 10
7.739882
 20
32.861382
 11
7.739882
 21
15.492520
  0
LINE
  8
0
  6
CONTINUOUS
 10
187.739883
 20
32.861382
 11
187.739883
 21
15.492500
  0
LINE
  8
0
  6
CONTINUOUS
 10
149.739883
 20
237.772598
 11
149.739883
 21
253.154266
  0
LINE
  8
0
  6
CONTINUOUS
 10
45.739883
 20
253.153885
 11
45.739883
 21
15.492500
  0
LINE
  8
0
  6
CONTINUOUS
 10
64.239883
 20
16.992500
 11
131.239883
 21
16.992500
  0
LINE
  8
0
  6
CONTINUOUS
 10
50.184483
 20
218.992493
 11
145.971680
 21
218.992493
  0
LINE
  8
0
  6
CONTINUOUS
 10
145.809677
 20
257.153625
 11
97.739883
 21
257.992523
  0
LINE
  8
0
  6
CONTINUOUS
 10
49.670082
 20
257.153290
 11
97.739883
 21
257.992523
  0
LINE
  8
0
  6
CONTINUOUS
 10
24.739882
 20
139.772614
 11
24.739882
 21
221.212387
  0
LINE
  8
0
  6
CONTINUOUS
 10
170.739883
 20
139.772614
 11
170.739883
 21
221.212387
  0
LINE
  8
0
  6
CONTINUOUS
 10
31.739882
 20
81.272598
 11
31.739882
 21
184.632782
  0
LINE
  8
0
  6
CONTINUOUS
 10
163.739883
 20
81.272621
 11
163.739883
 21
184.632782
  0
ARC
  8
0
  6
CONTINUOUS
 10
49.739883
 20
253.153900
 40
4.000000
 50
91.000580
 51
180.000000
  0
ARC
  8
0
  6
CONTINUOUS
 10
145.739883
 20
253.154236
 40
4.000000
 50
0.000000
 51
89.000359
  0
LINE
  8
0
  6
CONTINUOUS
 10
29.816881
 20
227.943054
 11
40.662884
 21
231.041946
  0
LINE
  8
0
  6
CONTINUOUS
 10
154.816879
 20
231.041946
 11
165.662888
 21
227.943054
  0
LINE
  8
0
  6
CONTINUOUS
 10
36.816883
 20
74.541939
 11
40.662884
 21
73.443062
  0
LINE
  8
0
  6
CONTINUOUS
 10
158.662888
 20
74.541939
 11
154.816879
 21
73.443062
  0
LINE
  8
0
  6
CONTINUOUS
 10
185.131287
 20
35.835739
 11
152.348480
 21
40.149261
  0
LINE
  8
0
  6
CONTINUOUS
 10
10.348482
 20
35.835739
 11
43.131283
 21
40.149281
  0
ARC
  8
0
  6
CONTINUOUS
 10
31.739882
 20
221.212418
 40
7.000000
 50
105.945801
 51
180.000000
  0
ARC
  8
0
  6
CONTINUOUS
 10
31.739882
 20
139.772659
 40
7.000000
 50
180.000000
 51
240.000198
  0
ARC
  8
0
  6
CONTINUOUS
 10
163.739883
 20
221.212357
 40
7.000000
 50
0.000000
 51
74.054764
  0
ARC
  8
0
  6
CONTINUOUS
 10
163.739883
 20
139.772598
 40
7.000000
 50
-59.999882
 51
0.000000
  0
ARC
  8
0
  6
CONTINUOUS
 10
38.739883
 20
81.272659
 40
7.000000
 50
180.000000
 51
254.054901
  0
ARC
  8
0
  6
CONTINUOUS
 10
156.739883
 20
81.272598
 40
7.000000
 50
-74.054497
 51
0.000000
  0
LINE
  8
0
  6
CONTINUOUS
 10
149.739883
 20
40.492500
 11
149.739883
 21
237.772598
  0
ARC
  8
0
  6
CONTINUOUS
 10
156.739883
 20
237.772659
 40
7.000000
 50
180.000000
 51
254.054901
  0
ARC
  8
0
  6
CONTINUOUS
 10
156.739883
 20
66.712440
 40
7.000000
 50
105.945801
 51
180.000000
  0
ARC
  8
0
  6
CONTINUOUS
 10
170.739883
 20
127.648247
 40
7.000000
 50
120.000099
 51
180.000000
  0
ARC
  8
0
  6
CONTINUOUS
 10
152.739883
 20
43.123638
 40
3.000000
 50
180.000000
 51
262.504395
  0
ARC
  8
0
  6
CONTINUOUS
 10
184.739883
 20
32.492500
 40
3.000000
 50
0.000000
 51
90.000000
  0
ARC
  8
0
  6
CONTINUOUS
 10
184.739883
 20
32.861359
 40
3.000000
 50
0.000000
 51
82.504204
  0
LINE
  8
0
  6
CONTINUOUS
 10
149.739883
 20
40.492500
 11
149.739883
 21
15.492500
  0
ARC
  8
0
  6
CONTINUOUS
 10
154.739883
 20
40.492519
 40
5.000000
 50
180.000000
 51
270.000000
  0
ARC
  8
0
  6
CONTINUOUS
 10
42.739883
 20
43.123638
 40
3.000000
 50
-82.503883
 51
0.000000
  0
ARC
  8
0
  6
CONTINUOUS
 10
40.739883
 20
40.492500
 40
5.000000
 50
-90.000000
 51
0.000000
  0
ARC
  8
0
  6
CONTINUOUS
 10
10.739882
 20
32.492519
 40
3.000000
 50
90.000000
 51
180.000000
  0
ARC
  8
0
  6
CONTINUOUS
 10
10.739882
 20
32.861401
 40
3.000000
 50
97.496292
 51
180.000000
  0
LINE
  8
0
  6
CONTINUOUS
 10
62.739883
 20
15.492500
 11
64.239883
 21
16.992500
  0
LINE
  8
0
  6
CONTINUOUS
 10
132.739883
 20
15.492500
 11
131.239883
 21
16.992500
  0
ARC
  8
0
  6
CONTINUOUS
 10
38.739883
 20
66.712357
 40
7.000000
 50
0.000000
 51
74.054688
  0
ARC
  8
0
  6
CONTINUOUS
 10
24.739882
 20
127.648277
 40
7.000000
 50
0.000000
 51
60.000092
  0
ARC
  8
0
  6
CONTINUOUS
 10
38.739883
 20
237.772598
 40
7.000000
 50
-74.054443
 51
0.000000
  0
ARC
  8
0
  6
CONTINUOUS
 10
97.739883
 20
126.992500
 40
71.000000
 50
-21.630920
 51
6.068256
  0
ARC
  8
0
  6
CONTINUOUS
 10
97.739883
 20
126.992500
 40
71.000000
 50
173.931793
 51
201.630905
  0
LINE
  8
0
  6
CONTINUOUS
 10
150.739883
 20
70.317978
 11
150.739883
 21
63.992500
  0
LINE
  8
0
  6
CONTINUOUS
 10
44.739883
 20
63.992500
 11
44.739883
 21
70.181503
  0
ARC
  8
0
  6
CONTINUOUS
 10
145.739883
 20
63.992500
 40
5.000000
 50
-36.869869
 51
0.000000
  0
ARC
  8
0
  6
CONTINUOUS
 10
49.739883
 20
63.992500
 40
5.000000
 50
180.000000
 51
216.865204
  0
LINE
  8
0
  6
CONTINUOUS
 10
237.739883
 20
160.492493
 11
237.739883
 21
200.492493
  0
LINE
  8
0
  6
CONTINUOUS
 10
172.739883
 20
200.492493
 11
237.739883
 21
200.492493
  0
LINE
  8
0
  6
CONTINUOUS
 10
172.739883
 20
160.492493
 11
237.739883
 21
160.492493
  0
LINE
  8
0
  6
CONTINUOUS
 10
172.739883
 20
202.992493
 11
172.739883
 21
157.992493
  0
LINE
  8
0
  6
CONTINUOUS
 10
170.739883
 20
202.992493
 11
172.739883
 21
202.992493
  0
LINE
  8
0
  6
CONTINUOUS
 10
170.739883
 20
157.992493
 11
172.739883
 21
157.992493
  0
ARC
  8
0
  6
CONTINUOUS
 10
183.739883
 20
180.492493
 40
6.000000
 50
90.000000
 51
270.000000
  0
LINE
  8
0
  6
CONTINUOUS
 10
183.739883
 20
186.492493
 11
237.739883
 21
186.492493
  0
LINE
  8
0
  6
CONTINUOUS
 10
183.739883
 20
174.492493
 11
237.739883
 21
174.492493
  0
LINE
  8
0
  6
CONTINUOUS
 10
540.959900
 20
81.748497
 11
540.959900
 21
195.992493
  0
LINE
  8
0
  6
CENTER
 10
791.830017
 20
111.992500
 11
485.469879
 21
111.992500
  0
LINE
  8
0
  6
CONTINUOUS
 10
538.959900
 20
197.992493
 11
531.959900
 21
197.992493
  0
LINE
  8
0
  6
CONTINUOUS
 10
538.959900
 20
55.992519
 11
531.959900
 21
55.992519
  0
LINE
  8
0
  6
CONTINUOUS
 10
559.959900
 20
58.992500
 11
588.459900
 21
58.992500
  0
LINE
  8
0
  6
CONTINUOUS
 10
588.459900
 20
164.992493
 11
543.959900
 21
164.992493
  0
LINE
  8
0
  6
CONTINUOUS
 10
542.459900
 20
176.126480
 11
561.048157
 21
165.394424
  0
ARC
  8
0
  6
CONTINUOUS
 10
538.959839
 20
195.992493
 40
2.000000
 50
0.000000
 51
90.000000
  0
ARC
  8
0
  6
CONTINUOUS
 10
538.959900
 20
57.992500
 40
2.000000
 50
-90.000000
 51
-14.477700
  0
LINE
  8
0
  6
CONTINUOUS
 10
559.959900
 20
60.992500
 11
559.959900
 21
77.748497
  0
LINE
  8
0
  6
CONTINUOUS
 10
542.959900
 20
79.748497
 11
557.959900
 21
79.748497
  0
ARC
  8
0
  6
CONTINUOUS
 10
557.959900
 20
77.748520
 40
2.000000
 50
0.000000
 51
90.000000
  0
ARC
  8
0
  6
CONTINUOUS
 10
542.832886
 20
56.992500
 40
2.000000
 50
90.000000
 51
165.522720
  0
ARC
  8
0
  6
CONTINUOUS
 10
542.959900
 20
81.748497
 40
2.000000
 50
180.000000
 51
270.000000
  0
LINE
  8
0
  6
CONTINUOUS
 10
559.959900
 20
58.992500
 11
542.832886
 21
58.992500
  0
ARC
  8
0
  6
CONTINUOUS
 10
561.959900
 20
60.992500
 40
2.000000
 50
180.000000
 51
270.000000
  0
ARC
  8
0
  6
CONTINUOUS
 10
543.959900
 20
167.992493
 40
3.000000
 50
180.000000
 51
270.000000
  0
ARC
  8
0
  6
CONTINUOUS
 10
543.959900
 20
178.724533
 40
3.000000
 50
180.000000
 51
239.999664
  0
ARC
  8
0
  6
CONTINUOUS
 10
562.548157
 20
167.992493
 40
3.000000
 50
-120.000298
 51
-90.000000
  0
LINE
  8
0
  6
CONTINUOUS
 10
588.459900
 20
164.992493
 11
588.459900
 21
58.992500
  0
LINE
  8
0
  6
CONTINUOUS
 10
360.091400
 20
415.177155
 11
405.960541
 21
415.177094
  0
LINE
  8
0
  6
CONTINUOUS
 10
360.092010
 20
595.177185
 11
428.960541
 21
595.177185
  0
LINE
  8
0
  6
CENTER
 10
428.960449
 20
615.492493
 11
428.959869
 21
340.099121
  0
LINE
  8
0
  6
CENTER
 10
354.106720
 20
435.176331
 11
382.474762
 21
435.176331
  0
LINE
  8
0
  6
CONTINUOUS
 10
338.960205
 20
505.177094
 11
339.868225
 21
557.177124
  0
LINE
  8
0
  6
CONTINUOUS
 10
350.637421
 20
588.434570
 11
339.868225
 21
557.177124
  0
ARC
  8
0
  6
CONTINUOUS
 10
360.091827
 20
585.177124
 40
10.000000
 50
90.000000
 51
160.989105
  0
ARC
  8
0
  6
CONTINUOUS
 10
368.960205
 20
435.176331
 40
7.500000
 50
-226.074890
 51
32.226799
  0
LINE
  8
0
  6
CONTINUOUS
 10
338.960205
 20
505.177094
 11
339.868011
 21
453.177155
  0
LINE
  8
0
  6
CONTINUOUS
 10
350.637024
 20
421.919769
 11
339.868011
 21
453.177155
  0
ARC
  8
0
  6
CONTINUOUS
 10
360.091400
 20
425.177155
 40
10.000000
 50
199.010895
 51
270.000000
  0
LINE
  8
0
  6
CONTINUOUS
 10
518.960205
 20
505.176941
 11
518.052429
 21
557.176880
  0
LINE
  8
0
  6
CONTINUOUS
 10
507.283417
 20
588.434326
 11
518.052429
 21
557.176880
  0
ARC
  8
0
  6
CONTINUOUS
 10
497.828827
 20
585.176880
 40
10.000000
 50
19.010900
 51
90.000000
  0
LINE
  8
0
  6
CONTINUOUS
 10
518.960205
 20
505.176941
 11
518.103699
 21
456.124329
  0
LINE
  8
0
  6
CONTINUOUS
 10
507.283020
 20
421.919556
 11
517.705383
 21
452.170319
  0
LINE
  8
0
  6
CONTINUOUS
 10
529.922424
 20
434.176971
 11
531.960022
 21
434.176971
  0
LINE
  8
0
  6
CONTINUOUS
 10
531.960022
 20
434.176971
 11
531.960388
 21
576.176880
  0
LINE
  8
0
  6
CONTINUOUS
 10
520.850403
 20
447.988770
 11
523.161011
 21
439.365173
  0
ARC
  8
0
  6
CONTINUOUS
 10
529.922424
 20
441.176971
 40
7.000000
 50
194.999893
 51
270.000000
  0
ARC
  8
0
  6
CONTINUOUS
 10
514.088806
 20
446.176971
 40
7.000000
 50
14.999700
 51
90.000000
  0
LINE
  8
0
  6
CONTINUOUS
 10
529.922791
 20
576.176880
 11
531.960388
 21
576.176880
  0
LINE
  8
0
  6
CONTINUOUS
 10
520.850586
 20
562.365051
 11
523.161194
 21
570.988647
  0
ARC
  8
0
  6
CONTINUOUS
 10
529.922791
 20
569.176819
 40
7.000000
 50
90.000000
 51
165.000107
  0
ARC
  8
0
  6
CONTINUOUS
 10
514.088989
 20
564.176880
 40
7.000000
 50
301.109222
 51
345.000336
  0
ARC
  8
0
  6
CONTINUOUS
 10
497.828827
 20
425.176514
 40
10.000000
 50
270.000000
 51
340.989105
  0
ARC
  8
0
  6
CONTINUOUS
 10
488.960419
 20
435.175659
 40
7.500000
 50
-212.232941
 51
58.076355
  0
LINE
  8
0
  6
CENTER
 10
368.960510
 20
446.977936
 11
368.960022
 21
423.101532
  0
LINE
  8
0
  6
CENTER
 10
475.949829
 20
435.176239
 11
501.527557
 21
435.176239
  0
LINE
  8
0
  6
CENTER
 10
488.960205
 20
446.977936
 11
488.960022
 21
423.101318
  0
LINE
  8
0
  6
CONTINUOUS
 10
342.816101
 20
453.176697
 11
515.104126
 21
453.176697
  0
LINE
  8
0
  6
CONTINUOUS
 10
471.740997
 20
432.176697
 11
386.180084
 21
432.176697
  0
ARC
  8
0
  6
CONTINUOUS
 10
342.816101
 20
456.176697
 40
3.000000
 50
181.000153
 51
270.000000
  0
ARC
  8
0
  6
CONTINUOUS
 10
515.104126
 20
456.176697
 40
3.000000
 50
270.000000
 51
358.999634
  0
LINE
  8
0
  6
CONTINUOUS
 10
342.816101
 20
557.176697
 11
515.104126
 21
557.176697
  0
ARC
  8
0
  6
CONTINUOUS
 10
342.816101
 20
554.176697
 40
3.000000
 50
90.000000
 51
178.999847
  0
ARC
  8
0
  6
CONTINUOUS
 10
515.104126
 20
554.176697
 40
3.000000
 50
1.000372
 51
90.000000
  0
LINE
  8
0
  6
CONTINUOUS
 10
393.960297
 20
552.176697
 11
393.960297
 21
458.176697
  0
LINE
  8
0
  6
CONTINUOUS
 10
463.960297
 20
552.176697
 11
463.960297
 21
458.176697
  0
LINE
  8
0
  6
CONTINUOUS
 10
487.680298
 20
439.176697
 11
480.960541
 21
439.176697
  0
LINE
  8
0
  6
CONTINUOUS
 10
367.960419
 20
439.176697
 11
376.960541
 21
439.176697
  0
ARC
  8
0
  6
CONTINUOUS
 10
367.960419
 20
446.176697
 40
7.000000
 50
180.000000
 51
270.000000
  0
ARC
  8
0
  6
CONTINUOUS
 10
353.960419
 20
446.176697
 40
7.000000
 50
0.000000
 51
90.000000
  0
LINE
  8
0
  6
CENTER
 10
354.106720
 20
575.176270
 11
382.474762
 21
575.176270
  0
ARC
  8
0
  6
CONTINUOUS
 10
368.960205
 20
575.176270
 40
7.500000
 50
-32.226799
 51
226.074890
  0
ARC
  8
0
  6
CONTINUOUS
 10
488.960419
 20
575.176941
 40
7.500000
 50
-46.078163
 51
212.232941
  0
LINE
  8
0
  6
CENTER
 10
368.960510
 20
563.374634
 11
368.960022
 21
587.251038
  0
LINE
  8
0
  6
CENTER
 10
475.949829
 20
575.176331
 11
501.527557
 21
575.176331
  0
LINE
  8
0
  6
CENTER
 10
488.960205
 20
563.374634
 11
488.960022
 21
587.251221
  0
LINE
  8
0
  6
CONTINUOUS
 10
471.740997
 20
578.176697
 11
386.180084
 21
578.176697
  0
LINE
  8
0
  6
CONTINUOUS
 10
489.960419
 20
571.176697
 11
480.960541
 21
571.176758
  0
ARC
  8
0
  6
CONTINUOUS
 10
489.960419
 20
564.176697
 40
7.000000
 50
0.000000
 51
90.000000
  0
ARC
  8
0
  6
CONTINUOUS
 10
503.960419
 20
564.176697
 40
7.000000
 50
180.000000
 51
270.000000
  0
LINE
  8
0
  6
CONTINUOUS
 10
367.960419
 20
571.176697
 11
376.960541
 21
571.176758
  0
ARC
  8
0
  6
CONTINUOUS
 10
367.960419
 20
564.176697
 40
7.000000
 50
90.000000
 51
180.000000
  0
ARC
  8
0
  6
CONTINUOUS
 10
353.960419
 20
564.176697
 40
7.000000
 50
-90.000000
 51
0.000000
  0
LINE
  8
0
  6
CONTINUOUS
 10
494.410980
 20
444.253662
 11
495.509857
 21
448.099762
  0
ARC
  8
0
  6
CONTINUOUS
 10
487.680298
 20
446.176697
 40
7.000000
 50
270.000000
 51
344.054596
  0
ARC
  8
0
  6
CONTINUOUS
 10
502.240509
 20
446.176697
 40
7.000000
 50
90.000000
 51
164.054611
  0
LINE
  8
0
  6
CONTINUOUS
 10
448.960205
 20
365.176941
 11
405.960541
 21
365.176941
  0
LINE
  8
0
  6
CONTINUOUS
 10
408.960205
 20
430.176941
 11
408.960205
 21
425.176941
  0
LINE
  8
0
  6
CONTINUOUS
 10
448.960205
 20
430.176941
 11
448.960205
 21
365.176941
  0
LINE
  8
0
  6
CONTINUOUS
 10
406.460205
 20
430.176941
 11
451.460205
 21
430.176941
  0
LINE
  8
0
  6
CONTINUOUS
 10
406.460205
 20
432.176941
 11
406.460205
 21
430.176941
  0
LINE
  8
0
  6
CONTINUOUS
 10
451.460205
 20
432.176941
 11
451.460205
 21
430.176941
  0
LINE
  8
0
  6
CONTINUOUS
 10
448.960205
 20
415.177032
 11
497.828400
 21
415.176971
  0
LINE
  8
0
  6
CONTINUOUS
 10
428.960541
 20
595.177002
 11
497.828827
 21
595.176941
  0
LINE
  8
0
  6
CONTINUOUS
 10
405.960541
 20
365.176941
 11
405.960541
 21
425.176941
  0
LINE
  8
0
  6
CONTINUOUS
 10
409.881531
 20
425.176941
 11
405.960541
 21
425.176941
  0
LINE
  8
0
  6
CONTINUOUS
 10
477.055786
 20
434.621155
 11
480.960541
 21
439.176697
  0
ARC
  8
0
  6
CONTINUOUS
 10
471.740997
 20
439.176697
 40
7.000000
 50
270.000000
 51
319.398712
  0
LINE
  8
0
  6
CONTINUOUS
 10
380.865265
 20
434.621155
 11
376.960541
 21
439.176697
  0
ARC
  8
0
  6
CONTINUOUS
 10
386.180084
 20
439.176697
 40
7.000000
 50
220.601288
 51
270.000000
  0
LINE
  8
0
  6
CONTINUOUS
 10
380.865265
 20
575.732300
 11
376.960541
 21
571.176758
  0
ARC
  8
0
  6
CONTINUOUS
 10
386.180084
 20
571.176758
 40
7.000000
 50
90.000000
 51
139.398712
  0
LINE
  8
0
  6
CONTINUOUS
 10
477.055786
 20
575.732300
 11
480.960541
 21
571.176758
  0
ARC
  8
0
  6
CONTINUOUS
 10
471.740997
 20
571.176758
 40
7.000000
 50
40.601295
 51
90.000000
  0
LINE
  8
0
  6
CONTINUOUS
 10
409.881531
 20
365.176941
 11
409.881531
 21
425.176941
  0
LINE
  8
0
  6
CENTER
 10
315.759277
 20
505.176941
 11
798.427490
 21
505.176941
  0
LINE
  8
0
  6
CONTINUOUS
 10
538.960022
 20
434.176941
 11
531.960022
 21
434.176941
  0
LINE
  8
0
  6
CONTINUOUS
 10
540.960022
 20
574.176941
 11
540.960022
 21
436.176941
  0
LINE
  8
0
  6
CONTINUOUS
 10
538.960022
 20
576.176941
 11
531.960388
 21
576.176941
  0
LINE
  8
0
  6
CONTINUOUS
 10
588.460022
 20
452.176941
 11
540.960022
 21
452.176941
  0
LINE
  8
0
  6
CONTINUOUS
 10
588.460022
 20
558.176941
 11
540.960022
 21
558.176941
  0
LINE
  8
0
  6
CONTINUOUS
 10
588.460022
 20
452.176941
 11
588.460022
 21
558.176941
  0
ARC
  8
0
  6
CONTINUOUS
 10
538.960022
 20
436.176941
 40
2.000000
 50
-90.000000
 51
0.000000
  0
ARC
  8
0
  6
CONTINUOUS
 10
538.960022
 20
574.176941
 40
2.000000
 50
0.000000
 51
90.000000
  0
ARC
  8
0
  6
CONTINUOUS
 10
541.744934
 20
505.176941
 40
20.000000
 50
-38.438709
 51
0.000000
  0
LINE
  8
0
  6
CONTINUOUS
 10
540.960022
 20
472.016937
 11
557.410400
 21
492.743378
  0
ARC
  8
0
  6
CONTINUOUS
 10
541.744934
 20
505.176941
 40
20.000000
 50
0.000000
 51
38.438709
  0
LINE
  8
0
  6
CONTINUOUS
 10
540.960022
 20
538.336914
 11
557.410400
 21
517.610474
  0
LINE
  8
0
  6
CONTINUOUS
 10
718.460510
 20
452.176941
 11
588.460510
 21
452.176941
  0
LINE
  8
0
  6
CONTINUOUS
 10
718.460510
 20
558.176941
 11
588.460510
 21
558.176941
  0
LINE
  8
0
  6
CONTINUOUS
 10
718.459839
 20
473.676941
 11
598.459839
 21
473.676941
  0
LINE
  8
0
  6
CONTINUOUS
 10
718.459839
 20
536.676941
 11
598.459839
 21
536.676941
  0
LINE
  8
0
  6
CONTINUOUS
 10
598.459839
 20
454.176941
 11
598.459839
 21
473.676941
  0
ARC
  8
0
  6
CONTINUOUS
 10
596.459839
 20
454.176910
 40
2.000000
 50
-90.000000
 51
0.000000
  0
ARC
  8
0
  6
CONTINUOUS
 10
596.459839
 20
556.176941
 40
2.000000
 50
0.000000
 51
90.000000
  0
LINE
  8
0
  6
CENTER
 10
428.959869
 20
272.076050
 11
428.959869
 21
3.871035
  0
LINE
  8
0
  6
CENTER
 10
500.074921
 20
180.492493
 11
357.479919
 21
180.492493
  0
LINE
  8
0
  6
CONTINUOUS
 10
518.959900
 20
15.492500
 11
338.959869
 21
15.492500
  0
LINE
  8
0
  6
CONTINUOUS
 10
518.959900
 20
35.492500
 11
338.959869
 21
35.492500
  0
LINE
  8
0
  6
CONTINUOUS
 10
460.774292
 20
257.992493
 11
397.145477
 21
257.992493
  0
LINE
  8
0
  6
CONTINUOUS
 10
338.959869
 20
213.824493
 11
338.959869
 21
15.492500
  0
LINE
  8
0
  6
CONTINUOUS
 10
518.959900
 20
213.824493
 11
518.959900
 21
15.492500
  0
LINE
  8
0
  6
CONTINUOUS
 10
531.959900
 20
197.992493
 11
523.959900
 21
197.992493
  0
LINE
  8
0
  6
CONTINUOUS
 10
531.959900
 20
55.992500
 11
523.959900
 21
55.992500
  0
LINE
  8
0
  6
CONTINUOUS
 10
391.361267
 20
256.149841
 11
343.175476
 21
221.981827
  0
LINE
  8
0
  6
CONTINUOUS
 10
514.744080
 20
221.981827
 11
466.558472
 21
256.149841
  0
ARC
  8
0
  6
CONTINUOUS
 10
348.959869
 20
213.824463
 40
10.000000
 50
125.339897
 51
180.000000
  0
ARC
  8
0
  6
CONTINUOUS
 10
397.145477
 20
247.992493
 40
10.000000
 50
90.000000
 51
125.339996
  0
ARC
  8
0
  6
CONTINUOUS
 10
460.774292
 20
247.992493
 40
10.000000
 50
54.659698
 51
90.000000
  0
ARC
  8
0
  6
CONTINUOUS
 10
508.959869
 20
213.824539
 40
10.000000
 50
0.000000
 51
54.659500
  0
ARC
  8
0
  6
CONTINUOUS
 10
523.959900
 20
202.992493
 40
5.000000
 50
180.000000
 51
270.000000
  0
ARC
  8
0
  6
CONTINUOUS
 10
523.959900
 20
50.992481
 40
5.000000
 50
90.000000
 51
180.000000
  0
LINE
  8
0
  6
CENTER
 10
368.959869
 20
42.581036
 11
368.959869
 21
9.006035
  0
LINE
  8
0
  6
CENTER
 10
488.959869
 20
41.396034
 11
488.959869
 21
9.006035
  0
LINE
  8
0
  6
DASHED
 10
376.459869
 20
35.492500
 11
376.459869
 21
15.492500
  0
LINE
  8
0
  6
DASHED
 10
361.459869
 20
35.492500
 11
361.459869
 21
15.492500
  0
LINE
  8
0
  6
DASHED
 10
481.459869
 20
35.492500
 11
481.459869
 21
15.492500
  0
LINE
  8
0
  6
DASHED
 10
496.459869
 20
35.492500
 11
496.459869
 21
15.492500
  0
LINE
  8
0
  6
CONTINUOUS
 10
352.959869
 20
32.807178
 11
352.959869
 21
15.492500
  0
LINE
  8
0
  6
CONTINUOUS
 10
504.959869
 20
32.807178
 11
504.959869
 21
15.492500
  0
LINE
  8
0
  6
CONTINUOUS
 10
395.202484
 20
40.492500
 11
462.717285
 21
40.492500
  0
LINE
  8
0
  6
CONTINUOUS
 10
463.959869
 20
39.355621
 11
463.959869
 21
36.492500
  0
LINE
  8
0
  6
CONTINUOUS
 10
393.959869
 20
39.355621
 11
393.959869
 21
36.492500
  0
LINE
  8
0
  6
CONTINUOUS
 10
393.081268
 20
39.613819
 11
390.424286
 21
36.956940
  0
LINE
  8
0
  6
CONTINUOUS
 10
464.838470
 20
39.613819
 11
467.495483
 21
36.957001
  0
ARC
  8
0
  6
CONTINUOUS
 10
471.030884
 20
40.492500
 40
5.000000
 50
-135.000107
 51
-90.000000
  0
ARC
  8
0
  6
CONTINUOUS
 10
386.888885
 20
40.492500
 40
5.000000
 50
-90.000000
 51
-45.000111
  0
ARC
  8
0
  6
CONTINUOUS
 10
462.717285
 20
37.492500
 40
3.000000
 50
44.999599
 51
90.000000
  0
ARC
  8
0
  6
CONTINUOUS
 10
395.202484
 20
37.492500
 40
3.000000
 50
90.000000
 51
134.999695
  0
ARC
  8
0
  6
CONTINUOUS
 10
464.959869
 20
36.492500
 40
1.000000
 50
180.000000
 51
270.000000
  0
ARC
  8
0
  6
CONTINUOUS
 10
392.959869
 20
36.492500
 40
1.000000
 50
-90.000000
 51
0.000000
  0
CIRCLE
  8
0
  6
CONTINUOUS
 10
428.959869
 20
180.492493
 40
46.000000
  0
ARC
  8
0
  6
CONTINUOUS
 10
428.959869
 20
180.492493
 40
52.000000
 50
12.522600
 51
167.477295
  0
ARC
  8
0
  6
CONTINUOUS
 10
428.959869
 20
180.492493
 40
48.000000
 50
-192.522705
 51
12.522580
  0
ARC
  8
0
  6
CONTINUOUS
 10
458.959869
 20
109.992500
 40
34.000000
 50
-90.000000
 51
12.522600
  0
ARC
  8
0
  6
CONTINUOUS
 10
458.959869
 20
109.992500
 40
38.000000
 50
-90.000000
 51
12.522600
  0
ARC
  8
0
  6
CONTINUOUS
 10
398.959869
 20
109.992500
 40
34.000000
 50
167.477295
 51
270.000000
  0
ARC
  8
0
  6
CONTINUOUS
 10
398.959869
 20
109.992500
 40
38.000000
 50
167.477295
 51
270.000000
  0
LINE
  8
0
  6
CONTINUOUS
 10
496.055878
 20
118.231865
 11
479.722870
 21
191.767395
  0
LINE
  8
0
  6
CONTINUOUS
 10
378.196869
 20
191.767502
 11
361.863892
 21
118.231926
  0
LINE
  8
0
  6
CONTINUOUS
 10
382.101685
 20
190.900177
 11
365.768677
 21
117.364616
  0
LINE
  8
0
  6
CONTINUOUS
 10
492.151093
 20
117.364563
 11
475.817871
 21
190.900116
  0
LINE
  8
0
  6
CONTINUOUS
 10
458.959869
 20
75.992500
 11
398.959869
 21
75.992500
  0
LINE
  8
0
  6
CONTINUOUS
 10
458.959869
 20
71.992500
 11
398.959869
 21
71.992500
  0
ARC
  8
0
  6
CONTINUOUS
 10
309.278290
 20
126.992500
 40
215.181595
 50
-12.982100
 51
12.982100
  0
LINE
  8
0
  6
CONTINUOUS
 10
416.732880
 20
93.992500
 11
411.792480
 21
93.992500
  0
LINE
  8
0
  6
CONTINUOUS
 10
419.459869
 20
102.267899
 11
419.459869
 21
93.992500
  0
LINE
  8
0
  6
CONTINUOUS
 10
424.209869
 20
105.273743
 11
424.209869
 21
108.242500
  0
LINE
  8
0
  6
CONTINUOUS
 10
433.709869
 20
105.273743
 11
433.709869
 21
108.242500
  0
LINE
  8
0
  6
CONTINUOUS
 10
428.032074
 20
106.498360
 11
428.032074
 21
95.551102
  0
LINE
  8
0
  6
CONTINUOUS
 10
429.813477
 20
106.498360
 11
429.813477
 21
95.551102
  0
LINE
  8
0
  6
CONTINUOUS
 10
439.164886
 20
106.498360
 11
439.164886
 21
95.476883
  0
LINE
  8
0
  6
CONTINUOUS
 10
440.797882
 20
100.653641
 11
440.797882
 21
95.476883
  0
LINE
  8
0
  6
CONTINUOUS
 10
417.205872
 20
106.349922
 11
412.628082
 21
106.349922
  0
LINE
  8
0
  6
CONTINUOUS
 10
412.628082
 20
106.349922
 11
411.555481
 21
105.019920
  0
LINE
  8
0
  6
CONTINUOUS
 10
411.684479
 20
108.242500
 11
409.959869
 21
106.034042
  0
LINE
  8
0
  6
CONTINUOUS
 10
411.555481
 20
96.810341
 11
412.645294
 21
95.662422
  0
LINE
  8
0
  6
CONTINUOUS
 10
409.959869
 20
95.841621
 11
411.792480
 21
93.992500
  0
LINE
  8
0
  6
CONTINUOUS
 10
409.959869
 20
106.034042
 11
409.959869
 21
95.841621
  0
LINE
  8
0
  6
CONTINUOUS
 10
411.555481
 20
105.019920
 11
411.555481
 21
96.810341
  0
LINE
  8
0
  6
CONTINUOUS
 10
418.086884
 20
105.498360
 11
417.187897
 21
106.349922
  0
LINE
  8
0
  6
CONTINUOUS
 10
418.072479
 20
108.242500
 11
419.459869
 21
106.702919
  0
LINE
  8
0
  6
CONTINUOUS
 10
418.086884
 20
105.273743
 11
419.459869
 21
105.273743
  0
LINE
  8
0
  6
CONTINUOUS
 10
411.684479
 20
108.242500
 11
418.072479
 21
108.242500
  0
LINE
  8
0
  6
CONTINUOUS
 10
415.600494
 20
102.267899
 11
419.459869
 21
102.267899
  0
LINE
  8
0
  6
CONTINUOUS
 10
418.086884
 20
100.709297
 11
415.600494
 21
100.709297
  0
LINE
  8
0
  6
CONTINUOUS
 10
415.118073
 20
95.662422
 11
412.645294
 21
95.662422
  0
LINE
  8
0
  6
CONTINUOUS
 10
418.086884
 20
99.224922
 11
418.086884
 21
100.412422
  0
ARC
  8
0
  6
CONTINUOUS
 10
415.118073
 20
98.631157
 40
2.968750
 50
-89.999786
 51
0.000109
  0
LINE
  8
0
  6
CONTINUOUS
 10
418.086884
 20
95.128418
 11
418.086884
 21
93.992500
  0
LINE
  8
0
  6
CONTINUOUS
 10
419.459869
 20
106.702919
 11
419.459869
 21
105.273743
  0
LINE
  8
0
  6
CONTINUOUS
 10
418.086884
 20
100.709297
 11
418.086884
 21
98.631157
  0
LINE
  8
0
  6
CONTINUOUS
 10
415.600494
 20
102.267899
 11
415.600494
 21
100.709297
  0
LINE
  8
0
  6
CONTINUOUS
 10
418.086884
 20
93.992500
 11
419.459869
 21
93.992500
  0
LINE
  8
0
  6
CONTINUOUS
 10
418.086884
 20
95.128418
 11
416.732880
 21
93.992500
  0
LINE
  8
0
  6
CONTINUOUS
 10
429.813477
 20
95.551102
 11
430.407074
 21
95.551102
  0
LINE
  8
0
  6
CONTINUOUS
 10
427.327087
 20
95.551102
 11
427.327087
 21
93.992500
  0
LINE
  8
0
  6
CONTINUOUS
 10
430.407074
 20
95.551102
 11
430.407074
 21
93.992500
  0
LINE
  8
0
  6
CONTINUOUS
 10
432.718872
 20
105.273743
 11
433.709869
 21
105.273743
  0
LINE
  8
0
  6
CONTINUOUS
 10
424.209869
 20
105.273743
 11
425.264496
 21
105.273743
  0
LINE
  8
0
  6
CONTINUOUS
 10
424.209869
 20
108.242500
 11
433.709869
 21
108.242500
  0
LINE
  8
0
  6
CONTINUOUS
 10
427.327087
 20
93.992500
 11
430.407074
 21
93.992500
  0
LINE
  8
0
  6
CONTINUOUS
 10
427.327087
 20
95.551102
 11
428.032074
 21
95.551102
  0
ARC
  8
0
  6
CONTINUOUS
 10
444.156067
 20
104.438782
 40
3.803712
 50
-73.981873
 51
90.003510
  0
ARC
  8
0
  6
CONTINUOUS
 10
444.156067
 20
104.438782
 40
2.320524
 50
-82.585274
 51
62.411850
  0
LINE
  8
0
  6
CONTINUOUS
 10
438.459869
 20
108.242500
 11
444.156067
 21
108.242500
  0
LINE
  8
0
  6
CONTINUOUS
 10
444.455688
 20
102.137657
 11
440.797882
 21
102.137657
  0
LINE
  8
0
  6
CONTINUOUS
 10
438.459869
 20
108.242500
 11
438.459869
 21
106.498360
  0
LINE
  8
0
  6
CONTINUOUS
 10
440.797882
 20
106.498360
 11
440.797882
 21
102.137657
  0
LINE
  8
0
  6
CONTINUOUS
 10
445.205688
 20
100.782761
 11
447.560089
 21
95.476883
  0
LINE
  8
0
  6
CONTINUOUS
 10
443.838470
 20
100.653641
 11
446.066284
 21
95.476883
  0
LINE
  8
0
  6
CONTINUOUS
 10
438.459869
 20
95.476883
 11
439.164886
 21
95.476883
  0
LINE
  8
0
  6
CONTINUOUS
 10
440.797882
 20
95.476883
 11
441.447296
 21
95.476883
  0
LINE
  8
0
  6
CONTINUOUS
 10
441.447296
 20
93.992500
 11
438.459869
 21
93.992500
  0
LINE
  8
0
  6
CONTINUOUS
 10
445.770477
 20
95.476883
 11
446.066284
 21
95.476883
  0
LINE
  8
0
  6
CONTINUOUS
 10
447.560089
 20
95.476883
 11
447.959869
 21
95.476883
  0
LINE
  8
0
  6
CONTINUOUS
 10
445.770477
 20
93.992500
 11
447.959869
 21
93.992500
  0
LINE
  8
0
  6
CONTINUOUS
 10
447.959869
 20
95.476883
 11
447.959869
 21
93.992500
  0
LINE
  8
0
  6
CONTINUOUS
 10
445.770477
 20
95.476883
 11
445.770477
 21
93.992500
  0
LINE
  8
0
  6
CONTINUOUS
 10
441.447296
 20
95.476883
 11
441.447296
 21
93.992500
  0
LINE
  8
0
  6
CONTINUOUS
 10
438.459869
 20
95.476883
 11
438.459869
 21
93.992500
  0
LINE
  8
0
  6
CONTINUOUS
 10
425.774689
 20
106.498360
 11
425.264496
 21
105.273743
  0
LINE
  8
0
  6
CONTINUOUS
 10
432.288696
 20
106.498360
 11
432.718872
 21
105.273743
  0
LINE
  8
0
  6
CONTINUOUS
 10
429.813477
 20
106.498360
 11
432.288696
 21
106.498360
  0
LINE
  8
0
  6
CONTINUOUS
 10
428.032074
 20
106.498360
 11
425.774689
 21
106.498360
  0
LINE
  8
0
  6
CONTINUOUS
 10
440.797882
 20
100.653641
 11
443.838470
 21
100.653641
  0
LINE
  8
0
  6
CONTINUOUS
 10
438.459869
 20
106.498360
 11
439.164886
 21
106.498360
  0
LINE
  8
0
  6
CONTINUOUS
 10
440.797882
 20
106.498360
 11
445.230896
 21
106.495483
  0
LINE
  8
0
  6
CONTINUOUS
 10
418.086884
 20
105.498360
 11
418.086884
 21
105.273743
  0
LINE
  8
0
  6
CONTINUOUS
 10
513.959900
 20
190.418915
 11
513.959900
 21
105.566101
  0
LINE
  8
0
  6
CONTINUOUS
 10
343.959869
 20
190.418900
 11
343.959869
 21
105.566101
  0
ARC
  8
0
  6
CONTINUOUS
 10
428.959869
 20
147.992493
 40
105.000000
 50
50.655579
 51
129.521500
  0
ARC
  8
0
  6
CONTINUOUS
 10
428.959869
 20
147.992493
 40
105.000000
 50
230.478897
 51
309.521606
  0
ARC
  8
0
  6
CONTINUOUS
 10
463.959869
 20
190.418915
 40
50.000000
 50
0.000000
 51
51.150589
  0
ARC
  8
0
  6
CONTINUOUS
 10
393.959869
 20
190.418900
 40
50.000000
 50
129.521698
 51
180.000000
  0
ARC
  8
0
  6
CONTINUOUS
 10
393.959869
 20
105.566101
 40
50.000000
 50
180.000000
 51
230.479202
  0
ARC
  8
0
  6
CONTINUOUS
 10
463.959869
 20
105.566101
 40
50.000000
 50
-50.478550
 51
0.000000
  0
LINE
  8
0
  6
CONTINUOUS
 10
413.959869
 20
186.492493
 11
413.959869
 21
174.492493
  0
LINE
  8
0
  6
CONTINUOUS
 10
405.959869
 20
186.492493
 11
405.959869
 21
174.492493
  0
LINE
  8
0
  6
CONTINUOUS
 10
405.959869
 20
186.492493
 11
413.959869
 21
186.492493
  0
LINE
  8
0
  6
CONTINUOUS
 10
405.959869
 20
174.492493
 11
413.959869
 21
174.492493
  0
ARC
  8
0
  6
CONTINUOUS
 10
428.959869
 20
180.492493
 40
20.000000
 50
-162.542404
 51
162.542404
  0
LINE
  8
0
  6
CONTINUOUS
 10
726.959900
 20
452.176941
 11
718.459839
 21
452.176941
  0
LINE
  8
0
  6
CONTINUOUS
 10
726.959900
 20
558.176941
 11
718.459839
 21
558.176941
  0
LINE
  8
0
  6
CONTINUOUS
 10
718.459839
 20
473.676941
 11
726.959900
 21
473.676941
  0
LINE
  8
0
  6
CONTINUOUS
 10
718.459839
 20
536.676941
 11
726.959900
 21
536.676941
  0
LINE
  8
0
  6
CONTINUOUS
 10
718.459839
 20
558.176941
 11
718.459839
 21
512.042969
  0
LINE
  8
0
  6
CONTINUOUS
 10
724.959839
 20
511.176941
 11
724.959839
 21
499.176941
  0
LINE
  8
0
  6
CONTINUOUS
 10
717.959839
 20
511.176941
 11
717.959839
 21
499.176941
  0
LINE
  8
0
  6
CONTINUOUS
 10
723.959839
 20
498.176941
 11
718.959839
 21
498.176941
  0
LINE
  8
0
  6
CONTINUOUS
 10
718.959839
 20
512.176941
 11
723.959839
 21
512.176941
  0
ARC
  8
0
  6
CONTINUOUS
 10
718.959839
 20
499.176941
 40
1.000000
 50
180.000000
 51
270.000000
  0
ARC
  8
0
  6
CONTINUOUS
 10
723.959839
 20
499.176941
 40
1.000000
 50
-90.000000
 51
0.000000
  0
ARC
  8
0
  6
CONTINUOUS
 10
723.959839
 20
511.176941
 40
1.000000
 50
0.000000
 51
90.000000
  0
ARC
  8
0
  6
CONTINUOUS
 10
718.959839
 20
511.176941
 40
1.000000
 50
90.000000
 51
180.000000
  0
LINE
  8
0
  6
CONTINUOUS
 10
720.459839
 20
508.676941
 11
720.459839
 21
501.676941
  0
LINE
  8
0
  6
CONTINUOUS
 10
722.459839
 20
508.676941
 11
722.459839
 21
501.676941
  0
ARC
  8
0
  6
CONTINUOUS
 10
721.459839
 20
501.676941
 40
1.000000
 50
-90.000000
 51
0.000000
  0
ARC
  8
0
  6
CONTINUOUS
 10
721.459839
 20
501.676941
 40
1.000000
 50
180.000000
 51
270.000000
  0
ARC
  8
0
  6
CONTINUOUS
 10
721.459839
 20
508.676941
 40
1.000000
 50
0.000000
 51
90.000000
  0
ARC
  8
0
  6
CONTINUOUS
 10
721.459839
 20
508.676941
 40
1.000000
 50
90.000000
 51
180.000000
  0
LINE
  8
0
  6
CONTINUOUS
 10
718.459839
 20
498.310913
 11
718.459839
 21
452.176941
  0
LINE
  8
0
  6
CONTINUOUS
 10
726.959900
 20
450.176941
 11
726.959900
 21
560.176941
  0
LINE
  8
0
  6
CONTINUOUS
 10
765.959900
 20
450.176941
 11
726.959900
 21
450.176941
  0
LINE
  8
0
  6
CONTINUOUS
 10
765.959900
 20
560.176941
 11
726.959900
 21
560.176941
  0
LINE
  8
0
  6
CONTINUOUS
 10
775.959900
 20
550.176941
 11
775.959900
 21
460.176941
  0
LINE
  8
0
  6
CONTINUOUS
 10
770.959900
 20
474.676941
 11
726.959900
 21
474.676941
  0
LINE
  8
0
  6
CONTINUOUS
 10
770.959900
 20
535.676941
 11
726.959900
 21
535.676941
  0
ARC
  8
0
  6
CONTINUOUS
 10
765.959778
 20
460.176941
 40
10.000000
 50
-90.000000
 51
0.000000
  0
ARC
  8
0
  6
CONTINUOUS
 10
765.959900
 20
550.176941
 40
10.000000
 50
0.000000
 51
90.000000
  0
LINE
  8
0
  6
CONTINUOUS
 10
726.959900
 20
166.992493
 11
726.959900
 21
56.992500
  0
LINE
  8
0
  6
CONTINUOUS
 10
726.959900
 20
164.992493
 11
718.459900
 21
164.992493
  0
LINE
  8
0
  6
CONTINUOUS
 10
726.959900
 20
58.992500
 11
718.459900
 21
58.992500
  0
LINE
  8
0
  6
CONTINUOUS
 10
717.959900
 20
166.492493
 11
717.959900
 21
164.992493
  0
LINE
  8
0
  6
CONTINUOUS
 10
724.959900
 20
166.492493
 11
724.959900
 21
164.992493
  0
LINE
  8
0
  6
CONTINUOUS
 10
724.959900
 20
166.492493
 11
717.959900
 21
166.492493
  0
LINE
  8
0
  6
CONTINUOUS
 10
720.559875
 20
179.492493
 11
720.559875
 21
166.492493
  0
LINE
  8
0
  6
CONTINUOUS
 10
722.359863
 20
180.117493
 11
722.359863
 21
166.492493
  0
LINE
  8
0
  6
CONTINUOUS
 10
724.159912
 20
178.054993
 11
724.159912
 21
166.492493
  0
LINE
  8
0
  6
CONTINUOUS
 10
718.759888
 20
178.867493
 11
718.759888
 21
166.492493
  0
LINE
  8
0
  6
CONTINUOUS
 10
722.359863
 20
180.117493
 11
720.559875
 21
179.492493
  0
LINE
  8
0
  6
CONTINUOUS
 10
724.159912
 20
178.054993
 11
722.359863
 21
178.679993
  0
LINE
  8
0
  6
CONTINUOUS
 10
718.759888
 20
178.867493
 11
720.558899
 21
178.419800
  0
LINE
  8
0
  6
CONTINUOUS
 10
726.959900
 20
154.555099
 11
718.459900
 21
154.555099
  0
LINE
  8
0
  6
CONTINUOUS
 10
726.959900
 20
69.308372
 11
718.459900
 21
69.308372
  0
LINE
  8
0
  6
CONTINUOUS
 10
765.959900
 20
166.992493
 11
726.959900
 21
166.992493
  0
LINE
  8
0
  6
CONTINUOUS
 10
765.959900
 20
56.992500
 11
726.959900
 21
56.992500
  0
LINE
  8
0
  6
CONTINUOUS
 10
775.959900
 20
66.992500
 11
775.959900
 21
156.992493
  0
LINE
  8
0
  6
CONTINUOUS
 10
770.959900
 20
142.492493
 11
726.959900
 21
142.492493
  0
LINE
  8
0
  6
CONTINUOUS
 10
770.959900
 20
81.492500
 11
726.959900
 21
81.492500
  0
ARC
  8
0
  6
CONTINUOUS
 10
765.959778
 20
156.992493
 40
10.000000
 50
0.000000
 51
90.000000
  0
ARC
  8
0
  6
CONTINUOUS
 10
765.959900
 20
66.992500
 40
10.000000
 50
-90.000000
 51
0.000000
  0
LINE
  8
0
  6
CONTINUOUS
 10
718.459900
 20
58.992500
 11
718.459900
 21
164.992493
  0
LINE
  8
0
  6
CONTINUOUS
 10
598.459839
 20
536.676941
 11
598.459839
 21
556.176941
  0
TEXT
  8
0
 10
-3.000000
 20
-1.000000
 40
4.000000
 41
1.000000
  1
HLM-40L-1200~1800-S90W
 50
0.000000
  0
ENDSEC
  0
EOF
