  0
SECTION
  2
HEADER
  9
$CLAYER
  8
1
  9
$LTSCALE
 40
3.0
  0
ENDSEC
  0
SECTION
  2
TABLES
  0
TABLE
  2
LTYPE
 70
     4
  0
LTYPE
  2
CONTINUOUS
  3
solid line
 70
    64
 72
    65
 73
     0
 40
0.0
  0
LTYPE
  2
DASHED
  3
__ __ __ __ __ __ __ __ __ __ __ __ __ __ __
 70
    64
 72
    65
 73
     2
 40
0.75
 49
0.5
 49
-0.25
  0
LTYPE
  2
CENTER
  3
____ _ ____ _ ____ _ ____ _ ____ _ ____ _ ____
 70
    64
 72
    65
 73
     4
 40
2.0
 49
1.25
 49
-0.25
 49
0.25
 49
-0.25
  0
LTYPE
  2
PHANTOM
  3
_____ _ _ _____ _ _ _____ _ _ _____ _ _ ____
 70
    64
 72
    65
 73
     6
 40
2.5
 49
1.25
 49
-0.25
 49
0.25
 49
-0.25
 49
0.25
 49
-0.25
  0
ENDTAB
  0
TABLE
  2
LAYER
 70
     1
  0
LAYER
  2
0
 70
    64
 62
     7
  6
CONTINUOUS
  0
ENDTAB
  0
TABLE
  2
STYLE
 70
     1
  0
STYLE
  2
STANDARD
 70
     0
 40
0.000000
 41
1.000000
 50
0.000000
 71
     0
 42
3.000000
  3
txt
  4
BIGFONT
  0
ENDTAB
  0
ENDSEC
  0
SECTION
  2
BLOCKS
  0
ENDSEC
  0
SECTION
  2
ENTITIES
  0
LINE
  8
0
  6
CONTINUOUS
 10
535.842407
 20
53.345001
 11
535.842407
 21
195.345001
  0
LINE
  8
0
  6
CENTER
 10
628.237488
 20
124.345001
 11
489.352386
 21
124.345001
  0
LINE
  8
0
  6
CONTINUOUS
 10
722.342407
 20
162.345001
 11
592.342407
 21
162.345001
  0
LINE
  8
0
  6
CONTINUOUS
 10
722.342407
 20
56.345001
 11
592.342407
 21
56.345001
  0
LINE
  8
0
  6
CONTINUOUS
 10
722.342407
 20
151.968338
 11
603.680603
 21
151.968338
  0
LINE
  8
0
  6
CONTINUOUS
 10
722.342407
 20
66.721642
 11
603.680603
 21
66.721642
  0
LINE
  8
0
  6
CONTINUOUS
 10
602.342407
 20
160.345001
 11
602.342407
 21
58.344978
  0
ARC
  8
0
  6
CONTINUOUS
 10
600.342407
 20
160.345016
 40
2.000000
 50
0.000000
 51
90.000000
  0
ARC
  8
0
  6
CONTINUOUS
 10
600.342407
 20
58.345001
 40
2.000000
 50
-90.000000
 51
0.000000
  0
LINE
  8
0
  6
CENTER
 10
98.188202
 20
-3.665000
 11
98.188202
 21
268.489990
  0
LINE
  8
0
  6
CENTER
 10
-2.614182
 20
124.345001
 11
194.095825
 21
124.345001
  0
LINE
  8
0
  6
CENTER
 10
5.285818
 20
177.845001
 11
255.625000
 21
177.845001
  0
LINE
  8
0
  6
CENTER
 10
28.188200
 20
44.525002
 11
28.188200
 21
5.815000
  0
LINE
  8
0
  6
CENTER
 10
168.188202
 20
41.759998
 11
168.188202
 21
5.025000
  0
LINE
  8
0
  6
DASHED
 10
160.688202
 20
32.845001
 11
160.688202
 21
12.845000
  0
LINE
  8
0
  6
DASHED
 10
175.688202
 20
32.845001
 11
175.688202
 21
12.845000
  0
LINE
  8
0
  6
DASHED
 10
35.688202
 20
32.845001
 11
35.688202
 21
12.845000
  0
LINE
  8
0
  6
DASHED
 10
20.688200
 20
32.845001
 11
20.688200
 21
12.845000
  0
LINE
  8
0
  6
CONTINUOUS
 10
8.188200
 20
12.845000
 11
63.188202
 21
12.845000
  0
LINE
  8
0
  6
CONTINUOUS
 10
133.188202
 20
12.845000
 11
188.188202
 21
12.845000
  0
LINE
  8
0
  6
CONTINUOUS
 10
155.188202
 20
32.845001
 11
185.188202
 21
32.845001
  0
LINE
  8
0
  6
CONTINUOUS
 10
11.188200
 20
32.845001
 11
41.188202
 21
32.845001
  0
LINE
  8
0
  6
CONTINUOUS
 10
8.188200
 20
30.213881
 11
8.188200
 21
12.845020
  0
LINE
  8
0
  6
CONTINUOUS
 10
188.188202
 20
30.213881
 11
188.188202
 21
12.845000
  0
LINE
  8
0
  6
CONTINUOUS
 10
150.188202
 20
235.125107
 11
150.188202
 21
250.506760
  0
LINE
  8
0
  6
CONTINUOUS
 10
46.188202
 20
250.506378
 11
46.188202
 21
12.845000
  0
LINE
  8
0
  6
CONTINUOUS
 10
64.688202
 20
14.345000
 11
131.688202
 21
14.345000
  0
LINE
  8
0
  6
CONTINUOUS
 10
50.632801
 20
216.345001
 11
146.419998
 21
216.345001
  0
LINE
  8
0
  6
CONTINUOUS
 10
146.257996
 20
254.506134
 11
98.188202
 21
255.345016
  0
LINE
  8
0
  6
CONTINUOUS
 10
50.118401
 20
254.505783
 11
98.188202
 21
255.345016
  0
LINE
  8
0
  6
CONTINUOUS
 10
25.188200
 20
137.125107
 11
25.188200
 21
218.564880
  0
LINE
  8
0
  6
CONTINUOUS
 10
171.188202
 20
137.125107
 11
171.188202
 21
218.564880
  0
LINE
  8
0
  6
CONTINUOUS
 10
32.188202
 20
78.625099
 11
32.188202
 21
181.985275
  0
LINE
  8
0
  6
CONTINUOUS
 10
164.188202
 20
78.625122
 11
164.188202
 21
181.985275
  0
ARC
  8
0
  6
CONTINUOUS
 10
50.188202
 20
250.506393
 40
4.000000
 50
91.000580
 51
180.000000
  0
ARC
  8
0
  6
CONTINUOUS
 10
146.188202
 20
250.506744
 40
4.000000
 50
0.000000
 51
89.000359
  0
LINE
  8
0
  6
CONTINUOUS
 10
30.265200
 20
225.295563
 11
41.111198
 21
228.394440
  0
LINE
  8
0
  6
CONTINUOUS
 10
155.265198
 20
228.394440
 11
166.111206
 21
225.295563
  0
LINE
  8
0
  6
CONTINUOUS
 10
37.265202
 20
71.894440
 11
41.111198
 21
70.795563
  0
LINE
  8
0
  6
CONTINUOUS
 10
159.111206
 20
71.894440
 11
155.265198
 21
70.795563
  0
LINE
  8
0
  6
CONTINUOUS
 10
185.579605
 20
33.188240
 11
152.796799
 21
37.501759
  0
LINE
  8
0
  6
CONTINUOUS
 10
10.796800
 20
33.188240
 11
43.579601
 21
37.501781
  0
ARC
  8
0
  6
CONTINUOUS
 10
32.188202
 20
218.564926
 40
7.000000
 50
105.945801
 51
180.000000
  0
ARC
  8
0
  6
CONTINUOUS
 10
32.188202
 20
137.125153
 40
7.000000
 50
180.000000
 51
240.000198
  0
ARC
  8
0
  6
CONTINUOUS
 10
164.188202
 20
218.564865
 40
7.000000
 50
0.000000
 51
74.054764
  0
ARC
  8
0
  6
CONTINUOUS
 10
164.188202
 20
137.125092
 40
7.000000
 50
-59.999882
 51
0.000000
  0
ARC
  8
0
  6
CONTINUOUS
 10
39.188202
 20
78.625160
 40
7.000000
 50
180.000000
 51
254.054901
  0
ARC
  8
0
  6
CONTINUOUS
 10
157.188202
 20
78.625099
 40
7.000000
 50
-74.054497
 51
0.000000
  0
LINE
  8
0
  6
CONTINUOUS
 10
150.188202
 20
37.845001
 11
150.188202
 21
235.125107
  0
ARC
  8
0
  6
CONTINUOUS
 10
157.188202
 20
235.125153
 40
7.000000
 50
180.000000
 51
254.054901
  0
ARC
  8
0
  6
CONTINUOUS
 10
157.188202
 20
64.064941
 40
7.000000
 50
105.945801
 51
180.000000
  0
ARC
  8
0
  6
CONTINUOUS
 10
171.188202
 20
125.000748
 40
7.000000
 50
120.000099
 51
180.000000
  0
ARC
  8
0
  6
CONTINUOUS
 10
153.188202
 20
40.476139
 40
3.000000
 50
180.000000
 51
262.504395
  0
ARC
  8
0
  6
CONTINUOUS
 10
185.188202
 20
29.844999
 40
3.000000
 50
0.000000
 51
90.000000
  0
ARC
  8
0
  6
CONTINUOUS
 10
185.188202
 20
30.213860
 40
3.000000
 50
0.000000
 51
82.504204
  0
LINE
  8
0
  6
CONTINUOUS
 10
150.188202
 20
37.845001
 11
150.188202
 21
12.845000
  0
ARC
  8
0
  6
CONTINUOUS
 10
155.188202
 20
37.845020
 40
5.000000
 50
180.000000
 51
270.000000
  0
ARC
  8
0
  6
CONTINUOUS
 10
43.188202
 20
40.476139
 40
3.000000
 50
-82.503883
 51
0.000000
  0
ARC
  8
0
  6
CONTINUOUS
 10
41.188202
 20
37.845001
 40
5.000000
 50
-90.000000
 51
0.000000
  0
ARC
  8
0
  6
CONTINUOUS
 10
11.188200
 20
29.845020
 40
3.000000
 50
90.000000
 51
180.000000
  0
ARC
  8
0
  6
CONTINUOUS
 10
11.188200
 20
30.213900
 40
3.000000
 50
97.496292
 51
180.000000
  0
LINE
  8
0
  6
CONTINUOUS
 10
63.188202
 20
12.845000
 11
64.688202
 21
14.345000
  0
LINE
  8
0
  6
CONTINUOUS
 10
133.188202
 20
12.845000
 11
131.688202
 21
14.345000
  0
ARC
  8
0
  6
CONTINUOUS
 10
39.188202
 20
64.064857
 40
7.000000
 50
0.000000
 51
74.054688
  0
ARC
  8
0
  6
CONTINUOUS
 10
25.188200
 20
125.000778
 40
7.000000
 50
0.000000
 51
60.000092
  0
ARC
  8
0
  6
CONTINUOUS
 10
39.188202
 20
235.125107
 40
7.000000
 50
-74.054443
 51
0.000000
  0
ARC
  8
0
  6
CONTINUOUS
 10
98.188202
 20
124.345001
 40
71.000000
 50
-21.630920
 51
6.068256
  0
ARC
  8
0
  6
CONTINUOUS
 10
98.188202
 20
124.345001
 40
71.000000
 50
173.931793
 51
201.630905
  0
LINE
  8
0
  6
CONTINUOUS
 10
151.188202
 20
67.670479
 11
151.188202
 21
61.345001
  0
LINE
  8
0
  6
CONTINUOUS
 10
45.188202
 20
61.345001
 11
45.188202
 21
67.533997
  0
ARC
  8
0
  6
CONTINUOUS
 10
146.188202
 20
61.345001
 40
5.000000
 50
-36.869869
 51
0.000000
  0
ARC
  8
0
  6
CONTINUOUS
 10
50.188202
 20
61.345001
 40
5.000000
 50
180.000000
 51
216.865204
  0
LINE
  8
0
  6
CONTINUOUS
 10
238.188202
 20
157.845001
 11
238.188202
 21
197.845001
  0
LINE
  8
0
  6
CONTINUOUS
 10
173.188202
 20
197.845001
 11
238.188202
 21
197.845001
  0
LINE
  8
0
  6
CONTINUOUS
 10
173.188202
 20
157.845001
 11
238.188202
 21
157.845001
  0
LINE
  8
0
  6
CONTINUOUS
 10
173.188202
 20
200.345001
 11
173.188202
 21
155.345001
  0
LINE
  8
0
  6
CONTINUOUS
 10
171.188202
 20
200.345001
 11
173.188202
 21
200.345001
  0
LINE
  8
0
  6
CONTINUOUS
 10
171.188202
 20
155.345001
 11
173.188202
 21
155.345001
  0
ARC
  8
0
  6
CONTINUOUS
 10
184.188202
 20
177.845001
 40
6.000000
 50
90.000000
 51
270.000000
  0
LINE
  8
0
  6
CONTINUOUS
 10
184.188202
 20
183.845001
 11
238.188202
 21
183.845001
  0
LINE
  8
0
  6
CONTINUOUS
 10
184.188202
 20
171.845001
 11
238.188202
 21
171.845001
  0
LINE
  8
0
  6
CONTINUOUS
 10
544.842407
 20
79.100998
 11
544.842407
 21
193.345001
  0
LINE
  8
0
  6
CENTER
 10
795.712524
 20
109.345001
 11
489.352386
 21
109.345001
  0
LINE
  8
0
  6
CONTINUOUS
 10
542.842407
 20
195.345001
 11
535.842407
 21
195.345001
  0
LINE
  8
0
  6
CONTINUOUS
 10
542.842407
 20
53.345020
 11
535.842407
 21
53.345020
  0
LINE
  8
0
  6
CONTINUOUS
 10
563.842407
 20
56.345001
 11
592.342407
 21
56.345001
  0
LINE
  8
0
  6
CONTINUOUS
 10
592.342407
 20
162.345001
 11
547.842407
 21
162.345001
  0
LINE
  8
0
  6
CONTINUOUS
 10
546.342407
 20
173.478973
 11
564.930664
 21
162.746933
  0
ARC
  8
0
  6
CONTINUOUS
 10
542.842346
 20
193.345001
 40
2.000000
 50
0.000000
 51
90.000000
  0
ARC
  8
0
  6
CONTINUOUS
 10
542.842407
 20
55.345001
 40
2.000000
 50
-90.000000
 51
-14.477700
  0
LINE
  8
0
  6
CONTINUOUS
 10
563.842407
 20
58.345001
 11
563.842407
 21
75.100998
  0
LINE
  8
0
  6
CONTINUOUS
 10
546.842407
 20
77.100998
 11
561.842407
 21
77.100998
  0
ARC
  8
0
  6
CONTINUOUS
 10
561.842407
 20
75.101021
 40
2.000000
 50
0.000000
 51
90.000000
  0
ARC
  8
0
  6
CONTINUOUS
 10
546.715332
 20
54.345001
 40
2.000000
 50
90.000000
 51
165.522720
  0
ARC
  8
0
  6
CONTINUOUS
 10
546.842407
 20
79.100998
 40
2.000000
 50
180.000000
 51
270.000000
  0
LINE
  8
0
  6
CONTINUOUS
 10
563.842407
 20
56.345001
 11
546.715332
 21
56.345001
  0
ARC
  8
0
  6
CONTINUOUS
 10
565.842407
 20
58.345001
 40
2.000000
 50
180.000000
 51
270.000000
  0
ARC
  8
0
  6
CONTINUOUS
 10
547.842407
 20
165.345001
 40
3.000000
 50
180.000000
 51
270.000000
  0
ARC
  8
0
  6
CONTINUOUS
 10
547.842407
 20
176.077042
 40
3.000000
 50
180.000000
 51
239.999664
  0
ARC
  8
0
  6
CONTINUOUS
 10
566.430664
 20
165.345001
 40
3.000000
 50
-120.000298
 51
-90.000000
  0
LINE
  8
0
  6
CONTINUOUS
 10
592.342407
 20
162.345001
 11
592.342407
 21
56.345001
  0
LINE
  8
0
  6
CONTINUOUS
 10
363.973907
 20
412.529663
 11
409.843018
 21
412.529602
  0
LINE
  8
0
  6
CONTINUOUS
 10
363.974518
 20
592.529663
 11
432.843018
 21
592.529663
  0
LINE
  8
0
  6
CENTER
 10
432.842926
 20
612.844971
 11
432.842377
 21
337.451630
  0
LINE
  8
0
  6
CENTER
 10
357.989227
 20
432.528839
 11
386.357269
 21
432.528839
  0
LINE
  8
0
  6
CONTINUOUS
 10
342.842712
 20
502.529602
 11
343.750702
 21
554.529663
  0
LINE
  8
0
  6
CONTINUOUS
 10
354.519928
 20
585.787109
 11
343.750702
 21
554.529663
  0
ARC
  8
0
  6
CONTINUOUS
 10
363.974304
 20
582.529602
 40
10.000000
 50
90.000000
 51
160.989105
  0
ARC
  8
0
  6
CONTINUOUS
 10
372.842712
 20
432.528839
 40
7.500000
 50
-226.074890
 51
32.226799
  0
LINE
  8
0
  6
CONTINUOUS
 10
342.842712
 20
502.529602
 11
343.750519
 21
450.529663
  0
LINE
  8
0
  6
CONTINUOUS
 10
354.519501
 20
419.272278
 11
343.750519
 21
450.529663
  0
ARC
  8
0
  6
CONTINUOUS
 10
363.973907
 20
422.529663
 40
10.000000
 50
199.010895
 51
270.000000
  0
LINE
  8
0
  6
CONTINUOUS
 10
522.842712
 20
502.529419
 11
521.934937
 21
554.529358
  0
LINE
  8
0
  6
CONTINUOUS
 10
511.165924
 20
585.786804
 11
521.934937
 21
554.529358
  0
ARC
  8
0
  6
CONTINUOUS
 10
501.711304
 20
582.529358
 40
10.000000
 50
19.010900
 51
90.000000
  0
LINE
  8
0
  6
CONTINUOUS
 10
522.842712
 20
502.529419
 11
521.986206
 21
453.476837
  0
LINE
  8
0
  6
CONTINUOUS
 10
511.165527
 20
419.272064
 11
521.587891
 21
449.522827
  0
LINE
  8
0
  6
CONTINUOUS
 10
533.804932
 20
431.529480
 11
535.842529
 21
431.529480
  0
LINE
  8
0
  6
CONTINUOUS
 10
535.842529
 20
431.529480
 11
535.842896
 21
573.529358
  0
LINE
  8
0
  6
CONTINUOUS
 10
524.732910
 20
445.341278
 11
527.043518
 21
436.717651
  0
ARC
  8
0
  6
CONTINUOUS
 10
533.804932
 20
438.529480
 40
7.000000
 50
194.999893
 51
270.000000
  0
ARC
  8
0
  6
CONTINUOUS
 10
517.971313
 20
443.529480
 40
7.000000
 50
14.999700
 51
90.000000
  0
LINE
  8
0
  6
CONTINUOUS
 10
533.805298
 20
573.529358
 11
535.842896
 21
573.529358
  0
LINE
  8
0
  6
CONTINUOUS
 10
524.733093
 20
559.717529
 11
527.043701
 21
568.341125
  0
ARC
  8
0
  6
CONTINUOUS
 10
533.805298
 20
566.529297
 40
7.000000
 50
90.000000
 51
165.000107
  0
ARC
  8
0
  6
CONTINUOUS
 10
517.971497
 20
561.529358
 40
7.000000
 50
301.109222
 51
345.000336
  0
ARC
  8
0
  6
CONTINUOUS
 10
501.711304
 20
422.529022
 40
10.000000
 50
270.000000
 51
340.989105
  0
ARC
  8
0
  6
CONTINUOUS
 10
492.842926
 20
432.528137
 40
7.500000
 50
-212.232941
 51
58.076355
  0
LINE
  8
0
  6
CENTER
 10
372.842987
 20
444.330444
 11
372.842499
 21
420.454041
  0
LINE
  8
0
  6
CENTER
 10
479.832306
 20
432.528717
 11
505.410065
 21
432.528717
  0
LINE
  8
0
  6
CENTER
 10
492.842712
 20
444.330444
 11
492.842499
 21
420.453827
  0
LINE
  8
0
  6
CONTINUOUS
 10
346.698608
 20
450.529205
 11
518.986633
 21
450.529205
  0
LINE
  8
0
  6
CONTINUOUS
 10
475.623474
 20
429.529205
 11
390.062561
 21
429.529205
  0
ARC
  8
0
  6
CONTINUOUS
 10
346.698608
 20
453.529205
 40
3.000000
 50
181.000153
 51
270.000000
  0
ARC
  8
0
  6
CONTINUOUS
 10
518.986633
 20
453.529205
 40
3.000000
 50
270.000000
 51
358.999634
  0
LINE
  8
0
  6
CONTINUOUS
 10
346.698608
 20
554.529236
 11
518.986633
 21
554.529236
  0
ARC
  8
0
  6
CONTINUOUS
 10
346.698608
 20
551.529236
 40
3.000000
 50
90.000000
 51
178.999847
  0
ARC
  8
0
  6
CONTINUOUS
 10
518.986633
 20
551.529236
 40
3.000000
 50
1.000372
 51
90.000000
  0
LINE
  8
0
  6
CONTINUOUS
 10
397.842804
 20
549.529236
 11
397.842804
 21
455.529205
  0
LINE
  8
0
  6
CONTINUOUS
 10
467.842804
 20
549.529236
 11
467.842804
 21
455.529205
  0
LINE
  8
0
  6
CONTINUOUS
 10
491.562805
 20
436.529205
 11
484.843018
 21
436.529205
  0
LINE
  8
0
  6
CONTINUOUS
 10
371.842926
 20
436.529205
 11
380.843018
 21
436.529205
  0
ARC
  8
0
  6
CONTINUOUS
 10
371.842926
 20
443.529205
 40
7.000000
 50
180.000000
 51
270.000000
  0
ARC
  8
0
  6
CONTINUOUS
 10
357.842926
 20
443.529205
 40
7.000000
 50
0.000000
 51
90.000000
  0
LINE
  8
0
  6
CENTER
 10
357.989227
 20
572.528748
 11
386.357269
 21
572.528748
  0
ARC
  8
0
  6
CONTINUOUS
 10
372.842712
 20
572.528748
 40
7.500000
 50
-32.226799
 51
226.074890
  0
ARC
  8
0
  6
CONTINUOUS
 10
492.842926
 20
572.529419
 40
7.500000
 50
-46.078163
 51
212.232941
  0
LINE
  8
0
  6
CENTER
 10
372.842987
 20
560.727173
 11
372.842499
 21
584.603516
  0
LINE
  8
0
  6
CENTER
 10
479.832306
 20
572.528870
 11
505.410065
 21
572.528870
  0
LINE
  8
0
  6
CENTER
 10
492.842712
 20
560.727173
 11
492.842499
 21
584.603760
  0
LINE
  8
0
  6
CONTINUOUS
 10
475.623474
 20
575.529236
 11
390.062561
 21
575.529236
  0
LINE
  8
0
  6
CONTINUOUS
 10
493.842926
 20
568.529236
 11
484.843018
 21
568.529297
  0
ARC
  8
0
  6
CONTINUOUS
 10
493.842926
 20
561.529236
 40
7.000000
 50
0.000000
 51
90.000000
  0
ARC
  8
0
  6
CONTINUOUS
 10
507.842926
 20
561.529236
 40
7.000000
 50
180.000000
 51
270.000000
  0
LINE
  8
0
  6
CONTINUOUS
 10
371.842926
 20
568.529236
 11
380.843018
 21
568.529297
  0
ARC
  8
0
  6
CONTINUOUS
 10
371.842926
 20
561.529236
 40
7.000000
 50
90.000000
 51
180.000000
  0
ARC
  8
0
  6
CONTINUOUS
 10
357.842926
 20
561.529236
 40
7.000000
 50
-90.000000
 51
0.000000
  0
LINE
  8
0
  6
CONTINUOUS
 10
498.293457
 20
441.606171
 11
499.392365
 21
445.452240
  0
ARC
  8
0
  6
CONTINUOUS
 10
491.562805
 20
443.529205
 40
7.000000
 50
270.000000
 51
344.054596
  0
ARC
  8
0
  6
CONTINUOUS
 10
506.123016
 20
443.529205
 40
7.000000
 50
90.000000
 51
164.054611
  0
LINE
  8
0
  6
CONTINUOUS
 10
452.842712
 20
362.529419
 11
409.843018
 21
362.529419
  0
LINE
  8
0
  6
CONTINUOUS
 10
412.842712
 20
427.529419
 11
412.842712
 21
422.529419
  0
LINE
  8
0
  6
CONTINUOUS
 10
452.842712
 20
427.529419
 11
452.842712
 21
362.529419
  0
LINE
  8
0
  6
CONTINUOUS
 10
410.342712
 20
427.529419
 11
455.342712
 21
427.529419
  0
LINE
  8
0
  6
CONTINUOUS
 10
410.342712
 20
429.529419
 11
410.342712
 21
427.529419
  0
LINE
  8
0
  6
CONTINUOUS
 10
455.342712
 20
429.529419
 11
455.342712
 21
427.529419
  0
LINE
  8
0
  6
CONTINUOUS
 10
452.842712
 20
412.529541
 11
501.710907
 21
412.529480
  0
LINE
  8
0
  6
CONTINUOUS
 10
432.843018
 20
592.529541
 11
501.711304
 21
592.529419
  0
LINE
  8
0
  6
CONTINUOUS
 10
409.843018
 20
362.529419
 11
409.843018
 21
422.529419
  0
LINE
  8
0
  6
CONTINUOUS
 10
413.764038
 20
422.529419
 11
409.843018
 21
422.529419
  0
LINE
  8
0
  6
CONTINUOUS
 10
480.938293
 20
431.973663
 11
484.843018
 21
436.529205
  0
ARC
  8
0
  6
CONTINUOUS
 10
475.623474
 20
436.529205
 40
7.000000
 50
270.000000
 51
319.398712
  0
LINE
  8
0
  6
CONTINUOUS
 10
384.747772
 20
431.973663
 11
380.843018
 21
436.529205
  0
ARC
  8
0
  6
CONTINUOUS
 10
390.062561
 20
436.529205
 40
7.000000
 50
220.601288
 51
270.000000
  0
LINE
  8
0
  6
CONTINUOUS
 10
384.747772
 20
573.084839
 11
380.843018
 21
568.529297
  0
ARC
  8
0
  6
CONTINUOUS
 10
390.062561
 20
568.529297
 40
7.000000
 50
90.000000
 51
139.398712
  0
LINE
  8
0
  6
CONTINUOUS
 10
480.938293
 20
573.084839
 11
484.843018
 21
568.529297
  0
ARC
  8
0
  6
CONTINUOUS
 10
475.623474
 20
568.529297
 40
7.000000
 50
40.601295
 51
90.000000
  0
LINE
  8
0
  6
CONTINUOUS
 10
413.764038
 20
362.529419
 11
413.764038
 21
422.529419
  0
LINE
  8
0
  6
CENTER
 10
319.641785
 20
502.529419
 11
802.309998
 21
502.529419
  0
LINE
  8
0
  6
CONTINUOUS
 10
542.842529
 20
431.529419
 11
535.842529
 21
431.529419
  0
LINE
  8
0
  6
CONTINUOUS
 10
544.842529
 20
571.529419
 11
544.842529
 21
433.529419
  0
LINE
  8
0
  6
CONTINUOUS
 10
542.842529
 20
573.529419
 11
535.842896
 21
573.529419
  0
LINE
  8
0
  6
CONTINUOUS
 10
592.342529
 20
449.529419
 11
544.842529
 21
449.529419
  0
LINE
  8
0
  6
CONTINUOUS
 10
592.342529
 20
555.529419
 11
544.842529
 21
555.529419
  0
LINE
  8
0
  6
CONTINUOUS
 10
592.342529
 20
449.529419
 11
592.342529
 21
555.529419
  0
ARC
  8
0
  6
CONTINUOUS
 10
542.842529
 20
433.529419
 40
2.000000
 50
-90.000000
 51
0.000000
  0
ARC
  8
0
  6
CONTINUOUS
 10
542.842529
 20
571.529419
 40
2.000000
 50
0.000000
 51
90.000000
  0
ARC
  8
0
  6
CONTINUOUS
 10
545.627441
 20
502.529419
 40
20.000000
 50
-38.438709
 51
0.000000
  0
LINE
  8
0
  6
CONTINUOUS
 10
544.842529
 20
469.369415
 11
561.292908
 21
490.095886
  0
ARC
  8
0
  6
CONTINUOUS
 10
545.627441
 20
502.529419
 40
20.000000
 50
0.000000
 51
38.438709
  0
LINE
  8
0
  6
CONTINUOUS
 10
544.842529
 20
535.689453
 11
561.292908
 21
514.962952
  0
LINE
  8
0
  6
CONTINUOUS
 10
722.343018
 20
449.529419
 11
592.343018
 21
449.529419
  0
LINE
  8
0
  6
CONTINUOUS
 10
722.343018
 20
555.529419
 11
592.343018
 21
555.529419
  0
LINE
  8
0
  6
CONTINUOUS
 10
722.342407
 20
471.029449
 11
602.342407
 21
471.029449
  0
LINE
  8
0
  6
CONTINUOUS
 10
722.342407
 20
534.029419
 11
602.342407
 21
534.029419
  0
LINE
  8
0
  6
CONTINUOUS
 10
602.342407
 20
451.529419
 11
602.342407
 21
471.029449
  0
ARC
  8
0
  6
CONTINUOUS
 10
600.342407
 20
451.529419
 40
2.000000
 50
-90.000000
 51
0.000000
  0
ARC
  8
0
  6
CONTINUOUS
 10
600.342407
 20
553.529419
 40
2.000000
 50
0.000000
 51
90.000000
  0
LINE
  8
0
  6
CENTER
 10
432.842377
 20
269.428528
 11
432.842377
 21
1.223535
  0
LINE
  8
0
  6
CENTER
 10
503.957428
 20
177.845001
 11
361.362427
 21
177.845001
  0
LINE
  8
0
  6
CONTINUOUS
 10
522.842407
 20
12.845000
 11
342.842377
 21
12.845000
  0
LINE
  8
0
  6
CONTINUOUS
 10
522.842407
 20
32.845001
 11
342.842377
 21
32.845001
  0
LINE
  8
0
  6
CONTINUOUS
 10
464.656769
 20
255.345001
 11
401.027985
 21
255.345001
  0
LINE
  8
0
  6
CONTINUOUS
 10
342.842377
 20
211.177002
 11
342.842377
 21
12.845000
  0
LINE
  8
0
  6
CONTINUOUS
 10
522.842407
 20
211.177002
 11
522.842407
 21
12.845000
  0
LINE
  8
0
  6
CONTINUOUS
 10
535.842407
 20
195.345001
 11
527.842407
 21
195.345001
  0
LINE
  8
0
  6
CONTINUOUS
 10
535.842407
 20
53.345001
 11
527.842407
 21
53.345001
  0
LINE
  8
0
  6
CONTINUOUS
 10
395.243774
 20
253.502335
 11
347.057983
 21
219.334320
  0
LINE
  8
0
  6
CONTINUOUS
 10
518.626587
 20
219.334320
 11
470.440979
 21
253.502335
  0
ARC
  8
0
  6
CONTINUOUS
 10
352.842377
 20
211.176956
 40
10.000000
 50
125.339897
 51
180.000000
  0
ARC
  8
0
  6
CONTINUOUS
 10
401.027985
 20
245.345001
 40
10.000000
 50
90.000000
 51
125.339996
  0
ARC
  8
0
  6
CONTINUOUS
 10
464.656769
 20
245.345001
 40
10.000000
 50
54.659698
 51
90.000000
  0
ARC
  8
0
  6
CONTINUOUS
 10
512.842407
 20
211.177032
 40
10.000000
 50
0.000000
 51
54.659500
  0
ARC
  8
0
  6
CONTINUOUS
 10
527.842407
 20
200.345001
 40
5.000000
 50
180.000000
 51
270.000000
  0
ARC
  8
0
  6
CONTINUOUS
 10
527.842407
 20
48.344978
 40
5.000000
 50
90.000000
 51
180.000000
  0
LINE
  8
0
  6
CENTER
 10
372.842377
 20
39.933537
 11
372.842377
 21
6.358535
  0
LINE
  8
0
  6
CENTER
 10
492.842377
 20
38.748535
 11
492.842377
 21
6.358535
  0
LINE
  8
0
  6
DASHED
 10
380.342377
 20
32.845001
 11
380.342377
 21
12.845000
  0
LINE
  8
0
  6
DASHED
 10
365.342377
 20
32.845001
 11
365.342377
 21
12.845000
  0
LINE
  8
0
  6
DASHED
 10
485.342377
 20
32.845001
 11
485.342377
 21
12.845000
  0
LINE
  8
0
  6
DASHED
 10
500.342377
 20
32.845001
 11
500.342377
 21
12.845000
  0
LINE
  8
0
  6
CONTINUOUS
 10
356.842377
 20
30.159679
 11
356.842377
 21
12.845000
  0
LINE
  8
0
  6
CONTINUOUS
 10
508.842377
 20
30.159679
 11
508.842377
 21
12.845000
  0
LINE
  8
0
  6
CONTINUOUS
 10
399.084991
 20
37.845001
 11
466.599792
 21
37.845001
  0
LINE
  8
0
  6
CONTINUOUS
 10
467.842377
 20
36.708118
 11
467.842377
 21
33.845001
  0
LINE
  8
0
  6
CONTINUOUS
 10
397.842377
 20
36.708118
 11
397.842377
 21
33.845001
  0
LINE
  8
0
  6
CONTINUOUS
 10
396.963776
 20
36.966320
 11
394.306793
 21
34.309441
  0
LINE
  8
0
  6
CONTINUOUS
 10
468.720978
 20
36.966320
 11
471.377991
 21
34.309502
  0
ARC
  8
0
  6
CONTINUOUS
 10
474.913391
 20
37.845001
 40
5.000000
 50
-135.000107
 51
-90.000000
  0
ARC
  8
0
  6
CONTINUOUS
 10
390.771393
 20
37.845001
 40
5.000000
 50
-90.000000
 51
-45.000111
  0
ARC
  8
0
  6
CONTINUOUS
 10
466.599792
 20
34.845001
 40
3.000000
 50
44.999599
 51
90.000000
  0
ARC
  8
0
  6
CONTINUOUS
 10
399.084991
 20
34.845001
 40
3.000000
 50
90.000000
 51
134.999695
  0
ARC
  8
0
  6
CONTINUOUS
 10
468.842377
 20
33.845001
 40
1.000000
 50
180.000000
 51
270.000000
  0
ARC
  8
0
  6
CONTINUOUS
 10
396.842377
 20
33.845001
 40
1.000000
 50
-90.000000
 51
0.000000
  0
CIRCLE
  8
0
  6
CONTINUOUS
 10
432.842377
 20
177.845001
 40
46.000000
  0
ARC
  8
0
  6
CONTINUOUS
 10
432.842377
 20
177.845001
 40
52.000000
 50
12.522600
 51
167.477295
  0
ARC
  8
0
  6
CONTINUOUS
 10
432.842377
 20
177.845001
 40
48.000000
 50
-192.522705
 51
12.522580
  0
ARC
  8
0
  6
CONTINUOUS
 10
462.842377
 20
107.345001
 40
34.000000
 50
-90.000000
 51
12.522600
  0
ARC
  8
0
  6
CONTINUOUS
 10
462.842377
 20
107.345001
 40
38.000000
 50
-90.000000
 51
12.522600
  0
ARC
  8
0
  6
CONTINUOUS
 10
402.842377
 20
107.345001
 40
34.000000
 50
167.477295
 51
270.000000
  0
ARC
  8
0
  6
CONTINUOUS
 10
402.842377
 20
107.345001
 40
38.000000
 50
167.477295
 51
270.000000
  0
LINE
  8
0
  6
CONTINUOUS
 10
499.938385
 20
115.584366
 11
483.605377
 21
189.119904
  0
LINE
  8
0
  6
CONTINUOUS
 10
382.079376
 20
189.119995
 11
365.746368
 21
115.584427
  0
LINE
  8
0
  6
CONTINUOUS
 10
385.984192
 20
188.252686
 11
369.651184
 21
114.717117
  0
LINE
  8
0
  6
CONTINUOUS
 10
496.033569
 20
114.717064
 11
479.700378
 21
188.252625
  0
LINE
  8
0
  6
CONTINUOUS
 10
462.842377
 20
73.345001
 11
402.842377
 21
73.345001
  0
LINE
  8
0
  6
CONTINUOUS
 10
462.842377
 20
69.345001
 11
402.842377
 21
69.345001
  0
ARC
  8
0
  6
CONTINUOUS
 10
313.160797
 20
124.345001
 40
215.181595
 50
-12.982100
 51
12.982100
  0
LINE
  8
0
  6
CONTINUOUS
 10
420.615387
 20
91.345001
 11
415.674988
 21
91.345001
  0
LINE
  8
0
  6
CONTINUOUS
 10
423.342377
 20
99.620399
 11
423.342377
 21
91.345001
  0
LINE
  8
0
  6
CONTINUOUS
 10
428.092377
 20
102.626244
 11
428.092377
 21
105.595001
  0
LINE
  8
0
  6
CONTINUOUS
 10
437.592377
 20
102.626244
 11
437.592377
 21
105.595001
  0
LINE
  8
0
  6
CONTINUOUS
 10
431.914581
 20
103.850861
 11
431.914581
 21
92.903603
  0
LINE
  8
0
  6
CONTINUOUS
 10
433.695984
 20
103.850861
 11
433.695984
 21
92.903603
  0
LINE
  8
0
  6
CONTINUOUS
 10
443.047394
 20
103.850861
 11
443.047394
 21
92.829376
  0
LINE
  8
0
  6
CONTINUOUS
 10
444.680389
 20
98.006142
 11
444.680389
 21
92.829376
  0
LINE
  8
0
  6
CONTINUOUS
 10
421.088379
 20
103.702423
 11
416.510590
 21
103.702423
  0
LINE
  8
0
  6
CONTINUOUS
 10
416.510590
 20
103.702423
 11
415.437988
 21
102.372421
  0
LINE
  8
0
  6
CONTINUOUS
 10
415.566986
 20
105.595001
 11
413.842377
 21
103.386543
  0
LINE
  8
0
  6
CONTINUOUS
 10
415.437988
 20
94.162842
 11
416.527771
 21
93.014923
  0
LINE
  8
0
  6
CONTINUOUS
 10
413.842377
 20
93.194122
 11
415.674988
 21
91.345001
  0
LINE
  8
0
  6
CONTINUOUS
 10
413.842377
 20
103.386543
 11
413.842377
 21
93.194122
  0
LINE
  8
0
  6
CONTINUOUS
 10
415.437988
 20
102.372421
 11
415.437988
 21
94.162842
  0
LINE
  8
0
  6
CONTINUOUS
 10
421.969391
 20
102.850861
 11
421.070374
 21
103.702423
  0
LINE
  8
0
  6
CONTINUOUS
 10
421.954987
 20
105.595001
 11
423.342377
 21
104.055420
  0
LINE
  8
0
  6
CONTINUOUS
 10
421.969391
 20
102.626244
 11
423.342377
 21
102.626244
  0
LINE
  8
0
  6
CONTINUOUS
 10
415.566986
 20
105.595001
 11
421.954987
 21
105.595001
  0
LINE
  8
0
  6
CONTINUOUS
 10
419.482971
 20
99.620399
 11
423.342377
 21
99.620399
  0
LINE
  8
0
  6
CONTINUOUS
 10
421.969391
 20
98.061798
 11
419.482971
 21
98.061798
  0
LINE
  8
0
  6
CONTINUOUS
 10
419.000580
 20
93.014923
 11
416.527771
 21
93.014923
  0
LINE
  8
0
  6
CONTINUOUS
 10
421.969391
 20
96.577423
 11
421.969391
 21
97.764923
  0
ARC
  8
0
  6
CONTINUOUS
 10
419.000580
 20
95.983658
 40
2.968750
 50
-89.999786
 51
0.000109
  0
LINE
  8
0
  6
CONTINUOUS
 10
421.969391
 20
92.480919
 11
421.969391
 21
91.345001
  0
LINE
  8
0
  6
CONTINUOUS
 10
423.342377
 20
104.055420
 11
423.342377
 21
102.626244
  0
LINE
  8
0
  6
CONTINUOUS
 10
421.969391
 20
98.061798
 11
421.969391
 21
95.983658
  0
LINE
  8
0
  6
CONTINUOUS
 10
419.482971
 20
99.620399
 11
419.482971
 21
98.061798
  0
LINE
  8
0
  6
CONTINUOUS
 10
421.969391
 20
91.345001
 11
423.342377
 21
91.345001
  0
LINE
  8
0
  6
CONTINUOUS
 10
421.969391
 20
92.480919
 11
420.615387
 21
91.345001
  0
LINE
  8
0
  6
CONTINUOUS
 10
433.695984
 20
92.903603
 11
434.289581
 21
92.903603
  0
LINE
  8
0
  6
CONTINUOUS
 10
431.209595
 20
92.903603
 11
431.209595
 21
91.345001
  0
LINE
  8
0
  6
CONTINUOUS
 10
434.289581
 20
92.903603
 11
434.289581
 21
91.345001
  0
LINE
  8
0
  6
CONTINUOUS
 10
436.601379
 20
102.626244
 11
437.592377
 21
102.626244
  0
LINE
  8
0
  6
CONTINUOUS
 10
428.092377
 20
102.626244
 11
429.146973
 21
102.626244
  0
LINE
  8
0
  6
CONTINUOUS
 10
428.092377
 20
105.595001
 11
437.592377
 21
105.595001
  0
LINE
  8
0
  6
CONTINUOUS
 10
431.209595
 20
91.345001
 11
434.289581
 21
91.345001
  0
LINE
  8
0
  6
CONTINUOUS
 10
431.209595
 20
92.903603
 11
431.914581
 21
92.903603
  0
ARC
  8
0
  6
CONTINUOUS
 10
448.038574
 20
101.791283
 40
3.803712
 50
-73.981873
 51
90.003510
  0
ARC
  8
0
  6
CONTINUOUS
 10
448.038574
 20
101.791283
 40
2.320524
 50
-82.585274
 51
62.411850
  0
LINE
  8
0
  6
CONTINUOUS
 10
442.342377
 20
105.595001
 11
448.038574
 21
105.595001
  0
LINE
  8
0
  6
CONTINUOUS
 10
448.338196
 20
99.490158
 11
444.680389
 21
99.490158
  0
LINE
  8
0
  6
CONTINUOUS
 10
442.342377
 20
105.595001
 11
442.342377
 21
103.850861
  0
LINE
  8
0
  6
CONTINUOUS
 10
444.680389
 20
103.850861
 11
444.680389
 21
99.490158
  0
LINE
  8
0
  6
CONTINUOUS
 10
449.088196
 20
98.135262
 11
451.442596
 21
92.829376
  0
LINE
  8
0
  6
CONTINUOUS
 10
447.720978
 20
98.006142
 11
449.948792
 21
92.829376
  0
LINE
  8
0
  6
CONTINUOUS
 10
442.342377
 20
92.829376
 11
443.047394
 21
92.829376
  0
LINE
  8
0
  6
CONTINUOUS
 10
444.680389
 20
92.829376
 11
445.329773
 21
92.829376
  0
LINE
  8
0
  6
CONTINUOUS
 10
445.329773
 20
91.345001
 11
442.342377
 21
91.345001
  0
LINE
  8
0
  6
CONTINUOUS
 10
449.652985
 20
92.829376
 11
449.948792
 21
92.829376
  0
LINE
  8
0
  6
CONTINUOUS
 10
451.442596
 20
92.829376
 11
451.842377
 21
92.829376
  0
LINE
  8
0
  6
CONTINUOUS
 10
449.652985
 20
91.345001
 11
451.842377
 21
91.345001
  0
LINE
  8
0
  6
CONTINUOUS
 10
451.842377
 20
92.829376
 11
451.842377
 21
91.345001
  0
LINE
  8
0
  6
CONTINUOUS
 10
449.652985
 20
92.829376
 11
449.652985
 21
91.345001
  0
LINE
  8
0
  6
CONTINUOUS
 10
445.329773
 20
92.829376
 11
445.329773
 21
91.345001
  0
LINE
  8
0
  6
CONTINUOUS
 10
442.342377
 20
92.829376
 11
442.342377
 21
91.345001
  0
LINE
  8
0
  6
CONTINUOUS
 10
429.657196
 20
103.850861
 11
429.146973
 21
102.626244
  0
LINE
  8
0
  6
CONTINUOUS
 10
436.171173
 20
103.850861
 11
436.601379
 21
102.626244
  0
LINE
  8
0
  6
CONTINUOUS
 10
433.695984
 20
103.850861
 11
436.171173
 21
103.850861
  0
LINE
  8
0
  6
CONTINUOUS
 10
431.914581
 20
103.850861
 11
429.657196
 21
103.850861
  0
LINE
  8
0
  6
CONTINUOUS
 10
444.680389
 20
98.006142
 11
447.720978
 21
98.006142
  0
LINE
  8
0
  6
CONTINUOUS
 10
442.342377
 20
103.850861
 11
443.047394
 21
103.850861
  0
LINE
  8
0
  6
CONTINUOUS
 10
444.680389
 20
103.850861
 11
449.113373
 21
103.847977
  0
LINE
  8
0
  6
CONTINUOUS
 10
421.969391
 20
102.850861
 11
421.969391
 21
102.626244
  0
LINE
  8
0
  6
CONTINUOUS
 10
517.842407
 20
187.771423
 11
517.842407
 21
102.918602
  0
LINE
  8
0
  6
CONTINUOUS
 10
347.842377
 20
187.771393
 11
347.842377
 21
102.918602
  0
ARC
  8
0
  6
CONTINUOUS
 10
432.842377
 20
145.345001
 40
105.000000
 50
50.655579
 51
129.521500
  0
ARC
  8
0
  6
CONTINUOUS
 10
432.842377
 20
145.345001
 40
105.000000
 50
230.478897
 51
309.521606
  0
ARC
  8
0
  6
CONTINUOUS
 10
467.842377
 20
187.771423
 40
50.000000
 50
0.000000
 51
51.150589
  0
ARC
  8
0
  6
CONTINUOUS
 10
397.842377
 20
187.771393
 40
50.000000
 50
129.521698
 51
180.000000
  0
ARC
  8
0
  6
CONTINUOUS
 10
397.842377
 20
102.918602
 40
50.000000
 50
180.000000
 51
230.479202
  0
ARC
  8
0
  6
CONTINUOUS
 10
467.842377
 20
102.918602
 40
50.000000
 50
-50.478550
 51
0.000000
  0
LINE
  8
0
  6
CONTINUOUS
 10
417.842377
 20
183.845001
 11
417.842377
 21
171.845001
  0
LINE
  8
0
  6
CONTINUOUS
 10
409.842377
 20
183.845001
 11
409.842377
 21
171.845001
  0
LINE
  8
0
  6
CONTINUOUS
 10
409.842377
 20
183.845001
 11
417.842377
 21
183.845001
  0
LINE
  8
0
  6
CONTINUOUS
 10
409.842377
 20
171.845001
 11
417.842377
 21
171.845001
  0
ARC
  8
0
  6
CONTINUOUS
 10
432.842377
 20
177.845001
 40
20.000000
 50
-162.542404
 51
162.542404
  0
LINE
  8
0
  6
CONTINUOUS
 10
730.842407
 20
449.529449
 11
722.342407
 21
449.529449
  0
LINE
  8
0
  6
CONTINUOUS
 10
730.842407
 20
555.529419
 11
722.342407
 21
555.529419
  0
LINE
  8
0
  6
CONTINUOUS
 10
722.342407
 20
471.029419
 11
730.842407
 21
471.029419
  0
LINE
  8
0
  6
CONTINUOUS
 10
722.342407
 20
534.029419
 11
730.842407
 21
534.029419
  0
LINE
  8
0
  6
CONTINUOUS
 10
722.342407
 20
555.529419
 11
722.342407
 21
527.529480
  0
LINE
  8
0
  6
CONTINUOUS
 10
722.342407
 20
477.529449
 11
722.342407
 21
449.529449
  0
LINE
  8
0
  6
CONTINUOUS
 10
730.842407
 20
447.529419
 11
730.842407
 21
479.029510
  0
LINE
  8
0
  6
CONTINUOUS
 10
769.842407
 20
447.529419
 11
730.842407
 21
447.529419
  0
LINE
  8
0
  6
CONTINUOUS
 10
769.842407
 20
557.529419
 11
730.842407
 21
557.529419
  0
LINE
  8
0
  6
CONTINUOUS
 10
779.842407
 20
547.529419
 11
779.842407
 21
457.529419
  0
LINE
  8
0
  6
CONTINUOUS
 10
774.842407
 20
472.029419
 11
730.842407
 21
472.029419
  0
LINE
  8
0
  6
CONTINUOUS
 10
774.842407
 20
533.029419
 11
730.842407
 21
533.029419
  0
ARC
  8
0
  6
CONTINUOUS
 10
769.842346
 20
457.529419
 40
10.000000
 50
-90.000000
 51
0.000000
  0
ARC
  8
0
  6
CONTINUOUS
 10
769.842407
 20
547.529419
 40
10.000000
 50
0.000000
 51
90.000000
  0
LINE
  8
0
  6
CONTINUOUS
 10
730.842407
 20
164.345001
 11
730.842407
 21
54.345001
  0
LINE
  8
0
  6
CONTINUOUS
 10
730.842407
 20
162.345001
 11
722.342407
 21
162.345001
  0
LINE
  8
0
  6
CONTINUOUS
 10
730.842407
 20
56.345001
 11
722.342407
 21
56.345001
  0
LINE
  8
0
  6
CONTINUOUS
 10
730.842407
 20
151.907593
 11
722.342407
 21
151.907593
  0
LINE
  8
0
  6
CONTINUOUS
 10
730.842407
 20
66.660873
 11
722.342407
 21
66.660873
  0
LINE
  8
0
  6
CONTINUOUS
 10
769.842407
 20
164.345001
 11
730.842407
 21
164.345001
  0
LINE
  8
0
  6
CONTINUOUS
 10
769.842407
 20
54.345001
 11
730.842407
 21
54.345001
  0
LINE
  8
0
  6
CONTINUOUS
 10
779.842407
 20
64.345001
 11
779.842407
 21
154.345001
  0
LINE
  8
0
  6
CONTINUOUS
 10
774.842407
 20
139.845001
 11
730.842407
 21
139.845001
  0
LINE
  8
0
  6
CONTINUOUS
 10
774.842407
 20
78.845001
 11
730.842407
 21
78.845001
  0
ARC
  8
0
  6
CONTINUOUS
 10
769.842285
 20
154.345001
 40
10.000000
 50
0.000000
 51
90.000000
  0
ARC
  8
0
  6
CONTINUOUS
 10
769.842407
 20
64.345001
 40
10.000000
 50
-90.000000
 51
0.000000
  0
LINE
  8
0
  6
CONTINUOUS
 10
722.342407
 20
56.345001
 11
722.342407
 21
162.345001
  0
LINE
  8
0
  6
CONTINUOUS
 10
730.842407
 20
526.029419
 11
730.842407
 21
557.529419
  0
LINE
  8
0
  6
CONTINUOUS
 10
731.342407
 20
525.529419
 11
731.342407
 21
479.529449
  0
LINE
  8
0
  6
CONTINUOUS
 10
729.342407
 20
477.529449
 11
731.342407
 21
479.529449
  0
LINE
  8
0
  6
CONTINUOUS
 10
729.342407
 20
477.529449
 11
683.342407
 21
477.529449
  0
LINE
  8
0
  6
CONTINUOUS
 10
688.842407
 20
482.029449
 11
688.842407
 21
477.529449
  0
ARC
  8
0
  6
CONTINUOUS
 10
685.842407
 20
482.029449
 40
3.000000
 50
0.000000
 51
90.000000
  0
LINE
  8
0
  6
CONTINUOUS
 10
685.842407
 20
485.029449
 11
681.342407
 21
485.029449
  0
CIRCLE
  8
0
  6
CONTINUOUS
 10
684.842407
 20
481.029449
 40
2.250000
  0
LINE
  8
0
  6
CONTINUOUS
 10
681.342407
 20
525.529419
 11
681.342407
 21
479.529449
  0
LINE
  8
0
  6
CONTINUOUS
 10
683.342407
 20
477.529449
 11
681.342407
 21
479.529449
  0
LINE
  8
0
  6
CONTINUOUS
 10
683.342407
 20
527.529419
 11
681.342407
 21
525.529419
  0
LINE
  8
0
  6
CONTINUOUS
 10
683.342407
 20
527.529419
 11
729.342407
 21
527.529419
  0
LINE
  8
0
  6
CONTINUOUS
 10
731.342407
 20
525.529419
 11
729.342407
 21
527.529419
  0
LINE
  8
0
  6
CONTINUOUS
 10
726.842407
 20
520.029419
 11
731.342346
 21
520.029419
  0
CIRCLE
  8
0
  6
CONTINUOUS
 10
727.842407
 20
524.029419
 40
2.250000
  0
ARC
  8
0
  6
CONTINUOUS
 10
726.842407
 20
523.029419
 40
3.000000
 50
180.000000
 51
270.000000
  0
LINE
  8
0
  6
CONTINUOUS
 10
723.842407
 20
523.029419
 11
723.842407
 21
527.529419
  0
LINE
  8
0
  6
CENTER
 10
706.342407
 20
534.995239
 11
706.342407
 21
470.863190
  0
LINE
  8
0
  6
CONTINUOUS
 10
730.342346
 20
520.029419
 11
730.342346
 21
485.029419
  0
LINE
  8
0
  6
CONTINUOUS
 10
688.842407
 20
478.529419
 11
723.842346
 21
478.529419
  0
LINE
  8
0
  6
CONTINUOUS
 10
682.342407
 20
485.029419
 11
682.342407
 21
520.029419
  0
LINE
  8
0
  6
CONTINUOUS
 10
723.842407
 20
526.529419
 11
688.842346
 21
526.529419
  0
ARC
  8
0
  6
CONTINUOUS
 10
726.842346
 20
482.029419
 40
3.000000
 50
90.000000
 51
180.000000
  0
LINE
  8
0
  6
CONTINUOUS
 10
723.842346
 20
482.029419
 11
723.842346
 21
477.529449
  0
CIRCLE
  8
0
  6
CONTINUOUS
 10
727.842346
 20
481.029419
 40
2.250000
  0
LINE
  8
0
  6
CONTINUOUS
 10
726.842346
 20
485.029419
 11
731.342346
 21
485.029419
  0
CIRCLE
  8
0
  6
CONTINUOUS
 10
684.842346
 20
524.029419
 40
2.250000
  0
LINE
  8
0
  6
CONTINUOUS
 10
688.842346
 20
523.029419
 11
688.842346
 21
527.529419
  0
ARC
  8
0
  6
CONTINUOUS
 10
685.842346
 20
523.029419
 40
3.000000
 50
-90.000000
 51
0.000000
  0
LINE
  8
0
  6
CONTINUOUS
 10
685.842346
 20
520.029419
 11
681.342346
 21
520.029419
  0
LINE
  8
0
  6
CONTINUOUS
 10
729.842407
 20
163.845001
 11
683.342407
 21
163.845001
  0
LINE
  8
0
  6
CONTINUOUS
 10
681.342407
 20
207.845001
 11
681.342407
 21
165.845001
  0
LINE
  8
0
  6
CONTINUOUS
 10
731.342407
 20
207.845001
 11
731.342407
 21
165.845001
  0
LINE
  8
0
  6
CONTINUOUS
 10
731.342407
 20
175.845001
 11
681.342407
 21
175.845001
  0
LINE
  8
0
  6
CONTINUOUS
 10
683.342407
 20
163.845001
 11
681.342407
 21
165.845001
  0
LINE
  8
0
  6
CONTINUOUS
 10
731.342407
 20
165.845001
 11
729.342407
 21
163.845001
  0
LINE
  8
0
  6
CONTINUOUS
 10
731.342407
 20
165.845001
 11
681.342407
 21
165.845001
  0
LINE
  8
0
  6
CONTINUOUS
 10
731.342407
 20
176.845001
 11
681.342407
 21
176.845001
  0
LINE
  8
0
  6
CONTINUOUS
 10
730.342407
 20
208.845001
 11
682.342407
 21
208.845001
  0
LINE
  8
0
  6
CONTINUOUS
 10
682.342407
 20
208.845001
 11
681.342407
 21
207.845001
  0
LINE
  8
0
  6
CONTINUOUS
 10
730.342407
 20
208.845001
 11
731.342407
 21
207.845001
  0
LINE
  8
0
  6
CONTINUOUS
 10
731.342407
 20
207.845001
 11
681.342407
 21
207.845001
  0
LINE
  8
0
  6
CENTER
 10
733.717407
 20
191.845001
 11
729.092407
 21
191.845001
  0
LINE
  8
0
  6
CONTINUOUS
 10
729.842407
 20
163.845001
 11
729.842407
 21
162.345001
  0
LINE
  8
0
  6
CONTINUOUS
 10
683.842407
 20
163.845001
 11
683.842407
 21
162.345001
  0
LINE
  8
0
  6
CONTINUOUS
 10
732.217407
 20
202.345001
 11
730.217407
 21
202.345001
  0
LINE
  8
0
  6
CONTINUOUS
 10
732.217407
 20
181.345001
 11
730.217407
 21
181.345001
  0
LINE
  8
0
  6
CENTER
 10
706.342407
 20
154.429382
 11
706.342407
 21
215.764374
  0
LINE
  8
0
  6
CONTINUOUS
 10
602.342407
 20
534.029419
 11
602.342407
 21
553.529419
  0
TEXT
  8
0
 10
-2.000000
 20
-3.000000
 40
4.000000
 41
1.000000
  1
HLM-40L-1200~1800-S90WK
 50
0.000000
  0
ENDSEC
  0
EOF
