  0
SECTION
  2
HEADER
  9
$CLAYER
  8
1
  9
$LTSCALE
 40
3.0
  0
ENDSEC
  0
SECTION
  2
TABLES
  0
TABLE
  2
LTYPE
 70
     4
  0
LTYPE
  2
CONTINUOUS
  3
solid line
 70
    64
 72
    65
 73
     0
 40
0.0
  0
LTYPE
  2
DASHED
  3
__ __ __ __ __ __ __ __ __ __ __ __ __ __ __
 70
    64
 72
    65
 73
     2
 40
0.75
 49
0.5
 49
-0.25
  0
LTYPE
  2
CENTER
  3
____ _ ____ _ ____ _ ____ _ ____ _ ____ _ ____
 70
    64
 72
    65
 73
     4
 40
2.0
 49
1.25
 49
-0.25
 49
0.25
 49
-0.25
  0
LTYPE
  2
PHANTOM
  3
_____ _ _ _____ _ _ _____ _ _ _____ _ _ ____
 70
    64
 72
    65
 73
     6
 40
2.5
 49
1.25
 49
-0.25
 49
0.25
 49
-0.25
 49
0.25
 49
-0.25
  0
ENDTAB
  0
TABLE
  2
LAYER
 70
     1
  0
LAYER
  2
0
 70
    64
 62
     7
  6
CONTINUOUS
  0
ENDTAB
  0
TABLE
  2
STYLE
 70
     1
  0
STYLE
  2
STANDARD
 70
     0
 40
0.000000
 41
1.000000
 50
0.000000
 71
     0
 42
3.000000
  3
txt
  4
BIGFONT
  0
ENDTAB
  0
ENDSEC
  0
SECTION
  2
BLOCKS
  0
ENDSEC
  0
SECTION
  2
ENTITIES
  0
LINE
  8
0
  6
CONTINUOUS
 10
552.517395
 20
54.117500
 11
552.517395
 21
196.117493
  0
LINE
  8
0
  6
CENTER
 10
644.912476
 20
125.117500
 11
506.027374
 21
125.117500
  0
LINE
  8
0
  6
CONTINUOUS
 10
739.017395
 20
163.117493
 11
609.017395
 21
163.117493
  0
LINE
  8
0
  6
CONTINUOUS
 10
739.017395
 20
57.117500
 11
609.017395
 21
57.117500
  0
LINE
  8
0
  6
CONTINUOUS
 10
739.017395
 20
152.740845
 11
620.355652
 21
152.740845
  0
LINE
  8
0
  6
CONTINUOUS
 10
739.017395
 20
67.494141
 11
620.355652
 21
67.494141
  0
LINE
  8
0
  6
CONTINUOUS
 10
619.017395
 20
161.117493
 11
619.017395
 21
59.117481
  0
ARC
  8
0
  6
CONTINUOUS
 10
617.017395
 20
161.117523
 40
2.000000
 50
0.000000
 51
90.000000
  0
ARC
  8
0
  6
CONTINUOUS
 10
617.017395
 20
59.117500
 40
2.000000
 50
-90.000000
 51
0.000000
  0
LINE
  8
0
  6
CENTER
 10
96.625702
 20
-2.892500
 11
96.625702
 21
269.262512
  0
LINE
  8
0
  6
CENTER
 10
-4.176682
 20
125.117500
 11
192.533325
 21
125.117500
  0
LINE
  8
0
  6
CENTER
 10
3.723318
 20
178.617493
 11
254.062500
 21
178.617493
  0
LINE
  8
0
  6
CENTER
 10
26.625700
 20
45.297501
 11
26.625700
 21
6.587500
  0
LINE
  8
0
  6
CENTER
 10
166.625702
 20
42.532501
 11
166.625702
 21
5.797500
  0
LINE
  8
0
  6
DASHED
 10
159.125702
 20
33.617500
 11
159.125702
 21
13.617500
  0
LINE
  8
0
  6
DASHED
 10
174.125702
 20
33.617500
 11
174.125702
 21
13.617500
  0
LINE
  8
0
  6
DASHED
 10
34.125702
 20
33.617500
 11
34.125702
 21
13.617500
  0
LINE
  8
0
  6
DASHED
 10
19.125700
 20
33.617500
 11
19.125700
 21
13.617500
  0
LINE
  8
0
  6
CONTINUOUS
 10
6.625700
 20
13.617500
 11
61.625702
 21
13.617500
  0
LINE
  8
0
  6
CONTINUOUS
 10
131.625702
 20
13.617500
 11
186.625702
 21
13.617500
  0
LINE
  8
0
  6
CONTINUOUS
 10
153.625702
 20
33.617500
 11
183.625702
 21
33.617500
  0
LINE
  8
0
  6
CONTINUOUS
 10
9.625700
 20
33.617500
 11
39.625702
 21
33.617500
  0
LINE
  8
0
  6
CONTINUOUS
 10
6.625700
 20
30.986380
 11
6.625700
 21
13.617520
  0
LINE
  8
0
  6
CONTINUOUS
 10
186.625702
 20
30.986380
 11
186.625702
 21
13.617500
  0
LINE
  8
0
  6
CONTINUOUS
 10
148.625702
 20
235.897598
 11
148.625702
 21
251.279266
  0
LINE
  8
0
  6
CONTINUOUS
 10
44.625702
 20
251.278885
 11
44.625702
 21
13.617500
  0
LINE
  8
0
  6
CONTINUOUS
 10
63.125702
 20
15.117500
 11
130.125702
 21
15.117500
  0
LINE
  8
0
  6
CONTINUOUS
 10
49.070301
 20
217.117493
 11
144.857498
 21
217.117493
  0
LINE
  8
0
  6
CONTINUOUS
 10
144.695496
 20
255.278641
 11
96.625702
 21
256.117523
  0
LINE
  8
0
  6
CONTINUOUS
 10
48.555901
 20
255.278275
 11
96.625702
 21
256.117523
  0
LINE
  8
0
  6
CONTINUOUS
 10
23.625700
 20
137.897614
 11
23.625700
 21
219.337387
  0
LINE
  8
0
  6
CONTINUOUS
 10
169.625702
 20
137.897614
 11
169.625702
 21
219.337387
  0
LINE
  8
0
  6
CONTINUOUS
 10
30.625700
 20
79.397598
 11
30.625700
 21
182.757782
  0
LINE
  8
0
  6
CONTINUOUS
 10
162.625702
 20
79.397621
 11
162.625702
 21
182.757782
  0
ARC
  8
0
  6
CONTINUOUS
 10
48.625702
 20
251.278900
 40
4.000000
 50
91.000580
 51
180.000000
  0
ARC
  8
0
  6
CONTINUOUS
 10
144.625702
 20
251.279236
 40
4.000000
 50
0.000000
 51
89.000359
  0
LINE
  8
0
  6
CONTINUOUS
 10
28.702700
 20
226.068054
 11
39.548698
 21
229.166946
  0
LINE
  8
0
  6
CONTINUOUS
 10
153.702698
 20
229.166946
 11
164.548706
 21
226.068054
  0
LINE
  8
0
  6
CONTINUOUS
 10
35.702702
 20
72.666939
 11
39.548698
 21
71.568062
  0
LINE
  8
0
  6
CONTINUOUS
 10
157.548706
 20
72.666939
 11
153.702698
 21
71.568062
  0
LINE
  8
0
  6
CONTINUOUS
 10
184.017105
 20
33.960739
 11
151.234299
 21
38.274261
  0
LINE
  8
0
  6
CONTINUOUS
 10
9.234300
 20
33.960739
 11
42.017101
 21
38.274281
  0
ARC
  8
0
  6
CONTINUOUS
 10
30.625700
 20
219.337418
 40
7.000000
 50
105.945801
 51
180.000000
  0
ARC
  8
0
  6
CONTINUOUS
 10
30.625700
 20
137.897659
 40
7.000000
 50
180.000000
 51
240.000198
  0
ARC
  8
0
  6
CONTINUOUS
 10
162.625702
 20
219.337357
 40
7.000000
 50
0.000000
 51
74.054764
  0
ARC
  8
0
  6
CONTINUOUS
 10
162.625702
 20
137.897598
 40
7.000000
 50
-59.999882
 51
0.000000
  0
ARC
  8
0
  6
CONTINUOUS
 10
37.625702
 20
79.397659
 40
7.000000
 50
180.000000
 51
254.054901
  0
ARC
  8
0
  6
CONTINUOUS
 10
155.625702
 20
79.397598
 40
7.000000
 50
-74.054497
 51
0.000000
  0
LINE
  8
0
  6
CONTINUOUS
 10
148.625702
 20
38.617500
 11
148.625702
 21
235.897598
  0
ARC
  8
0
  6
CONTINUOUS
 10
155.625702
 20
235.897659
 40
7.000000
 50
180.000000
 51
254.054901
  0
ARC
  8
0
  6
CONTINUOUS
 10
155.625702
 20
64.837440
 40
7.000000
 50
105.945801
 51
180.000000
  0
ARC
  8
0
  6
CONTINUOUS
 10
169.625702
 20
125.773247
 40
7.000000
 50
120.000099
 51
180.000000
  0
ARC
  8
0
  6
CONTINUOUS
 10
151.625702
 20
41.248638
 40
3.000000
 50
180.000000
 51
262.504395
  0
ARC
  8
0
  6
CONTINUOUS
 10
183.625702
 20
30.617500
 40
3.000000
 50
0.000000
 51
90.000000
  0
ARC
  8
0
  6
CONTINUOUS
 10
183.625702
 20
30.986361
 40
3.000000
 50
0.000000
 51
82.504204
  0
LINE
  8
0
  6
CONTINUOUS
 10
148.625702
 20
38.617500
 11
148.625702
 21
13.617500
  0
ARC
  8
0
  6
CONTINUOUS
 10
153.625702
 20
38.617519
 40
5.000000
 50
180.000000
 51
270.000000
  0
ARC
  8
0
  6
CONTINUOUS
 10
41.625702
 20
41.248638
 40
3.000000
 50
-82.503883
 51
0.000000
  0
ARC
  8
0
  6
CONTINUOUS
 10
39.625702
 20
38.617500
 40
5.000000
 50
-90.000000
 51
0.000000
  0
ARC
  8
0
  6
CONTINUOUS
 10
9.625700
 20
30.617519
 40
3.000000
 50
90.000000
 51
180.000000
  0
ARC
  8
0
  6
CONTINUOUS
 10
9.625700
 20
30.986401
 40
3.000000
 50
97.496292
 51
180.000000
  0
LINE
  8
0
  6
CONTINUOUS
 10
61.625702
 20
13.617500
 11
63.125702
 21
15.117500
  0
LINE
  8
0
  6
CONTINUOUS
 10
131.625702
 20
13.617500
 11
130.125702
 21
15.117500
  0
ARC
  8
0
  6
CONTINUOUS
 10
37.625702
 20
64.837357
 40
7.000000
 50
0.000000
 51
74.054688
  0
ARC
  8
0
  6
CONTINUOUS
 10
23.625700
 20
125.773277
 40
7.000000
 50
0.000000
 51
60.000092
  0
ARC
  8
0
  6
CONTINUOUS
 10
37.625702
 20
235.897598
 40
7.000000
 50
-74.054443
 51
0.000000
  0
ARC
  8
0
  6
CONTINUOUS
 10
96.625702
 20
125.117500
 40
71.000000
 50
-21.630920
 51
6.068256
  0
ARC
  8
0
  6
CONTINUOUS
 10
96.625702
 20
125.117500
 40
71.000000
 50
173.931793
 51
201.630905
  0
LINE
  8
0
  6
CONTINUOUS
 10
149.625702
 20
68.442978
 11
149.625702
 21
62.117500
  0
LINE
  8
0
  6
CONTINUOUS
 10
43.625702
 20
62.117500
 11
43.625702
 21
68.306503
  0
ARC
  8
0
  6
CONTINUOUS
 10
144.625702
 20
62.117500
 40
5.000000
 50
-36.869869
 51
0.000000
  0
ARC
  8
0
  6
CONTINUOUS
 10
48.625702
 20
62.117500
 40
5.000000
 50
180.000000
 51
216.865204
  0
LINE
  8
0
  6
CONTINUOUS
 10
236.625702
 20
158.617493
 11
236.625702
 21
198.617493
  0
LINE
  8
0
  6
CONTINUOUS
 10
171.625702
 20
198.617493
 11
236.625702
 21
198.617493
  0
LINE
  8
0
  6
CONTINUOUS
 10
171.625702
 20
158.617493
 11
236.625702
 21
158.617493
  0
LINE
  8
0
  6
CONTINUOUS
 10
171.625702
 20
201.117493
 11
171.625702
 21
156.117493
  0
LINE
  8
0
  6
CONTINUOUS
 10
169.625702
 20
201.117493
 11
171.625702
 21
201.117493
  0
LINE
  8
0
  6
CONTINUOUS
 10
169.625702
 20
156.117493
 11
171.625702
 21
156.117493
  0
ARC
  8
0
  6
CONTINUOUS
 10
182.625702
 20
178.617493
 40
6.000000
 50
90.000000
 51
270.000000
  0
LINE
  8
0
  6
CONTINUOUS
 10
182.625702
 20
184.617493
 11
236.625702
 21
184.617493
  0
LINE
  8
0
  6
CONTINUOUS
 10
182.625702
 20
172.617493
 11
236.625702
 21
172.617493
  0
LINE
  8
0
  6
CONTINUOUS
 10
561.517395
 20
79.873497
 11
561.517395
 21
194.117493
  0
LINE
  8
0
  6
CENTER
 10
812.387512
 20
110.117500
 11
506.027374
 21
110.117500
  0
LINE
  8
0
  6
CONTINUOUS
 10
559.517395
 20
196.117493
 11
552.517395
 21
196.117493
  0
LINE
  8
0
  6
CONTINUOUS
 10
559.517395
 20
54.117519
 11
552.517395
 21
54.117519
  0
LINE
  8
0
  6
CONTINUOUS
 10
580.517395
 20
57.117500
 11
609.017395
 21
57.117500
  0
LINE
  8
0
  6
CONTINUOUS
 10
609.017395
 20
163.117493
 11
564.517395
 21
163.117493
  0
LINE
  8
0
  6
CONTINUOUS
 10
563.017395
 20
174.251480
 11
581.605652
 21
163.519424
  0
ARC
  8
0
  6
CONTINUOUS
 10
559.517334
 20
194.117493
 40
2.000000
 50
0.000000
 51
90.000000
  0
ARC
  8
0
  6
CONTINUOUS
 10
559.517395
 20
56.117500
 40
2.000000
 50
-90.000000
 51
-14.477700
  0
LINE
  8
0
  6
CONTINUOUS
 10
580.517395
 20
59.117500
 11
580.517395
 21
75.873497
  0
LINE
  8
0
  6
CONTINUOUS
 10
563.517395
 20
77.873497
 11
578.517395
 21
77.873497
  0
ARC
  8
0
  6
CONTINUOUS
 10
578.517395
 20
75.873520
 40
2.000000
 50
0.000000
 51
90.000000
  0
ARC
  8
0
  6
CONTINUOUS
 10
563.390381
 20
55.117500
 40
2.000000
 50
90.000000
 51
165.522720
  0
ARC
  8
0
  6
CONTINUOUS
 10
563.517395
 20
79.873497
 40
2.000000
 50
180.000000
 51
270.000000
  0
LINE
  8
0
  6
CONTINUOUS
 10
580.517395
 20
57.117500
 11
563.390381
 21
57.117500
  0
ARC
  8
0
  6
CONTINUOUS
 10
582.517395
 20
59.117500
 40
2.000000
 50
180.000000
 51
270.000000
  0
ARC
  8
0
  6
CONTINUOUS
 10
564.517395
 20
166.117493
 40
3.000000
 50
180.000000
 51
270.000000
  0
ARC
  8
0
  6
CONTINUOUS
 10
564.517395
 20
176.849533
 40
3.000000
 50
180.000000
 51
239.999664
  0
ARC
  8
0
  6
CONTINUOUS
 10
583.105652
 20
166.117493
 40
3.000000
 50
-120.000298
 51
-90.000000
  0
LINE
  8
0
  6
CONTINUOUS
 10
609.017395
 20
163.117493
 11
609.017395
 21
57.117500
  0
LINE
  8
0
  6
CONTINUOUS
 10
380.648926
 20
413.302155
 11
426.518036
 21
413.302094
  0
LINE
  8
0
  6
CONTINUOUS
 10
380.649506
 20
593.302185
 11
449.518036
 21
593.302185
  0
LINE
  8
0
  6
CENTER
 10
449.517944
 20
613.617493
 11
449.517395
 21
338.224121
  0
LINE
  8
0
  6
CENTER
 10
374.664215
 20
433.301331
 11
403.032257
 21
433.301331
  0
LINE
  8
0
  6
CONTINUOUS
 10
359.517700
 20
503.302094
 11
360.425720
 21
555.302124
  0
LINE
  8
0
  6
CONTINUOUS
 10
371.194916
 20
586.559570
 11
360.425720
 21
555.302124
  0
ARC
  8
0
  6
CONTINUOUS
 10
380.649323
 20
583.302124
 40
10.000000
 50
90.000000
 51
160.989105
  0
ARC
  8
0
  6
CONTINUOUS
 10
389.517700
 20
433.301331
 40
7.500000
 50
-226.074890
 51
32.226799
  0
LINE
  8
0
  6
CONTINUOUS
 10
359.517700
 20
503.302094
 11
360.425507
 21
451.302155
  0
LINE
  8
0
  6
CONTINUOUS
 10
371.194519
 20
420.044769
 11
360.425507
 21
451.302155
  0
ARC
  8
0
  6
CONTINUOUS
 10
380.648926
 20
423.302155
 40
10.000000
 50
199.010895
 51
270.000000
  0
LINE
  8
0
  6
CONTINUOUS
 10
539.517700
 20
503.301941
 11
538.609924
 21
555.301880
  0
LINE
  8
0
  6
CONTINUOUS
 10
527.840942
 20
586.559326
 11
538.609924
 21
555.301880
  0
ARC
  8
0
  6
CONTINUOUS
 10
518.386292
 20
583.301880
 40
10.000000
 50
19.010900
 51
90.000000
  0
LINE
  8
0
  6
CONTINUOUS
 10
539.517700
 20
503.301941
 11
538.661194
 21
454.249329
  0
LINE
  8
0
  6
CONTINUOUS
 10
527.840515
 20
420.044556
 11
538.262878
 21
450.295319
  0
LINE
  8
0
  6
CONTINUOUS
 10
550.479919
 20
432.301971
 11
552.517517
 21
432.301971
  0
LINE
  8
0
  6
CONTINUOUS
 10
552.517517
 20
432.301971
 11
552.517944
 21
574.301880
  0
LINE
  8
0
  6
CONTINUOUS
 10
541.407898
 20
446.113770
 11
543.718506
 21
437.490173
  0
ARC
  8
0
  6
CONTINUOUS
 10
550.479919
 20
439.301971
 40
7.000000
 50
194.999893
 51
270.000000
  0
ARC
  8
0
  6
CONTINUOUS
 10
534.646301
 20
444.301971
 40
7.000000
 50
14.999700
 51
90.000000
  0
LINE
  8
0
  6
CONTINUOUS
 10
550.480286
 20
574.301880
 11
552.517944
 21
574.301880
  0
LINE
  8
0
  6
CONTINUOUS
 10
541.408142
 20
560.490051
 11
543.718689
 21
569.113647
  0
ARC
  8
0
  6
CONTINUOUS
 10
550.480286
 20
567.301819
 40
7.000000
 50
90.000000
 51
165.000107
  0
ARC
  8
0
  6
CONTINUOUS
 10
534.646484
 20
562.301880
 40
7.000000
 50
301.109222
 51
345.000336
  0
ARC
  8
0
  6
CONTINUOUS
 10
518.386292
 20
423.301514
 40
10.000000
 50
270.000000
 51
340.989105
  0
ARC
  8
0
  6
CONTINUOUS
 10
509.517914
 20
433.300659
 40
7.500000
 50
-212.232941
 51
58.076355
  0
LINE
  8
0
  6
CENTER
 10
389.518005
 20
445.102936
 11
389.517517
 21
421.226532
  0
LINE
  8
0
  6
CENTER
 10
496.507324
 20
433.301239
 11
522.085083
 21
433.301239
  0
LINE
  8
0
  6
CENTER
 10
509.517700
 20
445.102936
 11
509.517517
 21
421.226318
  0
LINE
  8
0
  6
CONTINUOUS
 10
363.373596
 20
451.301697
 11
535.661621
 21
451.301697
  0
LINE
  8
0
  6
CONTINUOUS
 10
492.298492
 20
430.301697
 11
406.737579
 21
430.301697
  0
ARC
  8
0
  6
CONTINUOUS
 10
363.373596
 20
454.301697
 40
3.000000
 50
181.000153
 51
270.000000
  0
ARC
  8
0
  6
CONTINUOUS
 10
535.661621
 20
454.301697
 40
3.000000
 50
270.000000
 51
358.999634
  0
LINE
  8
0
  6
CONTINUOUS
 10
363.373596
 20
555.301697
 11
535.661621
 21
555.301697
  0
ARC
  8
0
  6
CONTINUOUS
 10
363.373596
 20
552.301697
 40
3.000000
 50
90.000000
 51
178.999847
  0
ARC
  8
0
  6
CONTINUOUS
 10
535.661621
 20
552.301697
 40
3.000000
 50
1.000372
 51
90.000000
  0
LINE
  8
0
  6
CONTINUOUS
 10
414.517822
 20
550.301697
 11
414.517822
 21
456.301697
  0
LINE
  8
0
  6
CONTINUOUS
 10
484.517792
 20
550.301697
 11
484.517792
 21
456.301697
  0
LINE
  8
0
  6
CONTINUOUS
 10
508.237793
 20
437.301697
 11
501.518036
 21
437.301697
  0
LINE
  8
0
  6
CONTINUOUS
 10
388.517914
 20
437.301697
 11
397.518036
 21
437.301697
  0
ARC
  8
0
  6
CONTINUOUS
 10
388.517914
 20
444.301697
 40
7.000000
 50
180.000000
 51
270.000000
  0
ARC
  8
0
  6
CONTINUOUS
 10
374.517914
 20
444.301697
 40
7.000000
 50
0.000000
 51
90.000000
  0
LINE
  8
0
  6
CENTER
 10
374.664215
 20
573.301270
 11
403.032257
 21
573.301270
  0
ARC
  8
0
  6
CONTINUOUS
 10
389.517700
 20
573.301270
 40
7.500000
 50
-32.226799
 51
226.074890
  0
ARC
  8
0
  6
CONTINUOUS
 10
509.517914
 20
573.301941
 40
7.500000
 50
-46.078163
 51
212.232941
  0
LINE
  8
0
  6
CENTER
 10
389.518005
 20
561.499634
 11
389.517517
 21
585.376038
  0
LINE
  8
0
  6
CENTER
 10
496.507324
 20
573.301331
 11
522.085083
 21
573.301331
  0
LINE
  8
0
  6
CENTER
 10
509.517700
 20
561.499634
 11
509.517517
 21
585.376221
  0
LINE
  8
0
  6
CONTINUOUS
 10
492.298492
 20
576.301697
 11
406.737579
 21
576.301697
  0
LINE
  8
0
  6
CONTINUOUS
 10
510.517914
 20
569.301697
 11
501.518036
 21
569.301758
  0
ARC
  8
0
  6
CONTINUOUS
 10
510.517914
 20
562.301697
 40
7.000000
 50
0.000000
 51
90.000000
  0
ARC
  8
0
  6
CONTINUOUS
 10
524.517944
 20
562.301697
 40
7.000000
 50
180.000000
 51
270.000000
  0
LINE
  8
0
  6
CONTINUOUS
 10
388.517914
 20
569.301697
 11
397.518036
 21
569.301758
  0
ARC
  8
0
  6
CONTINUOUS
 10
388.517914
 20
562.301697
 40
7.000000
 50
90.000000
 51
180.000000
  0
ARC
  8
0
  6
CONTINUOUS
 10
374.517914
 20
562.301697
 40
7.000000
 50
-90.000000
 51
0.000000
  0
LINE
  8
0
  6
CONTINUOUS
 10
514.968445
 20
442.378662
 11
516.067383
 21
446.224762
  0
ARC
  8
0
  6
CONTINUOUS
 10
508.237793
 20
444.301697
 40
7.000000
 50
270.000000
 51
344.054596
  0
ARC
  8
0
  6
CONTINUOUS
 10
522.798035
 20
444.301697
 40
7.000000
 50
90.000000
 51
164.054611
  0
LINE
  8
0
  6
CONTINUOUS
 10
469.517700
 20
363.301941
 11
426.518036
 21
363.301941
  0
LINE
  8
0
  6
CONTINUOUS
 10
429.517700
 20
428.301941
 11
429.517700
 21
423.301941
  0
LINE
  8
0
  6
CONTINUOUS
 10
469.517700
 20
428.301941
 11
469.517700
 21
363.301941
  0
LINE
  8
0
  6
CONTINUOUS
 10
427.017700
 20
428.301941
 11
472.017700
 21
428.301941
  0
LINE
  8
0
  6
CONTINUOUS
 10
427.017700
 20
430.301941
 11
427.017700
 21
428.301941
  0
LINE
  8
0
  6
CONTINUOUS
 10
472.017700
 20
430.301941
 11
472.017700
 21
428.301941
  0
LINE
  8
0
  6
CONTINUOUS
 10
469.517700
 20
413.302032
 11
518.385925
 21
413.301971
  0
LINE
  8
0
  6
CONTINUOUS
 10
449.518036
 20
593.302002
 11
518.386292
 21
593.301941
  0
LINE
  8
0
  6
CONTINUOUS
 10
426.518036
 20
363.301941
 11
426.518036
 21
423.301941
  0
LINE
  8
0
  6
CONTINUOUS
 10
430.439026
 20
423.301941
 11
426.518036
 21
423.301941
  0
LINE
  8
0
  6
CONTINUOUS
 10
497.613281
 20
432.746155
 11
501.518036
 21
437.301697
  0
ARC
  8
0
  6
CONTINUOUS
 10
492.298492
 20
437.301697
 40
7.000000
 50
270.000000
 51
319.398712
  0
LINE
  8
0
  6
CONTINUOUS
 10
401.422791
 20
432.746155
 11
397.518036
 21
437.301697
  0
ARC
  8
0
  6
CONTINUOUS
 10
406.737579
 20
437.301697
 40
7.000000
 50
220.601288
 51
270.000000
  0
LINE
  8
0
  6
CONTINUOUS
 10
401.422791
 20
573.857300
 11
397.518036
 21
569.301758
  0
ARC
  8
0
  6
CONTINUOUS
 10
406.737579
 20
569.301758
 40
7.000000
 50
90.000000
 51
139.398712
  0
LINE
  8
0
  6
CONTINUOUS
 10
497.613281
 20
573.857300
 11
501.518036
 21
569.301758
  0
ARC
  8
0
  6
CONTINUOUS
 10
492.298492
 20
569.301758
 40
7.000000
 50
40.601295
 51
90.000000
  0
LINE
  8
0
  6
CONTINUOUS
 10
430.439026
 20
363.301941
 11
430.439026
 21
423.301941
  0
LINE
  8
0
  6
CENTER
 10
336.316772
 20
503.301941
 11
818.984985
 21
503.301941
  0
LINE
  8
0
  6
CONTINUOUS
 10
559.517517
 20
432.301941
 11
552.517517
 21
432.301941
  0
LINE
  8
0
  6
CONTINUOUS
 10
561.517517
 20
572.301941
 11
561.517517
 21
434.301941
  0
LINE
  8
0
  6
CONTINUOUS
 10
559.517517
 20
574.301941
 11
552.517944
 21
574.301941
  0
LINE
  8
0
  6
CONTINUOUS
 10
609.017517
 20
450.301941
 11
561.517517
 21
450.301941
  0
LINE
  8
0
  6
CONTINUOUS
 10
609.017517
 20
556.301941
 11
561.517517
 21
556.301941
  0
LINE
  8
0
  6
CONTINUOUS
 10
609.017517
 20
450.301941
 11
609.017517
 21
556.301941
  0
ARC
  8
0
  6
CONTINUOUS
 10
559.517517
 20
434.301941
 40
2.000000
 50
-90.000000
 51
0.000000
  0
ARC
  8
0
  6
CONTINUOUS
 10
559.517517
 20
572.301941
 40
2.000000
 50
0.000000
 51
90.000000
  0
ARC
  8
0
  6
CONTINUOUS
 10
562.302429
 20
503.301941
 40
20.000000
 50
-38.438709
 51
0.000000
  0
LINE
  8
0
  6
CONTINUOUS
 10
561.517517
 20
470.141937
 11
577.967896
 21
490.868378
  0
ARC
  8
0
  6
CONTINUOUS
 10
562.302429
 20
503.301941
 40
20.000000
 50
0.000000
 51
38.438709
  0
LINE
  8
0
  6
CONTINUOUS
 10
561.517517
 20
536.461914
 11
577.967896
 21
515.735474
  0
LINE
  8
0
  6
CONTINUOUS
 10
739.018005
 20
450.301941
 11
609.018005
 21
450.301941
  0
LINE
  8
0
  6
CONTINUOUS
 10
739.018005
 20
556.301941
 11
609.018005
 21
556.301941
  0
LINE
  8
0
  6
CONTINUOUS
 10
739.018005
 20
471.801941
 11
619.018005
 21
471.801941
  0
LINE
  8
0
  6
CONTINUOUS
 10
739.018005
 20
534.801941
 11
619.018005
 21
534.801941
  0
LINE
  8
0
  6
CONTINUOUS
 10
619.018005
 20
452.301941
 11
619.018005
 21
471.801941
  0
ARC
  8
0
  6
CONTINUOUS
 10
617.018005
 20
452.301910
 40
2.000000
 50
-90.000000
 51
0.000000
  0
ARC
  8
0
  6
CONTINUOUS
 10
617.018005
 20
554.301941
 40
2.000000
 50
0.000000
 51
90.000000
  0
LINE
  8
0
  6
CENTER
 10
449.517395
 20
270.201050
 11
449.517395
 21
1.996035
  0
LINE
  8
0
  6
CENTER
 10
520.632446
 20
178.617493
 11
378.037445
 21
178.617493
  0
LINE
  8
0
  6
CONTINUOUS
 10
539.517395
 20
13.617500
 11
359.517395
 21
13.617500
  0
LINE
  8
0
  6
CONTINUOUS
 10
539.517395
 20
33.617500
 11
359.517395
 21
33.617500
  0
LINE
  8
0
  6
CONTINUOUS
 10
481.331787
 20
256.117493
 11
417.702972
 21
256.117493
  0
LINE
  8
0
  6
CONTINUOUS
 10
359.517395
 20
211.949493
 11
359.517395
 21
13.617500
  0
LINE
  8
0
  6
CONTINUOUS
 10
539.517395
 20
211.949493
 11
539.517395
 21
13.617500
  0
LINE
  8
0
  6
CONTINUOUS
 10
552.517395
 20
196.117493
 11
544.517395
 21
196.117493
  0
LINE
  8
0
  6
CONTINUOUS
 10
552.517395
 20
54.117500
 11
544.517395
 21
54.117500
  0
LINE
  8
0
  6
CONTINUOUS
 10
411.918793
 20
254.274841
 11
363.732971
 21
220.106827
  0
LINE
  8
0
  6
CONTINUOUS
 10
535.301575
 20
220.106827
 11
487.115967
 21
254.274841
  0
ARC
  8
0
  6
CONTINUOUS
 10
369.517395
 20
211.949463
 40
10.000000
 50
125.339897
 51
180.000000
  0
ARC
  8
0
  6
CONTINUOUS
 10
417.702972
 20
246.117493
 40
10.000000
 50
90.000000
 51
125.339996
  0
ARC
  8
0
  6
CONTINUOUS
 10
481.331787
 20
246.117493
 40
10.000000
 50
54.659698
 51
90.000000
  0
ARC
  8
0
  6
CONTINUOUS
 10
529.517395
 20
211.949539
 40
10.000000
 50
0.000000
 51
54.659500
  0
ARC
  8
0
  6
CONTINUOUS
 10
544.517395
 20
201.117493
 40
5.000000
 50
180.000000
 51
270.000000
  0
ARC
  8
0
  6
CONTINUOUS
 10
544.517395
 20
49.117481
 40
5.000000
 50
90.000000
 51
180.000000
  0
LINE
  8
0
  6
CENTER
 10
389.517395
 20
40.706036
 11
389.517395
 21
7.131035
  0
LINE
  8
0
  6
CENTER
 10
509.517395
 20
39.521034
 11
509.517395
 21
7.131035
  0
LINE
  8
0
  6
DASHED
 10
397.017395
 20
33.617500
 11
397.017395
 21
13.617500
  0
LINE
  8
0
  6
DASHED
 10
382.017395
 20
33.617500
 11
382.017395
 21
13.617500
  0
LINE
  8
0
  6
DASHED
 10
502.017395
 20
33.617500
 11
502.017395
 21
13.617500
  0
LINE
  8
0
  6
DASHED
 10
517.017395
 20
33.617500
 11
517.017395
 21
13.617500
  0
LINE
  8
0
  6
CONTINUOUS
 10
373.517395
 20
30.932180
 11
373.517395
 21
13.617500
  0
LINE
  8
0
  6
CONTINUOUS
 10
525.517395
 20
30.932180
 11
525.517395
 21
13.617500
  0
LINE
  8
0
  6
CONTINUOUS
 10
415.759979
 20
38.617500
 11
483.274780
 21
38.617500
  0
LINE
  8
0
  6
CONTINUOUS
 10
484.517395
 20
37.480621
 11
484.517395
 21
34.617500
  0
LINE
  8
0
  6
CONTINUOUS
 10
414.517395
 20
37.480621
 11
414.517395
 21
34.617500
  0
LINE
  8
0
  6
CONTINUOUS
 10
413.638794
 20
37.738819
 11
410.981781
 21
35.081940
  0
LINE
  8
0
  6
CONTINUOUS
 10
485.395996
 20
37.738819
 11
488.052979
 21
35.082001
  0
ARC
  8
0
  6
CONTINUOUS
 10
491.588379
 20
38.617500
 40
5.000000
 50
-135.000107
 51
-90.000000
  0
ARC
  8
0
  6
CONTINUOUS
 10
407.446381
 20
38.617500
 40
5.000000
 50
-90.000000
 51
-45.000111
  0
ARC
  8
0
  6
CONTINUOUS
 10
483.274780
 20
35.617500
 40
3.000000
 50
44.999599
 51
90.000000
  0
ARC
  8
0
  6
CONTINUOUS
 10
415.759979
 20
35.617500
 40
3.000000
 50
90.000000
 51
134.999695
  0
ARC
  8
0
  6
CONTINUOUS
 10
485.517395
 20
34.617500
 40
1.000000
 50
180.000000
 51
270.000000
  0
ARC
  8
0
  6
CONTINUOUS
 10
413.517395
 20
34.617500
 40
1.000000
 50
-90.000000
 51
0.000000
  0
CIRCLE
  8
0
  6
CONTINUOUS
 10
449.517395
 20
178.617493
 40
46.000000
  0
ARC
  8
0
  6
CONTINUOUS
 10
449.517395
 20
178.617493
 40
52.000000
 50
12.522600
 51
167.477295
  0
ARC
  8
0
  6
CONTINUOUS
 10
449.517395
 20
178.617493
 40
48.000000
 50
-192.522705
 51
12.522580
  0
ARC
  8
0
  6
CONTINUOUS
 10
479.517395
 20
108.117500
 40
34.000000
 50
-90.000000
 51
12.522600
  0
ARC
  8
0
  6
CONTINUOUS
 10
479.517395
 20
108.117500
 40
38.000000
 50
-90.000000
 51
12.522600
  0
ARC
  8
0
  6
CONTINUOUS
 10
419.517395
 20
108.117500
 40
34.000000
 50
167.477295
 51
270.000000
  0
ARC
  8
0
  6
CONTINUOUS
 10
419.517395
 20
108.117500
 40
38.000000
 50
167.477295
 51
270.000000
  0
LINE
  8
0
  6
CONTINUOUS
 10
516.613403
 20
116.356865
 11
500.280396
 21
189.892395
  0
LINE
  8
0
  6
CONTINUOUS
 10
398.754395
 20
189.892502
 11
382.421387
 21
116.356926
  0
LINE
  8
0
  6
CONTINUOUS
 10
402.659180
 20
189.025177
 11
386.326172
 21
115.489616
  0
LINE
  8
0
  6
CONTINUOUS
 10
512.708557
 20
115.489563
 11
496.375397
 21
189.025116
  0
LINE
  8
0
  6
CONTINUOUS
 10
479.517395
 20
74.117500
 11
419.517395
 21
74.117500
  0
LINE
  8
0
  6
CONTINUOUS
 10
479.517395
 20
70.117500
 11
419.517395
 21
70.117500
  0
ARC
  8
0
  6
CONTINUOUS
 10
329.835785
 20
125.117500
 40
215.181595
 50
-12.982100
 51
12.982100
  0
LINE
  8
0
  6
CONTINUOUS
 10
437.290375
 20
92.117500
 11
432.349976
 21
92.117500
  0
LINE
  8
0
  6
CONTINUOUS
 10
440.017395
 20
100.392899
 11
440.017395
 21
92.117500
  0
LINE
  8
0
  6
CONTINUOUS
 10
444.767395
 20
103.398743
 11
444.767395
 21
106.367500
  0
LINE
  8
0
  6
CONTINUOUS
 10
454.267395
 20
103.398743
 11
454.267395
 21
106.367500
  0
LINE
  8
0
  6
CONTINUOUS
 10
448.589569
 20
104.623360
 11
448.589569
 21
93.676102
  0
LINE
  8
0
  6
CONTINUOUS
 10
450.370972
 20
104.623360
 11
450.370972
 21
93.676102
  0
LINE
  8
0
  6
CONTINUOUS
 10
459.722382
 20
104.623360
 11
459.722382
 21
93.601883
  0
LINE
  8
0
  6
CONTINUOUS
 10
461.355377
 20
98.778641
 11
461.355377
 21
93.601883
  0
LINE
  8
0
  6
CONTINUOUS
 10
437.763397
 20
104.474922
 11
433.185577
 21
104.474922
  0
LINE
  8
0
  6
CONTINUOUS
 10
433.185577
 20
104.474922
 11
432.112976
 21
103.144920
  0
LINE
  8
0
  6
CONTINUOUS
 10
432.241974
 20
106.367500
 11
430.517395
 21
104.159042
  0
LINE
  8
0
  6
CONTINUOUS
 10
432.112976
 20
94.935341
 11
433.202789
 21
93.787422
  0
LINE
  8
0
  6
CONTINUOUS
 10
430.517395
 20
93.966621
 11
432.349976
 21
92.117500
  0
LINE
  8
0
  6
CONTINUOUS
 10
430.517395
 20
104.159042
 11
430.517395
 21
93.966621
  0
LINE
  8
0
  6
CONTINUOUS
 10
432.112976
 20
103.144920
 11
432.112976
 21
94.935341
  0
LINE
  8
0
  6
CONTINUOUS
 10
438.644379
 20
103.623360
 11
437.745392
 21
104.474922
  0
LINE
  8
0
  6
CONTINUOUS
 10
438.629974
 20
106.367500
 11
440.017395
 21
104.827919
  0
LINE
  8
0
  6
CONTINUOUS
 10
438.644379
 20
103.398743
 11
440.017395
 21
103.398743
  0
LINE
  8
0
  6
CONTINUOUS
 10
432.241974
 20
106.367500
 11
438.629974
 21
106.367500
  0
LINE
  8
0
  6
CONTINUOUS
 10
436.157990
 20
100.392899
 11
440.017395
 21
100.392899
  0
LINE
  8
0
  6
CONTINUOUS
 10
438.644379
 20
98.834297
 11
436.157990
 21
98.834297
  0
LINE
  8
0
  6
CONTINUOUS
 10
435.675568
 20
93.787422
 11
433.202789
 21
93.787422
  0
LINE
  8
0
  6
CONTINUOUS
 10
438.644379
 20
97.349922
 11
438.644379
 21
98.537422
  0
ARC
  8
0
  6
CONTINUOUS
 10
435.675568
 20
96.756157
 40
2.968750
 50
-89.999786
 51
0.000109
  0
LINE
  8
0
  6
CONTINUOUS
 10
438.644379
 20
93.253418
 11
438.644379
 21
92.117500
  0
LINE
  8
0
  6
CONTINUOUS
 10
440.017395
 20
104.827919
 11
440.017395
 21
103.398743
  0
LINE
  8
0
  6
CONTINUOUS
 10
438.644379
 20
98.834297
 11
438.644379
 21
96.756157
  0
LINE
  8
0
  6
CONTINUOUS
 10
436.157990
 20
100.392899
 11
436.157990
 21
98.834297
  0
LINE
  8
0
  6
CONTINUOUS
 10
438.644379
 20
92.117500
 11
440.017395
 21
92.117500
  0
LINE
  8
0
  6
CONTINUOUS
 10
438.644379
 20
93.253418
 11
437.290375
 21
92.117500
  0
LINE
  8
0
  6
CONTINUOUS
 10
450.370972
 20
93.676102
 11
450.964569
 21
93.676102
  0
LINE
  8
0
  6
CONTINUOUS
 10
447.884583
 20
93.676102
 11
447.884583
 21
92.117500
  0
LINE
  8
0
  6
CONTINUOUS
 10
450.964569
 20
93.676102
 11
450.964569
 21
92.117500
  0
LINE
  8
0
  6
CONTINUOUS
 10
453.276367
 20
103.398743
 11
454.267395
 21
103.398743
  0
LINE
  8
0
  6
CONTINUOUS
 10
444.767395
 20
103.398743
 11
445.821991
 21
103.398743
  0
LINE
  8
0
  6
CONTINUOUS
 10
444.767395
 20
106.367500
 11
454.267395
 21
106.367500
  0
LINE
  8
0
  6
CONTINUOUS
 10
447.884583
 20
92.117500
 11
450.964569
 21
92.117500
  0
LINE
  8
0
  6
CONTINUOUS
 10
447.884583
 20
93.676102
 11
448.589569
 21
93.676102
  0
ARC
  8
0
  6
CONTINUOUS
 10
464.713593
 20
102.563782
 40
3.803712
 50
-73.981873
 51
90.003510
  0
ARC
  8
0
  6
CONTINUOUS
 10
464.713593
 20
102.563782
 40
2.320524
 50
-82.585274
 51
62.411850
  0
LINE
  8
0
  6
CONTINUOUS
 10
459.017395
 20
106.367500
 11
464.713593
 21
106.367500
  0
LINE
  8
0
  6
CONTINUOUS
 10
465.013184
 20
100.262657
 11
461.355377
 21
100.262657
  0
LINE
  8
0
  6
CONTINUOUS
 10
459.017395
 20
106.367500
 11
459.017395
 21
104.623360
  0
LINE
  8
0
  6
CONTINUOUS
 10
461.355377
 20
104.623360
 11
461.355377
 21
100.262657
  0
LINE
  8
0
  6
CONTINUOUS
 10
465.763184
 20
98.907761
 11
468.117584
 21
93.601883
  0
LINE
  8
0
  6
CONTINUOUS
 10
464.395996
 20
98.778641
 11
466.623779
 21
93.601883
  0
LINE
  8
0
  6
CONTINUOUS
 10
459.017395
 20
93.601883
 11
459.722382
 21
93.601883
  0
LINE
  8
0
  6
CONTINUOUS
 10
461.355377
 20
93.601883
 11
462.004791
 21
93.601883
  0
LINE
  8
0
  6
CONTINUOUS
 10
462.004791
 20
92.117500
 11
459.017395
 21
92.117500
  0
LINE
  8
0
  6
CONTINUOUS
 10
466.327972
 20
93.601883
 11
466.623779
 21
93.601883
  0
LINE
  8
0
  6
CONTINUOUS
 10
468.117584
 20
93.601883
 11
468.517395
 21
93.601883
  0
LINE
  8
0
  6
CONTINUOUS
 10
466.327972
 20
92.117500
 11
468.517395
 21
92.117500
  0
LINE
  8
0
  6
CONTINUOUS
 10
468.517395
 20
93.601883
 11
468.517395
 21
92.117500
  0
LINE
  8
0
  6
CONTINUOUS
 10
466.327972
 20
93.601883
 11
466.327972
 21
92.117500
  0
LINE
  8
0
  6
CONTINUOUS
 10
462.004791
 20
93.601883
 11
462.004791
 21
92.117500
  0
LINE
  8
0
  6
CONTINUOUS
 10
459.017395
 20
93.601883
 11
459.017395
 21
92.117500
  0
LINE
  8
0
  6
CONTINUOUS
 10
446.332184
 20
104.623360
 11
445.821991
 21
103.398743
  0
LINE
  8
0
  6
CONTINUOUS
 10
452.846191
 20
104.623360
 11
453.276367
 21
103.398743
  0
LINE
  8
0
  6
CONTINUOUS
 10
450.370972
 20
104.623360
 11
452.846191
 21
104.623360
  0
LINE
  8
0
  6
CONTINUOUS
 10
448.589569
 20
104.623360
 11
446.332184
 21
104.623360
  0
LINE
  8
0
  6
CONTINUOUS
 10
461.355377
 20
98.778641
 11
464.395996
 21
98.778641
  0
LINE
  8
0
  6
CONTINUOUS
 10
459.017395
 20
104.623360
 11
459.722382
 21
104.623360
  0
LINE
  8
0
  6
CONTINUOUS
 10
461.355377
 20
104.623360
 11
465.788391
 21
104.620483
  0
LINE
  8
0
  6
CONTINUOUS
 10
438.644379
 20
103.623360
 11
438.644379
 21
103.398743
  0
LINE
  8
0
  6
CONTINUOUS
 10
534.517395
 20
188.543915
 11
534.517395
 21
103.691101
  0
LINE
  8
0
  6
CONTINUOUS
 10
364.517395
 20
188.543900
 11
364.517395
 21
103.691101
  0
ARC
  8
0
  6
CONTINUOUS
 10
449.517395
 20
146.117493
 40
105.000000
 50
50.655579
 51
129.521500
  0
ARC
  8
0
  6
CONTINUOUS
 10
449.517395
 20
146.117493
 40
105.000000
 50
230.478897
 51
309.521606
  0
ARC
  8
0
  6
CONTINUOUS
 10
484.517395
 20
188.543915
 40
50.000000
 50
0.000000
 51
51.150589
  0
ARC
  8
0
  6
CONTINUOUS
 10
414.517395
 20
188.543900
 40
50.000000
 50
129.521698
 51
180.000000
  0
ARC
  8
0
  6
CONTINUOUS
 10
414.517395
 20
103.691101
 40
50.000000
 50
180.000000
 51
230.479202
  0
ARC
  8
0
  6
CONTINUOUS
 10
484.517395
 20
103.691101
 40
50.000000
 50
-50.478550
 51
0.000000
  0
LINE
  8
0
  6
CONTINUOUS
 10
434.517395
 20
184.617493
 11
434.517395
 21
172.617493
  0
LINE
  8
0
  6
CONTINUOUS
 10
426.517395
 20
184.617493
 11
426.517395
 21
172.617493
  0
LINE
  8
0
  6
CONTINUOUS
 10
426.517395
 20
184.617493
 11
434.517395
 21
184.617493
  0
LINE
  8
0
  6
CONTINUOUS
 10
426.517395
 20
172.617493
 11
434.517395
 21
172.617493
  0
ARC
  8
0
  6
CONTINUOUS
 10
449.517395
 20
178.617493
 40
20.000000
 50
-162.542404
 51
162.542404
  0
LINE
  8
0
  6
CONTINUOUS
 10
747.518066
 20
450.301941
 11
739.018005
 21
450.301941
  0
LINE
  8
0
  6
CONTINUOUS
 10
747.518066
 20
556.301941
 11
739.018005
 21
556.301941
  0
LINE
  8
0
  6
CONTINUOUS
 10
739.018005
 20
471.801941
 11
747.518066
 21
471.801941
  0
LINE
  8
0
  6
CONTINUOUS
 10
739.018005
 20
534.801941
 11
747.518066
 21
534.801941
  0
LINE
  8
0
  6
CONTINUOUS
 10
739.018005
 20
556.301941
 11
739.018005
 21
528.301941
  0
LINE
  8
0
  6
CONTINUOUS
 10
739.018005
 20
478.301971
 11
739.018005
 21
450.301941
  0
LINE
  8
0
  6
CONTINUOUS
 10
747.518066
 20
448.301941
 11
747.518066
 21
479.802002
  0
LINE
  8
0
  6
CONTINUOUS
 10
786.518066
 20
448.301941
 11
747.518066
 21
448.301941
  0
LINE
  8
0
  6
CONTINUOUS
 10
786.518066
 20
558.301941
 11
747.518066
 21
558.301941
  0
LINE
  8
0
  6
CONTINUOUS
 10
796.518066
 20
548.301941
 11
796.518066
 21
458.301941
  0
LINE
  8
0
  6
CONTINUOUS
 10
791.518066
 20
472.801941
 11
747.518066
 21
472.801941
  0
LINE
  8
0
  6
CONTINUOUS
 10
791.518066
 20
533.801941
 11
747.518066
 21
533.801941
  0
ARC
  8
0
  6
CONTINUOUS
 10
786.518005
 20
458.301941
 40
10.000000
 50
-90.000000
 51
0.000000
  0
ARC
  8
0
  6
CONTINUOUS
 10
786.518066
 20
548.301941
 40
10.000000
 50
0.000000
 51
90.000000
  0
LINE
  8
0
  6
CONTINUOUS
 10
747.517395
 20
165.117493
 11
747.517395
 21
55.117500
  0
LINE
  8
0
  6
CONTINUOUS
 10
747.517395
 20
163.117493
 11
739.017395
 21
163.117493
  0
LINE
  8
0
  6
CONTINUOUS
 10
747.517395
 20
57.117500
 11
739.017395
 21
57.117500
  0
LINE
  8
0
  6
CONTINUOUS
 10
747.517395
 20
152.680099
 11
739.017395
 21
152.680099
  0
LINE
  8
0
  6
CONTINUOUS
 10
747.517395
 20
67.433372
 11
739.017395
 21
67.433372
  0
LINE
  8
0
  6
CONTINUOUS
 10
786.517395
 20
165.117493
 11
747.517395
 21
165.117493
  0
LINE
  8
0
  6
CONTINUOUS
 10
786.517395
 20
55.117500
 11
747.517395
 21
55.117500
  0
LINE
  8
0
  6
CONTINUOUS
 10
796.517395
 20
65.117500
 11
796.517395
 21
155.117493
  0
LINE
  8
0
  6
CONTINUOUS
 10
791.517395
 20
140.617493
 11
747.517395
 21
140.617493
  0
LINE
  8
0
  6
CONTINUOUS
 10
791.517395
 20
79.617500
 11
747.517395
 21
79.617500
  0
ARC
  8
0
  6
CONTINUOUS
 10
786.517273
 20
155.117493
 40
10.000000
 50
0.000000
 51
90.000000
  0
ARC
  8
0
  6
CONTINUOUS
 10
786.517395
 20
65.117500
 40
10.000000
 50
-90.000000
 51
0.000000
  0
LINE
  8
0
  6
CONTINUOUS
 10
739.017395
 20
57.117500
 11
739.017395
 21
163.117493
  0
LINE
  8
0
  6
CONTINUOUS
 10
749.018005
 20
495.801971
 11
748.018005
 21
495.801971
  0
ARC
  8
0
  6
CONTINUOUS
 10
749.018005
 20
496.801971
 40
1.000000
 50
-90.000000
 51
0.000000
  0
LINE
  8
0
  6
CONTINUOUS
 10
753.518005
 20
499.301971
 11
753.518005
 21
507.301971
  0
LINE
  8
0
  6
CONTINUOUS
 10
753.518005
 20
499.301971
 11
750.018005
 21
497.801971
  0
LINE
  8
0
  6
CONTINUOUS
 10
753.518005
 20
507.301971
 11
750.018005
 21
508.801971
  0
LINE
  8
0
  6
CONTINUOUS
 10
750.018005
 20
496.801971
 11
750.018005
 21
509.801971
  0
LINE
  8
0
  6
CONTINUOUS
 10
749.018005
 20
510.801971
 11
748.018005
 21
510.801971
  0
ARC
  8
0
  6
CONTINUOUS
 10
749.018005
 20
509.801971
 40
1.000000
 50
0.000000
 51
90.000000
  0
LINE
  8
0
  6
CONTINUOUS
 10
748.018005
 20
526.301941
 11
748.018005
 21
480.301971
  0
LINE
  8
0
  6
CONTINUOUS
 10
746.018005
 20
478.301971
 11
748.018005
 21
480.301971
  0
LINE
  8
0
  6
CONTINUOUS
 10
746.018005
 20
478.301971
 11
700.018066
 21
478.301971
  0
LINE
  8
0
  6
CONTINUOUS
 10
705.518005
 20
482.801971
 11
705.518005
 21
478.301971
  0
ARC
  8
0
  6
CONTINUOUS
 10
702.518005
 20
482.801971
 40
3.000000
 50
0.000000
 51
90.000000
  0
LINE
  8
0
  6
CONTINUOUS
 10
702.518005
 20
485.801971
 11
698.018066
 21
485.801971
  0
CIRCLE
  8
0
  6
CONTINUOUS
 10
701.518005
 20
481.801971
 40
2.250000
  0
LINE
  8
0
  6
CONTINUOUS
 10
698.018005
 20
526.301941
 11
698.018066
 21
480.301971
  0
LINE
  8
0
  6
CONTINUOUS
 10
700.018066
 20
478.301971
 11
698.018066
 21
480.301971
  0
LINE
  8
0
  6
CONTINUOUS
 10
700.018005
 20
528.301941
 11
698.018005
 21
526.301941
  0
LINE
  8
0
  6
CONTINUOUS
 10
700.018005
 20
528.301941
 11
746.018005
 21
528.301941
  0
LINE
  8
0
  6
CONTINUOUS
 10
748.018005
 20
526.301941
 11
746.018005
 21
528.301941
  0
LINE
  8
0
  6
CONTINUOUS
 10
743.518005
 20
520.801941
 11
748.018005
 21
520.801941
  0
CIRCLE
  8
0
  6
CONTINUOUS
 10
744.518005
 20
524.801941
 40
2.250000
  0
ARC
  8
0
  6
CONTINUOUS
 10
743.518005
 20
523.801941
 40
3.000000
 50
180.000000
 51
270.000000
  0
LINE
  8
0
  6
CONTINUOUS
 10
740.518005
 20
523.801941
 11
740.518005
 21
528.301941
  0
LINE
  8
0
  6
CENTER
 10
723.018005
 20
535.767761
 11
723.018005
 21
471.635712
  0
LINE
  8
0
  6
CONTINUOUS
 10
745.603821
 20
479.301941
 11
747.018005
 21
480.716156
  0
LINE
  8
0
  6
CONTINUOUS
 10
747.018005
 20
520.801941
 11
747.018005
 21
480.716156
  0
LINE
  8
0
  6
CONTINUOUS
 10
705.518005
 20
479.301941
 11
745.603821
 21
479.301941
  0
LINE
  8
0
  6
CONTINUOUS
 10
699.018005
 20
485.801941
 11
699.018005
 21
525.887756
  0
LINE
  8
0
  6
CONTINUOUS
 10
740.518005
 20
527.301941
 11
700.432251
 21
527.301941
  0
LINE
  8
0
  6
CONTINUOUS
 10
700.432251
 20
527.301941
 11
699.018005
 21
525.887756
  0
LINE
  8
0
  6
CONTINUOUS
 10
747.518066
 20
526.801941
 11
747.518066
 21
558.301941
  0
LINE
  8
0
  6
CONTINUOUS
 10
746.517395
 20
164.617493
 11
700.017395
 21
164.617493
  0
LINE
  8
0
  6
CONTINUOUS
 10
698.017395
 20
194.617493
 11
698.017395
 21
166.617493
  0
LINE
  8
0
  6
CONTINUOUS
 10
748.017395
 20
194.617493
 11
748.017395
 21
166.617493
  0
LINE
  8
0
  6
CONTINUOUS
 10
750.017395
 20
176.617493
 11
698.017395
 21
176.617493
  0
LINE
  8
0
  6
CONTINUOUS
 10
700.017395
 20
164.617493
 11
698.017395
 21
166.617493
  0
LINE
  8
0
  6
CONTINUOUS
 10
748.017395
 20
166.617493
 11
746.017395
 21
164.617493
  0
LINE
  8
0
  6
CONTINUOUS
 10
748.017395
 20
166.617493
 11
698.017395
 21
166.617493
  0
LINE
  8
0
  6
CONTINUOUS
 10
747.017395
 20
195.617493
 11
699.017395
 21
195.617493
  0
LINE
  8
0
  6
CONTINUOUS
 10
699.017395
 20
195.617493
 11
698.017395
 21
194.617493
  0
LINE
  8
0
  6
CONTINUOUS
 10
747.017395
 20
195.617493
 11
748.017395
 21
194.617493
  0
LINE
  8
0
  6
CONTINUOUS
 10
748.017395
 20
194.617493
 11
698.017395
 21
194.617493
  0
LINE
  8
0
  6
CONTINUOUS
 10
750.017395
 20
192.617493
 11
750.017395
 21
176.617493
  0
LINE
  8
0
  6
CONTINUOUS
 10
749.017395
 20
193.617493
 11
748.017395
 21
193.617493
  0
ARC
  8
0
  6
CONTINUOUS
 10
749.017334
 20
192.617493
 40
1.000000
 50
0.000000
 51
90.000000
  0
LINE
  8
0
  6
CONTINUOUS
 10
753.517395
 20
190.117493
 11
753.517395
 21
182.117493
  0
LINE
  8
0
  6
CONTINUOUS
 10
753.517395
 20
190.117493
 11
750.017395
 21
191.617493
  0
LINE
  8
0
  6
CONTINUOUS
 10
753.517395
 20
182.117493
 11
750.017395
 21
180.617493
  0
LINE
  8
0
  6
CENTER
 10
723.017395
 20
156.788132
 11
723.017395
 21
204.375626
  0
LINE
  8
0
  6
CONTINUOUS
 10
746.517395
 20
164.617493
 11
746.517395
 21
163.117493
  0
LINE
  8
0
  6
CONTINUOUS
 10
700.517395
 20
164.617493
 11
700.517395
 21
163.117493
  0
LINE
  8
0
  6
CENTER
 10
755.961121
 20
186.117493
 11
743.886108
 21
186.117493
  0
LINE
  8
0
  6
CONTINUOUS
 10
619.018005
 20
534.801941
 11
619.018005
 21
554.301941
  0
TEXT
  8
0
 10
-4.000000
 20
-2.000000
 40
4.000000
 41
1.000000
  1
HLM-40L-1200~1800-S90WT
 50
0.000000
  0
ENDSEC
  0
EOF
