  0
SECTION
  2
HEADER
  9
$CLAYER
  8
1
  9
$LTSCALE
 40
3.0
  0
ENDSEC
  0
SECTION
  2
TABLES
  0
TABLE
  2
LTYPE
 70
     4
  0
LTYPE
  2
CONTINUOUS
  3
solid line
 70
    64
 72
    65
 73
     0
 40
0.0
  0
LTYPE
  2
DASHED
  3
__ __ __ __ __ __ __ __ __ __ __ __ __ __ __
 70
    64
 72
    65
 73
     2
 40
0.75
 49
0.5
 49
-0.25
  0
LTYPE
  2
CENTER
  3
____ _ ____ _ ____ _ ____ _ ____ _ ____ _ ____
 70
    64
 72
    65
 73
     4
 40
2.0
 49
1.25
 49
-0.25
 49
0.25
 49
-0.25
  0
LTYPE
  2
PHANTOM
  3
_____ _ _ _____ _ _ _____ _ _ _____ _ _ ____
 70
    64
 72
    65
 73
     6
 40
2.5
 49
1.25
 49
-0.25
 49
0.25
 49
-0.25
 49
0.25
 49
-0.25
  0
ENDTAB
  0
TABLE
  2
LAYER
 70
     1
  0
LAYER
  2
0
 70
    64
 62
     7
  6
CONTINUOUS
  0
ENDTAB
  0
TABLE
  2
STYLE
 70
     1
  0
STYLE
  2
STANDARD
 70
     0
 40
0.000000
 41
1.000000
 50
0.000000
 71
     0
 42
3.000000
  3
txt
  4
BIGFONT
  0
ENDTAB
  0
ENDSEC
  0
SECTION
  2
BLOCKS
  0
ENDSEC
  0
SECTION
  2
ENTITIES
  0
LINE
  8
0
  6
CONTINUOUS
 10
554.752380
 20
69.455002
 11
554.752380
 21
211.455002
  0
LINE
  8
0
  6
CENTER
 10
651.715027
 20
140.455002
 11
508.262390
 21
140.455002
  0
LINE
  8
0
  6
CONTINUOUS
 10
741.252380
 20
72.455002
 11
741.252380
 21
178.455002
  0
LINE
  8
0
  6
CONTINUOUS
 10
741.252380
 20
178.455002
 11
611.252380
 21
178.455002
  0
LINE
  8
0
  6
CONTINUOUS
 10
741.252380
 20
72.455002
 11
611.252380
 21
72.455002
  0
LINE
  8
0
  6
CONTINUOUS
 10
741.252380
 20
168.078339
 11
622.590637
 21
168.078339
  0
LINE
  8
0
  6
CONTINUOUS
 10
741.252380
 20
82.831642
 11
622.590637
 21
82.831642
  0
LINE
  8
0
  6
CONTINUOUS
 10
621.252380
 20
176.455002
 11
621.252380
 21
74.454979
  0
ARC
  8
0
  6
CONTINUOUS
 10
619.252380
 20
176.455017
 40
2.000000
 50
0.000000
 51
90.000000
  0
ARC
  8
0
  6
CONTINUOUS
 10
619.252380
 20
74.455002
 40
2.000000
 50
-90.000000
 51
0.000000
  0
LINE
  8
0
  6
CONTINUOUS
 10
761.752380
 20
125.455002
 11
761.752380
 21
170.455002
  0
LINE
  8
0
  6
CONTINUOUS
 10
761.752380
 20
125.455002
 11
761.752380
 21
80.455002
  0
LINE
  8
0
  6
CONTINUOUS
 10
761.252380
 20
174.455002
 11
761.252380
 21
80.455002
  0
LINE
  8
0
  6
CONTINUOUS
 10
756.162231
 20
178.455002
 11
741.252380
 21
178.455002
  0
LINE
  8
0
  6
CONTINUOUS
 10
756.162231
 20
72.455002
 11
741.252380
 21
72.455002
  0
LINE
  8
0
  6
CONTINUOUS
 10
761.252380
 20
80.455002
 11
761.252380
 21
76.455002
  0
LINE
  8
0
  6
CONTINUOUS
 10
760.634338
 20
175.691055
 11
761.252380
 21
174.455002
  0
ARC
  8
0
  6
CONTINUOUS
 10
756.162231
 20
173.455017
 40
5.000000
 50
26.564800
 51
90.000000
  0
LINE
  8
0
  6
CONTINUOUS
 10
760.634338
 20
75.218941
 11
761.252380
 21
76.455002
  0
ARC
  8
0
  6
CONTINUOUS
 10
756.162231
 20
77.455002
 40
5.000000
 50
-90.000000
 51
-26.565001
  0
LINE
  8
0
  6
CONTINUOUS
 10
761.752380
 20
80.455002
 11
761.252380
 21
79.955002
  0
LINE
  8
0
  6
CONTINUOUS
 10
761.752380
 20
170.455002
 11
761.252380
 21
170.955002
  0
LINE
  8
0
  6
CONTINUOUS
 10
741.252380
 20
168.078354
 11
759.377380
 21
168.078354
  0
LINE
  8
0
  6
CONTINUOUS
 10
741.252380
 20
82.831642
 11
759.377380
 21
82.831642
  0
LINE
  8
0
  6
CENTER
 10
124.910698
 20
12.445000
 11
124.910698
 21
284.600006
  0
LINE
  8
0
  6
CENTER
 10
24.108318
 20
140.455002
 11
220.818314
 21
140.455002
  0
LINE
  8
0
  6
CENTER
 10
32.008320
 20
193.955002
 11
282.347504
 21
193.955002
  0
LINE
  8
0
  6
CENTER
 10
54.910702
 20
60.634998
 11
54.910702
 21
21.924999
  0
LINE
  8
0
  6
CENTER
 10
194.910706
 20
57.869999
 11
194.910706
 21
21.135000
  0
LINE
  8
0
  6
DASHED
 10
187.410706
 20
48.955002
 11
187.410706
 21
28.955000
  0
LINE
  8
0
  6
DASHED
 10
202.410706
 20
48.955002
 11
202.410706
 21
28.955000
  0
LINE
  8
0
  6
DASHED
 10
62.410702
 20
48.955002
 11
62.410702
 21
28.955000
  0
LINE
  8
0
  6
DASHED
 10
47.410702
 20
48.955002
 11
47.410702
 21
28.955000
  0
LINE
  8
0
  6
CONTINUOUS
 10
34.910702
 20
28.955000
 11
89.910698
 21
28.955000
  0
LINE
  8
0
  6
CONTINUOUS
 10
159.910706
 20
28.955000
 11
214.910706
 21
28.955000
  0
LINE
  8
0
  6
CONTINUOUS
 10
181.910706
 20
48.955002
 11
211.910706
 21
48.955002
  0
LINE
  8
0
  6
CONTINUOUS
 10
37.910702
 20
48.955002
 11
67.910698
 21
48.955002
  0
LINE
  8
0
  6
CONTINUOUS
 10
34.910702
 20
46.323879
 11
34.910702
 21
28.955021
  0
LINE
  8
0
  6
CONTINUOUS
 10
214.910706
 20
46.323879
 11
214.910706
 21
28.955000
  0
LINE
  8
0
  6
CONTINUOUS
 10
176.910706
 20
251.235107
 11
176.910706
 21
266.616760
  0
LINE
  8
0
  6
CONTINUOUS
 10
72.910698
 20
266.616394
 11
72.910698
 21
28.955000
  0
LINE
  8
0
  6
CONTINUOUS
 10
91.410698
 20
30.455000
 11
158.410706
 21
30.455000
  0
LINE
  8
0
  6
CONTINUOUS
 10
77.355301
 20
232.455002
 11
173.142502
 21
232.455002
  0
LINE
  8
0
  6
CONTINUOUS
 10
172.980499
 20
270.616150
 11
124.910698
 21
271.455017
  0
LINE
  8
0
  6
CONTINUOUS
 10
76.840897
 20
270.615784
 11
124.910698
 21
271.455017
  0
LINE
  8
0
  6
CONTINUOUS
 10
51.910702
 20
153.235107
 11
51.910702
 21
234.674881
  0
LINE
  8
0
  6
CONTINUOUS
 10
197.910706
 20
153.235107
 11
197.910706
 21
234.674881
  0
LINE
  8
0
  6
CONTINUOUS
 10
58.910702
 20
94.735100
 11
58.910702
 21
198.095276
  0
LINE
  8
0
  6
CONTINUOUS
 10
190.910706
 20
94.735123
 11
190.910706
 21
198.095276
  0
ARC
  8
0
  6
CONTINUOUS
 10
76.910698
 20
266.616394
 40
4.000000
 50
91.000580
 51
180.000000
  0
ARC
  8
0
  6
CONTINUOUS
 10
172.910706
 20
266.616730
 40
4.000000
 50
0.000000
 51
89.000359
  0
LINE
  8
0
  6
CONTINUOUS
 10
56.987701
 20
241.405563
 11
67.833702
 21
244.504440
  0
LINE
  8
0
  6
CONTINUOUS
 10
181.987701
 20
244.504440
 11
192.833694
 21
241.405563
  0
LINE
  8
0
  6
CONTINUOUS
 10
63.987701
 20
88.004440
 11
67.833702
 21
86.905563
  0
LINE
  8
0
  6
CONTINUOUS
 10
185.833694
 20
88.004440
 11
181.987701
 21
86.905563
  0
LINE
  8
0
  6
CONTINUOUS
 10
212.302094
 20
49.298241
 11
179.519302
 21
53.611759
  0
LINE
  8
0
  6
CONTINUOUS
 10
37.519299
 20
49.298241
 11
70.302101
 21
53.611778
  0
ARC
  8
0
  6
CONTINUOUS
 10
58.910702
 20
234.674927
 40
7.000000
 50
105.945801
 51
180.000000
  0
ARC
  8
0
  6
CONTINUOUS
 10
58.910702
 20
153.235153
 40
7.000000
 50
180.000000
 51
240.000198
  0
ARC
  8
0
  6
CONTINUOUS
 10
190.910706
 20
234.674866
 40
7.000000
 50
0.000000
 51
74.054764
  0
ARC
  8
0
  6
CONTINUOUS
 10
190.910706
 20
153.235092
 40
7.000000
 50
-59.999882
 51
0.000000
  0
ARC
  8
0
  6
CONTINUOUS
 10
65.910698
 20
94.735161
 40
7.000000
 50
180.000000
 51
254.054901
  0
ARC
  8
0
  6
CONTINUOUS
 10
183.910706
 20
94.735100
 40
7.000000
 50
-74.054497
 51
0.000000
  0
LINE
  8
0
  6
CONTINUOUS
 10
176.910706
 20
53.955002
 11
176.910706
 21
251.235107
  0
ARC
  8
0
  6
CONTINUOUS
 10
183.910706
 20
251.235153
 40
7.000000
 50
180.000000
 51
254.054901
  0
ARC
  8
0
  6
CONTINUOUS
 10
183.910706
 20
80.174942
 40
7.000000
 50
105.945801
 51
180.000000
  0
ARC
  8
0
  6
CONTINUOUS
 10
197.910706
 20
141.110748
 40
7.000000
 50
120.000099
 51
180.000000
  0
ARC
  8
0
  6
CONTINUOUS
 10
179.910706
 20
56.586140
 40
3.000000
 50
180.000000
 51
262.504395
  0
ARC
  8
0
  6
CONTINUOUS
 10
211.910706
 20
45.955002
 40
3.000000
 50
0.000000
 51
90.000000
  0
ARC
  8
0
  6
CONTINUOUS
 10
211.910706
 20
46.323860
 40
3.000000
 50
0.000000
 51
82.504204
  0
LINE
  8
0
  6
CONTINUOUS
 10
176.910706
 20
53.955002
 11
176.910706
 21
28.955000
  0
ARC
  8
0
  6
CONTINUOUS
 10
181.910706
 20
53.955021
 40
5.000000
 50
180.000000
 51
270.000000
  0
ARC
  8
0
  6
CONTINUOUS
 10
69.910698
 20
56.586140
 40
3.000000
 50
-82.503883
 51
0.000000
  0
ARC
  8
0
  6
CONTINUOUS
 10
67.910698
 20
53.955002
 40
5.000000
 50
-90.000000
 51
0.000000
  0
ARC
  8
0
  6
CONTINUOUS
 10
37.910702
 20
45.955021
 40
3.000000
 50
90.000000
 51
180.000000
  0
ARC
  8
0
  6
CONTINUOUS
 10
37.910702
 20
46.323898
 40
3.000000
 50
97.496292
 51
180.000000
  0
LINE
  8
0
  6
CONTINUOUS
 10
89.910698
 20
28.955000
 11
91.410698
 21
30.455000
  0
LINE
  8
0
  6
CONTINUOUS
 10
159.910706
 20
28.955000
 11
158.410706
 21
30.455000
  0
ARC
  8
0
  6
CONTINUOUS
 10
65.910698
 20
80.174858
 40
7.000000
 50
0.000000
 51
74.054688
  0
ARC
  8
0
  6
CONTINUOUS
 10
51.910702
 20
141.110779
 40
7.000000
 50
0.000000
 51
60.000092
  0
ARC
  8
0
  6
CONTINUOUS
 10
65.910698
 20
251.235107
 40
7.000000
 50
-74.054443
 51
0.000000
  0
ARC
  8
0
  6
CONTINUOUS
 10
124.910698
 20
140.455002
 40
71.000000
 50
-21.630920
 51
6.068256
  0
ARC
  8
0
  6
CONTINUOUS
 10
124.910698
 20
140.455002
 40
71.000000
 50
173.931793
 51
201.630905
  0
LINE
  8
0
  6
CONTINUOUS
 10
177.910706
 20
83.780479
 11
177.910706
 21
77.455002
  0
LINE
  8
0
  6
CONTINUOUS
 10
71.910698
 20
77.455002
 11
71.910698
 21
83.643997
  0
ARC
  8
0
  6
CONTINUOUS
 10
172.910706
 20
77.455002
 40
5.000000
 50
-36.869869
 51
0.000000
  0
ARC
  8
0
  6
CONTINUOUS
 10
76.910698
 20
77.455002
 40
5.000000
 50
180.000000
 51
216.865204
  0
LINE
  8
0
  6
CONTINUOUS
 10
264.910706
 20
173.955002
 11
264.910706
 21
213.955002
  0
LINE
  8
0
  6
CONTINUOUS
 10
199.910706
 20
213.955002
 11
264.910706
 21
213.955002
  0
LINE
  8
0
  6
CONTINUOUS
 10
199.910706
 20
173.955002
 11
264.910706
 21
173.955002
  0
LINE
  8
0
  6
CONTINUOUS
 10
199.910706
 20
216.455002
 11
199.910706
 21
171.455002
  0
LINE
  8
0
  6
CONTINUOUS
 10
197.910706
 20
216.455002
 11
199.910706
 21
216.455002
  0
LINE
  8
0
  6
CONTINUOUS
 10
197.910706
 20
171.455002
 11
199.910706
 21
171.455002
  0
ARC
  8
0
  6
CONTINUOUS
 10
210.910706
 20
193.955002
 40
6.000000
 50
90.000000
 51
270.000000
  0
LINE
  8
0
  6
CONTINUOUS
 10
210.910706
 20
199.955002
 11
264.910706
 21
199.955002
  0
LINE
  8
0
  6
CONTINUOUS
 10
210.910706
 20
187.955002
 11
264.910706
 21
187.955002
  0
LINE
  8
0
  6
CONTINUOUS
 10
563.752380
 20
95.210999
 11
563.752380
 21
209.455002
  0
LINE
  8
0
  6
CENTER
 10
780.181885
 20
125.455002
 11
508.262390
 21
125.455002
  0
LINE
  8
0
  6
CONTINUOUS
 10
561.752380
 20
211.455002
 11
554.752380
 21
211.455002
  0
LINE
  8
0
  6
CONTINUOUS
 10
561.752380
 20
69.455017
 11
554.752380
 21
69.455017
  0
LINE
  8
0
  6
CONTINUOUS
 10
582.752380
 20
72.455002
 11
611.252380
 21
72.455002
  0
LINE
  8
0
  6
CONTINUOUS
 10
611.252380
 20
178.455002
 11
566.752380
 21
178.455002
  0
LINE
  8
0
  6
CONTINUOUS
 10
565.252380
 20
189.588974
 11
583.840637
 21
178.856934
  0
ARC
  8
0
  6
CONTINUOUS
 10
561.752380
 20
209.455002
 40
2.000000
 50
0.000000
 51
90.000000
  0
ARC
  8
0
  6
CONTINUOUS
 10
561.752380
 20
71.455002
 40
2.000000
 50
-90.000000
 51
-14.477700
  0
LINE
  8
0
  6
CONTINUOUS
 10
582.752380
 20
74.455002
 11
582.752380
 21
91.210999
  0
LINE
  8
0
  6
CONTINUOUS
 10
565.752380
 20
93.210999
 11
580.752380
 21
93.210999
  0
ARC
  8
0
  6
CONTINUOUS
 10
580.752380
 20
91.211021
 40
2.000000
 50
0.000000
 51
90.000000
  0
ARC
  8
0
  6
CONTINUOUS
 10
565.625366
 20
70.455002
 40
2.000000
 50
90.000000
 51
165.522720
  0
ARC
  8
0
  6
CONTINUOUS
 10
565.752380
 20
95.210999
 40
2.000000
 50
180.000000
 51
270.000000
  0
LINE
  8
0
  6
CONTINUOUS
 10
582.752380
 20
72.455002
 11
565.625366
 21
72.455002
  0
ARC
  8
0
  6
CONTINUOUS
 10
584.752380
 20
74.455002
 40
2.000000
 50
180.000000
 51
270.000000
  0
ARC
  8
0
  6
CONTINUOUS
 10
566.752380
 20
181.455002
 40
3.000000
 50
180.000000
 51
270.000000
  0
ARC
  8
0
  6
CONTINUOUS
 10
566.752380
 20
192.187042
 40
3.000000
 50
180.000000
 51
239.999664
  0
ARC
  8
0
  6
CONTINUOUS
 10
585.340637
 20
181.455002
 40
3.000000
 50
-120.000298
 51
-90.000000
  0
LINE
  8
0
  6
CONTINUOUS
 10
611.252380
 20
178.455002
 11
611.252380
 21
72.455002
  0
LINE
  8
0
  6
CONTINUOUS
 10
382.883911
 20
428.639679
 11
428.753021
 21
428.639587
  0
LINE
  8
0
  6
CONTINUOUS
 10
382.884521
 20
608.639709
 11
451.753021
 21
608.639709
  0
LINE
  8
0
  6
CENTER
 10
451.752930
 20
628.955017
 11
451.752380
 21
353.561646
  0
LINE
  8
0
  6
CENTER
 10
376.899200
 20
448.638824
 11
405.267273
 21
448.638824
  0
LINE
  8
0
  6
CONTINUOUS
 10
361.752716
 20
518.639587
 11
362.660706
 21
570.639648
  0
LINE
  8
0
  6
CONTINUOUS
 10
373.429901
 20
601.897095
 11
362.660706
 21
570.639648
  0
ARC
  8
0
  6
CONTINUOUS
 10
382.884308
 20
598.639648
 40
10.000000
 50
90.000000
 51
160.989105
  0
ARC
  8
0
  6
CONTINUOUS
 10
391.752716
 20
448.638824
 40
7.500000
 50
-226.074890
 51
32.226799
  0
LINE
  8
0
  6
CONTINUOUS
 10
361.752716
 20
518.639587
 11
362.660522
 21
466.639679
  0
LINE
  8
0
  6
CONTINUOUS
 10
373.429504
 20
435.382263
 11
362.660522
 21
466.639679
  0
ARC
  8
0
  6
CONTINUOUS
 10
382.883911
 20
438.639679
 40
10.000000
 50
199.010895
 51
270.000000
  0
LINE
  8
0
  6
CONTINUOUS
 10
541.752686
 20
518.639404
 11
540.844910
 21
570.639343
  0
LINE
  8
0
  6
CONTINUOUS
 10
530.075928
 20
601.896851
 11
540.844910
 21
570.639343
  0
ARC
  8
0
  6
CONTINUOUS
 10
520.621338
 20
598.639404
 40
10.000000
 50
19.010900
 51
90.000000
  0
LINE
  8
0
  6
CONTINUOUS
 10
541.752686
 20
518.639404
 11
540.896179
 21
469.586823
  0
LINE
  8
0
  6
CONTINUOUS
 10
530.075500
 20
435.382080
 11
540.497864
 21
465.632812
  0
LINE
  8
0
  6
CONTINUOUS
 10
552.714905
 20
447.639465
 11
554.752502
 21
447.639465
  0
LINE
  8
0
  6
CONTINUOUS
 10
554.752502
 20
447.639465
 11
554.752930
 21
589.639343
  0
LINE
  8
0
  6
CONTINUOUS
 10
543.642944
 20
461.451263
 11
545.953491
 21
452.827667
  0
ARC
  8
0
  6
CONTINUOUS
 10
552.714905
 20
454.639465
 40
7.000000
 50
194.999893
 51
270.000000
  0
ARC
  8
0
  6
CONTINUOUS
 10
536.881287
 20
459.639465
 40
7.000000
 50
14.999700
 51
90.000000
  0
LINE
  8
0
  6
CONTINUOUS
 10
552.715332
 20
589.639343
 11
554.752930
 21
589.639343
  0
LINE
  8
0
  6
CONTINUOUS
 10
543.643127
 20
575.827576
 11
545.953735
 21
584.451111
  0
ARC
  8
0
  6
CONTINUOUS
 10
552.715332
 20
582.639343
 40
7.000000
 50
90.000000
 51
165.000107
  0
ARC
  8
0
  6
CONTINUOUS
 10
536.881531
 20
577.639343
 40
7.000000
 50
301.109222
 51
345.000336
  0
ARC
  8
0
  6
CONTINUOUS
 10
520.621338
 20
438.639038
 40
10.000000
 50
270.000000
 51
340.989105
  0
ARC
  8
0
  6
CONTINUOUS
 10
511.752899
 20
448.638153
 40
7.500000
 50
-212.232941
 51
58.076355
  0
LINE
  8
0
  6
CENTER
 10
391.752991
 20
460.440430
 11
391.752502
 21
436.564026
  0
LINE
  8
0
  6
CENTER
 10
498.742310
 20
448.638733
 11
524.320068
 21
448.638733
  0
LINE
  8
0
  6
CENTER
 10
511.752716
 20
460.440430
 11
511.752502
 21
436.563843
  0
LINE
  8
0
  6
CONTINUOUS
 10
365.608612
 20
466.639221
 11
537.896667
 21
466.639221
  0
LINE
  8
0
  6
CONTINUOUS
 10
494.533478
 20
445.639221
 11
408.972565
 21
445.639221
  0
ARC
  8
0
  6
CONTINUOUS
 10
365.608612
 20
469.639221
 40
3.000000
 50
181.000153
 51
270.000000
  0
ARC
  8
0
  6
CONTINUOUS
 10
537.896667
 20
469.639221
 40
3.000000
 50
270.000000
 51
358.999634
  0
LINE
  8
0
  6
CONTINUOUS
 10
365.608612
 20
570.639221
 11
537.896667
 21
570.639221
  0
ARC
  8
0
  6
CONTINUOUS
 10
365.608612
 20
567.639221
 40
3.000000
 50
90.000000
 51
178.999847
  0
ARC
  8
0
  6
CONTINUOUS
 10
537.896667
 20
567.639221
 40
3.000000
 50
1.000372
 51
90.000000
  0
LINE
  8
0
  6
CONTINUOUS
 10
416.752808
 20
565.639221
 11
416.752808
 21
471.639221
  0
LINE
  8
0
  6
CONTINUOUS
 10
486.752808
 20
565.639221
 11
486.752808
 21
471.639221
  0
LINE
  8
0
  6
CONTINUOUS
 10
510.472809
 20
452.639221
 11
503.753021
 21
452.639221
  0
LINE
  8
0
  6
CONTINUOUS
 10
390.752899
 20
452.639221
 11
399.753021
 21
452.639221
  0
ARC
  8
0
  6
CONTINUOUS
 10
390.752899
 20
459.639221
 40
7.000000
 50
180.000000
 51
270.000000
  0
ARC
  8
0
  6
CONTINUOUS
 10
376.752899
 20
459.639221
 40
7.000000
 50
0.000000
 51
90.000000
  0
LINE
  8
0
  6
CENTER
 10
376.899200
 20
588.638733
 11
405.267273
 21
588.638733
  0
ARC
  8
0
  6
CONTINUOUS
 10
391.752716
 20
588.638733
 40
7.500000
 50
-32.226799
 51
226.074890
  0
ARC
  8
0
  6
CONTINUOUS
 10
511.752899
 20
588.639404
 40
7.500000
 50
-46.078163
 51
212.232941
  0
LINE
  8
0
  6
CENTER
 10
391.752991
 20
576.837158
 11
391.752502
 21
600.713562
  0
LINE
  8
0
  6
CENTER
 10
498.742310
 20
588.638855
 11
524.320068
 21
588.638855
  0
LINE
  8
0
  6
CENTER
 10
511.752716
 20
576.837158
 11
511.752502
 21
600.713745
  0
LINE
  8
0
  6
CONTINUOUS
 10
494.533478
 20
591.639221
 11
408.972565
 21
591.639221
  0
LINE
  8
0
  6
CONTINUOUS
 10
512.752930
 20
584.639221
 11
503.753021
 21
584.639282
  0
ARC
  8
0
  6
CONTINUOUS
 10
512.752930
 20
577.639221
 40
7.000000
 50
0.000000
 51
90.000000
  0
ARC
  8
0
  6
CONTINUOUS
 10
526.752930
 20
577.639221
 40
7.000000
 50
180.000000
 51
270.000000
  0
LINE
  8
0
  6
CONTINUOUS
 10
390.752899
 20
584.639221
 11
399.753021
 21
584.639282
  0
ARC
  8
0
  6
CONTINUOUS
 10
390.752899
 20
577.639221
 40
7.000000
 50
90.000000
 51
180.000000
  0
ARC
  8
0
  6
CONTINUOUS
 10
376.752899
 20
577.639221
 40
7.000000
 50
-90.000000
 51
0.000000
  0
LINE
  8
0
  6
CONTINUOUS
 10
517.203491
 20
457.716156
 11
518.302368
 21
461.562256
  0
ARC
  8
0
  6
CONTINUOUS
 10
510.472809
 20
459.639221
 40
7.000000
 50
270.000000
 51
344.054596
  0
ARC
  8
0
  6
CONTINUOUS
 10
525.033020
 20
459.639221
 40
7.000000
 50
90.000000
 51
164.054611
  0
LINE
  8
0
  6
CONTINUOUS
 10
471.752716
 20
378.639435
 11
428.753021
 21
378.639435
  0
LINE
  8
0
  6
CONTINUOUS
 10
431.752716
 20
443.639435
 11
431.752716
 21
438.639435
  0
LINE
  8
0
  6
CONTINUOUS
 10
471.752716
 20
443.639435
 11
471.752716
 21
378.639435
  0
LINE
  8
0
  6
CONTINUOUS
 10
429.252716
 20
443.639435
 11
474.252716
 21
443.639435
  0
LINE
  8
0
  6
CONTINUOUS
 10
429.252716
 20
445.639435
 11
429.252716
 21
443.639435
  0
LINE
  8
0
  6
CONTINUOUS
 10
474.252716
 20
445.639435
 11
474.252716
 21
443.639435
  0
LINE
  8
0
  6
CONTINUOUS
 10
471.752716
 20
428.639526
 11
520.620911
 21
428.639465
  0
LINE
  8
0
  6
CONTINUOUS
 10
451.753021
 20
608.639526
 11
520.621338
 21
608.639404
  0
LINE
  8
0
  6
CONTINUOUS
 10
428.753021
 20
378.639435
 11
428.753021
 21
438.639435
  0
LINE
  8
0
  6
CONTINUOUS
 10
432.674042
 20
438.639435
 11
428.753021
 21
438.639435
  0
LINE
  8
0
  6
CONTINUOUS
 10
499.848267
 20
448.083679
 11
503.753021
 21
452.639221
  0
ARC
  8
0
  6
CONTINUOUS
 10
494.533478
 20
452.639221
 40
7.000000
 50
270.000000
 51
319.398712
  0
LINE
  8
0
  6
CONTINUOUS
 10
403.657776
 20
448.083679
 11
399.753021
 21
452.639221
  0
ARC
  8
0
  6
CONTINUOUS
 10
408.972565
 20
452.639221
 40
7.000000
 50
220.601288
 51
270.000000
  0
LINE
  8
0
  6
CONTINUOUS
 10
403.657776
 20
589.194824
 11
399.753021
 21
584.639282
  0
ARC
  8
0
  6
CONTINUOUS
 10
408.972565
 20
584.639282
 40
7.000000
 50
90.000000
 51
139.398712
  0
LINE
  8
0
  6
CONTINUOUS
 10
499.848267
 20
589.194824
 11
503.753021
 21
584.639282
  0
ARC
  8
0
  6
CONTINUOUS
 10
494.533478
 20
584.639282
 40
7.000000
 50
40.601295
 51
90.000000
  0
LINE
  8
0
  6
CONTINUOUS
 10
432.674042
 20
378.639435
 11
432.674042
 21
438.639435
  0
LINE
  8
0
  6
CENTER
 10
338.551788
 20
518.639404
 11
782.998169
 21
518.639404
  0
LINE
  8
0
  6
CONTINUOUS
 10
561.752502
 20
447.639435
 11
554.752502
 21
447.639435
  0
LINE
  8
0
  6
CONTINUOUS
 10
563.752502
 20
587.639404
 11
563.752502
 21
449.639435
  0
LINE
  8
0
  6
CONTINUOUS
 10
561.752502
 20
589.639404
 11
554.752930
 21
589.639404
  0
LINE
  8
0
  6
CONTINUOUS
 10
611.252502
 20
465.639435
 11
563.752502
 21
465.639435
  0
LINE
  8
0
  6
CONTINUOUS
 10
611.252502
 20
571.639404
 11
563.752502
 21
571.639404
  0
LINE
  8
0
  6
CONTINUOUS
 10
611.252502
 20
465.639435
 11
611.252502
 21
571.639404
  0
ARC
  8
0
  6
CONTINUOUS
 10
561.752502
 20
449.639435
 40
2.000000
 50
-90.000000
 51
0.000000
  0
ARC
  8
0
  6
CONTINUOUS
 10
561.752502
 20
587.639404
 40
2.000000
 50
0.000000
 51
90.000000
  0
ARC
  8
0
  6
CONTINUOUS
 10
564.537415
 20
518.639404
 40
20.000000
 50
-38.438709
 51
0.000000
  0
LINE
  8
0
  6
CONTINUOUS
 10
563.752502
 20
485.479431
 11
580.202942
 21
506.205872
  0
ARC
  8
0
  6
CONTINUOUS
 10
564.537415
 20
518.639404
 40
20.000000
 50
0.000000
 51
38.438709
  0
LINE
  8
0
  6
CONTINUOUS
 10
563.752502
 20
551.799438
 11
580.202942
 21
531.072998
  0
LINE
  8
0
  6
CONTINUOUS
 10
741.252380
 20
571.639404
 11
741.252380
 21
543.639465
  0
LINE
  8
0
  6
CONTINUOUS
 10
741.253052
 20
465.639435
 11
611.253052
 21
465.639435
  0
LINE
  8
0
  6
CONTINUOUS
 10
741.253052
 20
571.639404
 11
611.253052
 21
571.639404
  0
LINE
  8
0
  6
CONTINUOUS
 10
741.252380
 20
487.139435
 11
621.252380
 21
487.139435
  0
LINE
  8
0
  6
CONTINUOUS
 10
741.252380
 20
550.139404
 11
621.252380
 21
550.139404
  0
LINE
  8
0
  6
CONTINUOUS
 10
621.252380
 20
467.639435
 11
621.252380
 21
487.139435
  0
ARC
  8
0
  6
CONTINUOUS
 10
619.252380
 20
467.639404
 40
2.000000
 50
-90.000000
 51
0.000000
  0
ARC
  8
0
  6
CONTINUOUS
 10
619.252380
 20
569.639404
 40
2.000000
 50
0.000000
 51
90.000000
  0
LINE
  8
0
  6
CONTINUOUS
 10
761.752380
 20
518.639404
 11
761.752380
 21
473.639435
  0
LINE
  8
0
  6
CONTINUOUS
 10
761.752380
 20
518.639404
 11
761.752380
 21
563.639404
  0
LINE
  8
0
  6
CONTINUOUS
 10
761.252380
 20
469.639435
 11
761.252380
 21
563.639404
  0
LINE
  8
0
  6
CONTINUOUS
 10
756.162231
 20
465.639435
 11
741.252380
 21
465.639435
  0
LINE
  8
0
  6
CONTINUOUS
 10
756.162231
 20
571.639404
 11
741.252380
 21
571.639404
  0
LINE
  8
0
  6
CONTINUOUS
 10
761.252380
 20
563.639404
 11
761.252380
 21
567.639404
  0
LINE
  8
0
  6
CONTINUOUS
 10
760.634338
 20
468.403381
 11
761.252380
 21
469.639435
  0
ARC
  8
0
  6
CONTINUOUS
 10
756.162231
 20
470.639404
 40
5.000000
 50
270.000000
 51
333.435211
  0
LINE
  8
0
  6
CONTINUOUS
 10
760.634338
 20
568.875488
 11
761.252380
 21
567.639404
  0
ARC
  8
0
  6
CONTINUOUS
 10
756.162231
 20
566.639404
 40
5.000000
 50
26.565001
 51
90.000000
  0
LINE
  8
0
  6
CONTINUOUS
 10
761.752380
 20
563.639404
 11
761.252380
 21
564.139404
  0
LINE
  8
0
  6
CONTINUOUS
 10
761.752380
 20
473.639435
 11
761.252380
 21
473.139435
  0
LINE
  8
0
  6
CONTINUOUS
 10
741.252380
 20
487.139435
 11
759.377380
 21
487.139435
  0
LINE
  8
0
  6
CONTINUOUS
 10
741.252380
 20
550.139404
 11
759.377380
 21
550.139404
  0
LINE
  8
0
  6
CONTINUOUS
 10
741.252380
 20
493.639465
 11
741.252380
 21
465.639435
  0
LINE
  8
0
  6
CENTER
 10
451.752380
 20
285.538544
 11
451.752380
 21
17.333534
  0
LINE
  8
0
  6
CENTER
 10
522.867432
 20
193.955002
 11
380.272430
 21
193.955002
  0
LINE
  8
0
  6
CONTINUOUS
 10
541.752380
 20
28.955000
 11
361.752380
 21
28.955000
  0
LINE
  8
0
  6
CONTINUOUS
 10
541.752380
 20
48.955002
 11
361.752380
 21
48.955002
  0
LINE
  8
0
  6
CONTINUOUS
 10
483.566772
 20
271.454987
 11
419.937988
 21
271.454987
  0
LINE
  8
0
  6
CONTINUOUS
 10
361.752380
 20
227.287003
 11
361.752380
 21
28.955000
  0
LINE
  8
0
  6
CONTINUOUS
 10
541.752380
 20
227.287003
 11
541.752380
 21
28.955000
  0
LINE
  8
0
  6
CONTINUOUS
 10
554.752380
 20
211.455002
 11
546.752380
 21
211.455002
  0
LINE
  8
0
  6
CONTINUOUS
 10
554.752380
 20
69.455002
 11
546.752380
 21
69.455002
  0
LINE
  8
0
  6
CONTINUOUS
 10
414.153778
 20
269.612335
 11
365.967987
 21
235.444321
  0
LINE
  8
0
  6
CONTINUOUS
 10
537.536560
 20
235.444321
 11
489.350983
 21
269.612335
  0
ARC
  8
0
  6
CONTINUOUS
 10
371.752380
 20
227.286957
 40
10.000000
 50
125.339897
 51
180.000000
  0
ARC
  8
0
  6
CONTINUOUS
 10
419.937988
 20
261.454987
 40
10.000000
 50
90.000000
 51
125.339996
  0
ARC
  8
0
  6
CONTINUOUS
 10
483.566772
 20
261.454987
 40
10.000000
 50
54.659698
 51
90.000000
  0
ARC
  8
0
  6
CONTINUOUS
 10
531.752380
 20
227.287033
 40
10.000000
 50
0.000000
 51
54.659500
  0
ARC
  8
0
  6
CONTINUOUS
 10
546.752380
 20
216.455002
 40
5.000000
 50
180.000000
 51
270.000000
  0
ARC
  8
0
  6
CONTINUOUS
 10
546.752380
 20
64.454979
 40
5.000000
 50
90.000000
 51
180.000000
  0
LINE
  8
0
  6
CENTER
 10
391.752380
 20
56.043533
 11
391.752380
 21
22.468534
  0
LINE
  8
0
  6
CENTER
 10
511.752380
 20
54.858536
 11
511.752380
 21
22.468534
  0
LINE
  8
0
  6
DASHED
 10
399.252380
 20
48.955002
 11
399.252380
 21
28.955000
  0
LINE
  8
0
  6
DASHED
 10
384.252380
 20
48.955002
 11
384.252380
 21
28.955000
  0
LINE
  8
0
  6
DASHED
 10
504.252380
 20
48.955002
 11
504.252380
 21
28.955000
  0
LINE
  8
0
  6
DASHED
 10
519.252380
 20
48.955002
 11
519.252380
 21
28.955000
  0
LINE
  8
0
  6
CONTINUOUS
 10
375.752380
 20
46.269680
 11
375.752380
 21
28.955000
  0
LINE
  8
0
  6
CONTINUOUS
 10
527.752380
 20
46.269680
 11
527.752380
 21
28.955000
  0
LINE
  8
0
  6
CONTINUOUS
 10
417.994995
 20
53.955002
 11
485.509796
 21
53.955002
  0
LINE
  8
0
  6
CONTINUOUS
 10
486.752380
 20
52.818119
 11
486.752380
 21
49.955002
  0
LINE
  8
0
  6
CONTINUOUS
 10
416.752380
 20
52.818119
 11
416.752380
 21
49.955002
  0
LINE
  8
0
  6
CONTINUOUS
 10
415.873779
 20
53.076321
 11
413.216797
 21
50.419441
  0
LINE
  8
0
  6
CONTINUOUS
 10
487.630981
 20
53.076321
 11
490.287994
 21
50.419498
  0
ARC
  8
0
  6
CONTINUOUS
 10
493.823395
 20
53.955002
 40
5.000000
 50
-135.000107
 51
-90.000000
  0
ARC
  8
0
  6
CONTINUOUS
 10
409.681396
 20
53.955002
 40
5.000000
 50
-90.000000
 51
-45.000111
  0
ARC
  8
0
  6
CONTINUOUS
 10
485.509796
 20
50.955002
 40
3.000000
 50
44.999599
 51
90.000000
  0
ARC
  8
0
  6
CONTINUOUS
 10
417.994995
 20
50.955002
 40
3.000000
 50
90.000000
 51
134.999695
  0
ARC
  8
0
  6
CONTINUOUS
 10
487.752380
 20
49.955002
 40
1.000000
 50
180.000000
 51
270.000000
  0
ARC
  8
0
  6
CONTINUOUS
 10
415.752380
 20
49.955002
 40
1.000000
 50
-90.000000
 51
0.000000
  0
CIRCLE
  8
0
  6
CONTINUOUS
 10
451.752380
 20
193.955002
 40
46.000000
  0
ARC
  8
0
  6
CONTINUOUS
 10
451.752380
 20
193.955002
 40
52.000000
 50
12.522600
 51
167.477295
  0
ARC
  8
0
  6
CONTINUOUS
 10
451.752380
 20
193.955002
 40
48.000000
 50
-192.522705
 51
12.522580
  0
ARC
  8
0
  6
CONTINUOUS
 10
481.752380
 20
123.455002
 40
34.000000
 50
-90.000000
 51
12.522600
  0
ARC
  8
0
  6
CONTINUOUS
 10
481.752380
 20
123.455002
 40
38.000000
 50
-90.000000
 51
12.522600
  0
ARC
  8
0
  6
CONTINUOUS
 10
421.752380
 20
123.455002
 40
34.000000
 50
167.477295
 51
270.000000
  0
ARC
  8
0
  6
CONTINUOUS
 10
421.752380
 20
123.455002
 40
38.000000
 50
167.477295
 51
270.000000
  0
LINE
  8
0
  6
CONTINUOUS
 10
518.848389
 20
131.694366
 11
502.515381
 21
205.229904
  0
LINE
  8
0
  6
CONTINUOUS
 10
400.989380
 20
205.229996
 11
384.656372
 21
131.694427
  0
LINE
  8
0
  6
CONTINUOUS
 10
404.894196
 20
204.362686
 11
388.561188
 21
130.827118
  0
LINE
  8
0
  6
CONTINUOUS
 10
514.943604
 20
130.827057
 11
498.610382
 21
204.362625
  0
LINE
  8
0
  6
CONTINUOUS
 10
481.752380
 20
89.455002
 11
421.752380
 21
89.455002
  0
LINE
  8
0
  6
CONTINUOUS
 10
481.752380
 20
85.455002
 11
421.752380
 21
85.455002
  0
ARC
  8
0
  6
CONTINUOUS
 10
332.070770
 20
140.455002
 40
215.181595
 50
-12.982100
 51
12.982100
  0
LINE
  8
0
  6
CONTINUOUS
 10
439.525391
 20
107.455002
 11
434.584991
 21
107.455002
  0
LINE
  8
0
  6
CONTINUOUS
 10
442.252380
 20
115.730400
 11
442.252380
 21
107.455002
  0
LINE
  8
0
  6
CONTINUOUS
 10
447.002380
 20
118.736237
 11
447.002380
 21
121.705002
  0
LINE
  8
0
  6
CONTINUOUS
 10
456.502380
 20
118.736237
 11
456.502380
 21
121.705002
  0
LINE
  8
0
  6
CONTINUOUS
 10
450.824585
 20
119.960861
 11
450.824585
 21
109.013603
  0
LINE
  8
0
  6
CONTINUOUS
 10
452.605988
 20
119.960861
 11
452.605988
 21
109.013603
  0
LINE
  8
0
  6
CONTINUOUS
 10
461.957367
 20
119.960861
 11
461.957367
 21
108.939377
  0
LINE
  8
0
  6
CONTINUOUS
 10
463.590393
 20
114.116142
 11
463.590393
 21
108.939377
  0
LINE
  8
0
  6
CONTINUOUS
 10
439.998383
 20
119.812424
 11
435.420593
 21
119.812424
  0
LINE
  8
0
  6
CONTINUOUS
 10
435.420593
 20
119.812424
 11
434.347992
 21
118.482422
  0
LINE
  8
0
  6
CONTINUOUS
 10
434.476990
 20
121.705002
 11
432.752380
 21
119.496536
  0
LINE
  8
0
  6
CONTINUOUS
 10
434.347992
 20
110.272842
 11
435.437775
 21
109.124924
  0
LINE
  8
0
  6
CONTINUOUS
 10
432.752380
 20
109.304123
 11
434.584991
 21
107.455002
  0
LINE
  8
0
  6
CONTINUOUS
 10
432.752380
 20
119.496536
 11
432.752380
 21
109.304123
  0
LINE
  8
0
  6
CONTINUOUS
 10
434.347992
 20
118.482422
 11
434.347992
 21
110.272842
  0
LINE
  8
0
  6
CONTINUOUS
 10
440.879395
 20
118.960861
 11
439.980377
 21
119.812424
  0
LINE
  8
0
  6
CONTINUOUS
 10
440.864990
 20
121.705002
 11
442.252380
 21
120.165421
  0
LINE
  8
0
  6
CONTINUOUS
 10
440.879395
 20
118.736237
 11
442.252380
 21
118.736237
  0
LINE
  8
0
  6
CONTINUOUS
 10
434.476990
 20
121.705002
 11
440.864990
 21
121.705002
  0
LINE
  8
0
  6
CONTINUOUS
 10
438.392975
 20
115.730400
 11
442.252380
 21
115.730400
  0
LINE
  8
0
  6
CONTINUOUS
 10
440.879395
 20
114.171799
 11
438.392975
 21
114.171799
  0
LINE
  8
0
  6
CONTINUOUS
 10
437.910583
 20
109.124924
 11
435.437775
 21
109.124924
  0
LINE
  8
0
  6
CONTINUOUS
 10
440.879395
 20
112.687424
 11
440.879395
 21
113.874924
  0
ARC
  8
0
  6
CONTINUOUS
 10
437.910583
 20
112.093658
 40
2.968750
 50
-89.999786
 51
0.000109
  0
LINE
  8
0
  6
CONTINUOUS
 10
440.879395
 20
108.590919
 11
440.879395
 21
107.455002
  0
LINE
  8
0
  6
CONTINUOUS
 10
442.252380
 20
120.165421
 11
442.252380
 21
118.736237
  0
LINE
  8
0
  6
CONTINUOUS
 10
440.879395
 20
114.171799
 11
440.879395
 21
112.093658
  0
LINE
  8
0
  6
CONTINUOUS
 10
438.392975
 20
115.730400
 11
438.392975
 21
114.171799
  0
LINE
  8
0
  6
CONTINUOUS
 10
440.879395
 20
107.455002
 11
442.252380
 21
107.455002
  0
LINE
  8
0
  6
CONTINUOUS
 10
440.879395
 20
108.590919
 11
439.525391
 21
107.455002
  0
LINE
  8
0
  6
CONTINUOUS
 10
452.605988
 20
109.013603
 11
453.199585
 21
109.013603
  0
LINE
  8
0
  6
CONTINUOUS
 10
450.119568
 20
109.013603
 11
450.119568
 21
107.455002
  0
LINE
  8
0
  6
CONTINUOUS
 10
453.199585
 20
109.013603
 11
453.199585
 21
107.455002
  0
LINE
  8
0
  6
CONTINUOUS
 10
455.511383
 20
118.736237
 11
456.502380
 21
118.736237
  0
LINE
  8
0
  6
CONTINUOUS
 10
447.002380
 20
118.736237
 11
448.056976
 21
118.736237
  0
LINE
  8
0
  6
CONTINUOUS
 10
447.002380
 20
121.705002
 11
456.502380
 21
121.705002
  0
LINE
  8
0
  6
CONTINUOUS
 10
450.119568
 20
107.455002
 11
453.199585
 21
107.455002
  0
LINE
  8
0
  6
CONTINUOUS
 10
450.119568
 20
109.013603
 11
450.824585
 21
109.013603
  0
ARC
  8
0
  6
CONTINUOUS
 10
466.948578
 20
117.901283
 40
3.803712
 50
-73.981873
 51
90.003510
  0
ARC
  8
0
  6
CONTINUOUS
 10
466.948578
 20
117.901283
 40
2.320524
 50
-82.585274
 51
62.411850
  0
LINE
  8
0
  6
CONTINUOUS
 10
461.252380
 20
121.705002
 11
466.948578
 21
121.705002
  0
LINE
  8
0
  6
CONTINUOUS
 10
467.248169
 20
115.600159
 11
463.590393
 21
115.600159
  0
LINE
  8
0
  6
CONTINUOUS
 10
461.252380
 20
121.705002
 11
461.252380
 21
119.960861
  0
LINE
  8
0
  6
CONTINUOUS
 10
463.590393
 20
119.960861
 11
463.590393
 21
115.600159
  0
LINE
  8
0
  6
CONTINUOUS
 10
467.998169
 20
114.245262
 11
470.352570
 21
108.939377
  0
LINE
  8
0
  6
CONTINUOUS
 10
466.630981
 20
114.116142
 11
468.858795
 21
108.939377
  0
LINE
  8
0
  6
CONTINUOUS
 10
461.252380
 20
108.939377
 11
461.957367
 21
108.939377
  0
LINE
  8
0
  6
CONTINUOUS
 10
463.590393
 20
108.939377
 11
464.239777
 21
108.939377
  0
LINE
  8
0
  6
CONTINUOUS
 10
464.239777
 20
107.455002
 11
461.252380
 21
107.455002
  0
LINE
  8
0
  6
CONTINUOUS
 10
468.562988
 20
108.939377
 11
468.858795
 21
108.939377
  0
LINE
  8
0
  6
CONTINUOUS
 10
470.352570
 20
108.939377
 11
470.752380
 21
108.939377
  0
LINE
  8
0
  6
CONTINUOUS
 10
468.562988
 20
107.455002
 11
470.752380
 21
107.455002
  0
LINE
  8
0
  6
CONTINUOUS
 10
470.752380
 20
108.939377
 11
470.752380
 21
107.455002
  0
LINE
  8
0
  6
CONTINUOUS
 10
468.562988
 20
108.939377
 11
468.562988
 21
107.455002
  0
LINE
  8
0
  6
CONTINUOUS
 10
464.239777
 20
108.939377
 11
464.239777
 21
107.455002
  0
LINE
  8
0
  6
CONTINUOUS
 10
461.252380
 20
108.939377
 11
461.252380
 21
107.455002
  0
LINE
  8
0
  6
CONTINUOUS
 10
448.567169
 20
119.960861
 11
448.056976
 21
118.736237
  0
LINE
  8
0
  6
CONTINUOUS
 10
455.081177
 20
119.960861
 11
455.511383
 21
118.736237
  0
LINE
  8
0
  6
CONTINUOUS
 10
452.605988
 20
119.960861
 11
455.081177
 21
119.960861
  0
LINE
  8
0
  6
CONTINUOUS
 10
450.824585
 20
119.960861
 11
448.567169
 21
119.960861
  0
LINE
  8
0
  6
CONTINUOUS
 10
463.590393
 20
114.116142
 11
466.630981
 21
114.116142
  0
LINE
  8
0
  6
CONTINUOUS
 10
461.252380
 20
119.960861
 11
461.957367
 21
119.960861
  0
LINE
  8
0
  6
CONTINUOUS
 10
463.590393
 20
119.960861
 11
468.023376
 21
119.957977
  0
LINE
  8
0
  6
CONTINUOUS
 10
440.879395
 20
118.960861
 11
440.879395
 21
118.736237
  0
LINE
  8
0
  6
CONTINUOUS
 10
536.752380
 20
203.881424
 11
536.752380
 21
119.028603
  0
LINE
  8
0
  6
CONTINUOUS
 10
366.752380
 20
203.881393
 11
366.752380
 21
119.028603
  0
ARC
  8
0
  6
CONTINUOUS
 10
451.752380
 20
161.455002
 40
105.000000
 50
50.655579
 51
129.521500
  0
ARC
  8
0
  6
CONTINUOUS
 10
451.752380
 20
161.455002
 40
105.000000
 50
230.478897
 51
309.521606
  0
ARC
  8
0
  6
CONTINUOUS
 10
486.752380
 20
203.881424
 40
50.000000
 50
0.000000
 51
51.150589
  0
ARC
  8
0
  6
CONTINUOUS
 10
416.752380
 20
203.881393
 40
50.000000
 50
129.521698
 51
180.000000
  0
ARC
  8
0
  6
CONTINUOUS
 10
416.752380
 20
119.028603
 40
50.000000
 50
180.000000
 51
230.479202
  0
ARC
  8
0
  6
CONTINUOUS
 10
486.752380
 20
119.028603
 40
50.000000
 50
-50.478550
 51
0.000000
  0
LINE
  8
0
  6
CONTINUOUS
 10
436.752380
 20
199.955002
 11
436.752380
 21
187.955002
  0
LINE
  8
0
  6
CONTINUOUS
 10
428.752380
 20
199.955002
 11
428.752380
 21
187.955002
  0
LINE
  8
0
  6
CONTINUOUS
 10
428.752380
 20
199.955002
 11
436.752380
 21
199.955002
  0
LINE
  8
0
  6
CONTINUOUS
 10
428.752380
 20
187.955002
 11
436.752380
 21
187.955002
  0
ARC
  8
0
  6
CONTINUOUS
 10
451.752380
 20
193.955002
 40
20.000000
 50
-162.542404
 51
162.542404
  0
LINE
  8
0
  6
CONTINUOUS
 10
750.252380
 20
541.639465
 11
750.252380
 21
495.639435
  0
LINE
  8
0
  6
CONTINUOUS
 10
748.252380
 20
493.639435
 11
750.252380
 21
495.639435
  0
LINE
  8
0
  6
CONTINUOUS
 10
748.252380
 20
493.639435
 11
702.252380
 21
493.639435
  0
LINE
  8
0
  6
CONTINUOUS
 10
707.752380
 20
498.139435
 11
707.752380
 21
493.639435
  0
ARC
  8
0
  6
CONTINUOUS
 10
704.752380
 20
498.139435
 40
3.000000
 50
0.000000
 51
90.000000
  0
LINE
  8
0
  6
CONTINUOUS
 10
704.752380
 20
501.139435
 11
700.252380
 21
501.139435
  0
CIRCLE
  8
0
  6
CONTINUOUS
 10
703.752380
 20
497.139435
 40
2.250000
  0
LINE
  8
0
  6
CONTINUOUS
 10
700.252380
 20
541.639465
 11
700.252380
 21
495.639435
  0
LINE
  8
0
  6
CONTINUOUS
 10
702.252380
 20
493.639435
 11
700.252380
 21
495.639435
  0
LINE
  8
0
  6
CONTINUOUS
 10
702.252380
 20
543.639465
 11
700.252380
 21
541.639465
  0
LINE
  8
0
  6
CONTINUOUS
 10
702.252380
 20
543.639465
 11
748.252380
 21
543.639465
  0
LINE
  8
0
  6
CONTINUOUS
 10
750.252380
 20
541.639465
 11
748.252380
 21
543.639465
  0
LINE
  8
0
  6
CONTINUOUS
 10
745.752380
 20
536.139465
 11
750.252380
 21
536.139465
  0
CIRCLE
  8
0
  6
CONTINUOUS
 10
746.752380
 20
540.139465
 40
2.250000
  0
ARC
  8
0
  6
CONTINUOUS
 10
745.752380
 20
539.139465
 40
3.000000
 50
180.000000
 51
270.000000
  0
LINE
  8
0
  6
CONTINUOUS
 10
742.752380
 20
539.139465
 11
742.752380
 21
543.639465
  0
LINE
  8
0
  6
CENTER
 10
725.252380
 20
551.105225
 11
725.252380
 21
486.973206
  0
LINE
  8
0
  6
CONTINUOUS
 10
749.252380
 20
536.139404
 11
749.252380
 21
501.139435
  0
LINE
  8
0
  6
CONTINUOUS
 10
707.752380
 20
494.639435
 11
742.752380
 21
494.639435
  0
LINE
  8
0
  6
CONTINUOUS
 10
701.252380
 20
501.139435
 11
701.252380
 21
536.139404
  0
LINE
  8
0
  6
CONTINUOUS
 10
742.752380
 20
542.639404
 11
707.752380
 21
542.639404
  0
ARC
  8
0
  6
CONTINUOUS
 10
745.752380
 20
498.139435
 40
3.000000
 50
90.000000
 51
180.000000
  0
LINE
  8
0
  6
CONTINUOUS
 10
742.752380
 20
498.139435
 11
742.752380
 21
493.639435
  0
CIRCLE
  8
0
  6
CONTINUOUS
 10
746.752380
 20
497.139435
 40
2.250000
  0
LINE
  8
0
  6
CONTINUOUS
 10
745.752380
 20
501.139435
 11
750.252380
 21
501.139435
  0
CIRCLE
  8
0
  6
CONTINUOUS
 10
703.752380
 20
540.139404
 40
2.250000
  0
LINE
  8
0
  6
CONTINUOUS
 10
707.752380
 20
539.139404
 11
707.752380
 21
543.639404
  0
ARC
  8
0
  6
CONTINUOUS
 10
704.752380
 20
539.139404
 40
3.000000
 50
-90.000000
 51
0.000000
  0
LINE
  8
0
  6
CONTINUOUS
 10
704.752380
 20
536.139404
 11
700.252380
 21
536.139404
  0
LINE
  8
0
  6
CONTINUOUS
 10
748.752380
 20
179.955002
 11
702.252380
 21
179.955002
  0
LINE
  8
0
  6
CONTINUOUS
 10
700.252380
 20
223.955002
 11
700.252380
 21
181.955002
  0
LINE
  8
0
  6
CONTINUOUS
 10
750.252380
 20
223.955002
 11
750.252380
 21
181.955002
  0
LINE
  8
0
  6
CONTINUOUS
 10
750.252380
 20
191.955002
 11
700.252380
 21
191.955002
  0
LINE
  8
0
  6
CONTINUOUS
 10
702.252380
 20
179.955002
 11
700.252380
 21
181.955002
  0
LINE
  8
0
  6
CONTINUOUS
 10
750.252380
 20
181.955002
 11
748.252380
 21
179.955002
  0
LINE
  8
0
  6
CONTINUOUS
 10
750.252380
 20
181.955002
 11
700.252380
 21
181.955002
  0
LINE
  8
0
  6
CONTINUOUS
 10
750.252380
 20
192.955002
 11
700.252380
 21
192.955002
  0
LINE
  8
0
  6
CONTINUOUS
 10
749.252380
 20
224.955002
 11
701.252380
 21
224.955002
  0
LINE
  8
0
  6
CONTINUOUS
 10
701.252380
 20
224.955002
 11
700.252380
 21
223.955002
  0
LINE
  8
0
  6
CONTINUOUS
 10
749.252380
 20
224.955002
 11
750.252380
 21
223.955002
  0
LINE
  8
0
  6
CONTINUOUS
 10
750.252380
 20
223.955002
 11
700.252380
 21
223.955002
  0
LINE
  8
0
  6
CENTER
 10
752.627380
 20
207.955002
 11
748.002380
 21
207.955002
  0
LINE
  8
0
  6
CONTINUOUS
 10
748.752380
 20
179.955002
 11
748.752380
 21
178.455002
  0
LINE
  8
0
  6
CONTINUOUS
 10
702.752380
 20
179.955002
 11
702.752380
 21
178.455002
  0
LINE
  8
0
  6
CONTINUOUS
 10
751.127380
 20
218.455002
 11
749.127380
 21
218.455002
  0
LINE
  8
0
  6
CONTINUOUS
 10
751.127380
 20
197.455002
 11
749.127380
 21
197.455002
  0
LINE
  8
0
  6
CENTER
 10
725.252380
 20
170.539368
 11
725.252380
 21
231.874374
  0
LINE
  8
0
  6
CONTINUOUS
 10
621.252380
 20
550.139404
 11
621.252380
 21
569.639465
  0
TEXT
  8
0
 10
24.000000
 20
12.000000
 40
4.000000
 41
1.000000
  1
HLM-40L-1200~1800-T90WK
 50
0.000000
  0
ENDSEC
  0
EOF
