  0
SECTION
  2
HEADER
  9
$CLAYER
  8
1
  9
$LTSCALE
 40
3.0
  0
ENDSEC
  0
SECTION
  2
TABLES
  0
TABLE
  2
LTYPE
 70
     4
  0
LTYPE
  2
CONTINUOUS
  3
solid line
 70
    64
 72
    65
 73
     0
 40
0.0
  0
LTYPE
  2
DASHED
  3
__ __ __ __ __ __ __ __ __ __ __ __ __ __ __
 70
    64
 72
    65
 73
     2
 40
0.75
 49
0.5
 49
-0.25
  0
LTYPE
  2
CENTER
  3
____ _ ____ _ ____ _ ____ _ ____ _ ____ _ ____
 70
    64
 72
    65
 73
     4
 40
2.0
 49
1.25
 49
-0.25
 49
0.25
 49
-0.25
  0
LTYPE
  2
PHANTOM
  3
_____ _ _ _____ _ _ _____ _ _ _____ _ _ ____
 70
    64
 72
    65
 73
     6
 40
2.5
 49
1.25
 49
-0.25
 49
0.25
 49
-0.25
 49
0.25
 49
-0.25
  0
ENDTAB
  0
TABLE
  2
LAYER
 70
     1
  0
LAYER
  2
0
 70
    64
 62
     7
  6
CONTINUOUS
  0
ENDTAB
  0
TABLE
  2
STYLE
 70
     1
  0
STYLE
  2
STANDARD
 70
     0
 40
0.000000
 41
1.000000
 50
0.000000
 71
     0
 42
3.000000
  3
txt
  4
BIGFONT
  0
ENDTAB
  0
ENDSEC
  0
SECTION
  2
BLOCKS
  0
ENDSEC
  0
SECTION
  2
ENTITIES
  0
LINE
  8
0
  6
CONTINUOUS
 10
540.552368
 20
48.227501
 11
540.552368
 21
190.227493
  0
LINE
  8
0
  6
CENTER
 10
637.515015
 20
119.227501
 11
494.062378
 21
119.227501
  0
LINE
  8
0
  6
CONTINUOUS
 10
727.052368
 20
51.227501
 11
727.052368
 21
157.227493
  0
LINE
  8
0
  6
CONTINUOUS
 10
727.052368
 20
157.227493
 11
597.052368
 21
157.227493
  0
LINE
  8
0
  6
CONTINUOUS
 10
727.052368
 20
51.227501
 11
597.052368
 21
51.227501
  0
LINE
  8
0
  6
CONTINUOUS
 10
727.052368
 20
146.850845
 11
608.390625
 21
146.850845
  0
LINE
  8
0
  6
CONTINUOUS
 10
727.052368
 20
61.604141
 11
608.390625
 21
61.604141
  0
LINE
  8
0
  6
CONTINUOUS
 10
607.052368
 20
155.227493
 11
607.052368
 21
53.227482
  0
ARC
  8
0
  6
CONTINUOUS
 10
605.052368
 20
155.227524
 40
2.000000
 50
0.000000
 51
90.000000
  0
ARC
  8
0
  6
CONTINUOUS
 10
605.052368
 20
53.227501
 40
2.000000
 50
-90.000000
 51
0.000000
  0
LINE
  8
0
  6
CONTINUOUS
 10
747.552368
 20
104.227501
 11
747.552368
 21
149.227493
  0
LINE
  8
0
  6
CONTINUOUS
 10
747.552368
 20
104.227501
 11
747.552368
 21
59.227501
  0
LINE
  8
0
  6
CONTINUOUS
 10
747.052368
 20
153.227493
 11
747.052368
 21
59.227501
  0
LINE
  8
0
  6
CONTINUOUS
 10
741.962219
 20
157.227493
 11
727.052368
 21
157.227493
  0
LINE
  8
0
  6
CONTINUOUS
 10
741.962219
 20
51.227501
 11
727.052368
 21
51.227501
  0
LINE
  8
0
  6
CONTINUOUS
 10
747.052368
 20
59.227501
 11
747.052368
 21
55.227501
  0
LINE
  8
0
  6
CONTINUOUS
 10
746.434326
 20
154.463562
 11
747.052368
 21
153.227493
  0
ARC
  8
0
  6
CONTINUOUS
 10
741.962219
 20
152.227524
 40
5.000000
 50
26.564800
 51
90.000000
  0
LINE
  8
0
  6
CONTINUOUS
 10
746.434326
 20
53.991440
 11
747.052368
 21
55.227501
  0
ARC
  8
0
  6
CONTINUOUS
 10
741.962219
 20
56.227501
 40
5.000000
 50
-90.000000
 51
-26.565001
  0
LINE
  8
0
  6
CONTINUOUS
 10
747.552368
 20
59.227501
 11
747.052368
 21
58.727501
  0
LINE
  8
0
  6
CONTINUOUS
 10
747.552368
 20
149.227493
 11
747.052368
 21
149.727493
  0
LINE
  8
0
  6
CONTINUOUS
 10
727.052368
 20
146.850861
 11
745.177368
 21
146.850861
  0
LINE
  8
0
  6
CONTINUOUS
 10
727.052368
 20
61.604141
 11
745.177368
 21
61.604141
  0
LINE
  8
0
  6
CENTER
 10
98.888199
 20
-8.782500
 11
98.888199
 21
263.372498
  0
LINE
  8
0
  6
CENTER
 10
13.719375
 20
119.227501
 11
181.400620
 21
119.227501
  0
LINE
  8
0
  6
CENTER
 10
5.985818
 20
172.727493
 11
256.325012
 21
172.727493
  0
LINE
  8
0
  6
CENTER
 10
28.888201
 20
39.407501
 11
28.888201
 21
0.697500
  0
LINE
  8
0
  6
CENTER
 10
168.888199
 20
36.642502
 11
168.888199
 21
-0.092500
  0
LINE
  8
0
  6
DASHED
 10
161.388199
 20
27.727501
 11
161.388199
 21
7.727500
  0
LINE
  8
0
  6
DASHED
 10
176.388199
 20
27.727501
 11
176.388199
 21
7.727500
  0
LINE
  8
0
  6
DASHED
 10
36.388199
 20
27.727501
 11
36.388199
 21
7.727500
  0
LINE
  8
0
  6
DASHED
 10
21.388201
 20
27.727501
 11
21.388201
 21
7.727500
  0
LINE
  8
0
  6
CONTINUOUS
 10
8.888200
 20
7.727500
 11
63.888199
 21
7.727500
  0
LINE
  8
0
  6
CONTINUOUS
 10
133.888199
 20
7.727500
 11
188.888199
 21
7.727500
  0
LINE
  8
0
  6
CONTINUOUS
 10
155.888199
 20
27.727501
 11
185.888199
 21
27.727501
  0
LINE
  8
0
  6
CONTINUOUS
 10
11.888200
 20
27.727501
 11
41.888199
 21
27.727501
  0
LINE
  8
0
  6
CONTINUOUS
 10
8.888200
 20
25.096380
 11
8.888200
 21
7.727520
  0
LINE
  8
0
  6
CONTINUOUS
 10
188.888199
 20
25.096380
 11
188.888199
 21
7.727500
  0
LINE
  8
0
  6
CONTINUOUS
 10
150.888199
 20
230.007599
 11
150.888199
 21
245.389267
  0
LINE
  8
0
  6
CONTINUOUS
 10
46.888199
 20
245.388885
 11
46.888199
 21
7.727500
  0
LINE
  8
0
  6
CONTINUOUS
 10
65.388199
 20
9.227500
 11
132.388199
 21
9.227500
  0
LINE
  8
0
  6
CONTINUOUS
 10
51.332802
 20
211.227493
 11
147.119995
 21
211.227493
  0
LINE
  8
0
  6
CONTINUOUS
 10
146.957993
 20
249.388641
 11
98.888199
 21
250.227524
  0
LINE
  8
0
  6
CONTINUOUS
 10
50.818401
 20
249.388275
 11
98.888199
 21
250.227524
  0
LINE
  8
0
  6
CONTINUOUS
 10
25.888201
 20
132.007614
 11
25.888201
 21
213.447372
  0
LINE
  8
0
  6
CONTINUOUS
 10
171.888199
 20
132.007614
 11
171.888199
 21
213.447372
  0
LINE
  8
0
  6
CONTINUOUS
 10
32.888199
 20
73.507599
 11
32.888199
 21
176.867783
  0
LINE
  8
0
  6
CONTINUOUS
 10
164.888199
 20
73.507622
 11
164.888199
 21
176.867783
  0
ARC
  8
0
  6
CONTINUOUS
 10
50.888199
 20
245.388901
 40
4.000000
 50
91.000580
 51
180.000000
  0
ARC
  8
0
  6
CONTINUOUS
 10
146.888199
 20
245.389236
 40
4.000000
 50
0.000000
 51
89.000359
  0
LINE
  8
0
  6
CONTINUOUS
 10
30.965200
 20
220.178055
 11
41.811199
 21
223.276947
  0
LINE
  8
0
  6
CONTINUOUS
 10
155.965195
 20
223.276947
 11
166.811203
 21
220.178055
  0
LINE
  8
0
  6
CONTINUOUS
 10
37.965199
 20
66.776939
 11
41.811199
 21
65.678062
  0
LINE
  8
0
  6
CONTINUOUS
 10
159.811203
 20
66.776939
 11
155.965195
 21
65.678062
  0
LINE
  8
0
  6
CONTINUOUS
 10
186.279602
 20
28.070740
 11
153.496796
 21
32.384258
  0
LINE
  8
0
  6
CONTINUOUS
 10
11.496800
 20
28.070740
 11
44.279598
 21
32.384281
  0
ARC
  8
0
  6
CONTINUOUS
 10
32.888199
 20
213.447418
 40
7.000000
 50
105.945801
 51
180.000000
  0
ARC
  8
0
  6
CONTINUOUS
 10
32.888199
 20
132.007660
 40
7.000000
 50
180.000000
 51
240.000198
  0
ARC
  8
0
  6
CONTINUOUS
 10
164.888199
 20
213.447357
 40
7.000000
 50
0.000000
 51
74.054764
  0
ARC
  8
0
  6
CONTINUOUS
 10
164.888199
 20
132.007599
 40
7.000000
 50
-59.999882
 51
0.000000
  0
ARC
  8
0
  6
CONTINUOUS
 10
39.888199
 20
73.507660
 40
7.000000
 50
180.000000
 51
254.054901
  0
ARC
  8
0
  6
CONTINUOUS
 10
157.888199
 20
73.507599
 40
7.000000
 50
-74.054497
 51
0.000000
  0
LINE
  8
0
  6
CONTINUOUS
 10
150.888199
 20
32.727501
 11
150.888199
 21
230.007599
  0
ARC
  8
0
  6
CONTINUOUS
 10
157.888199
 20
230.007660
 40
7.000000
 50
180.000000
 51
254.054901
  0
ARC
  8
0
  6
CONTINUOUS
 10
157.888199
 20
58.947441
 40
7.000000
 50
105.945801
 51
180.000000
  0
ARC
  8
0
  6
CONTINUOUS
 10
171.888199
 20
119.883247
 40
7.000000
 50
120.000099
 51
180.000000
  0
ARC
  8
0
  6
CONTINUOUS
 10
153.888199
 20
35.358639
 40
3.000000
 50
180.000000
 51
262.504395
  0
ARC
  8
0
  6
CONTINUOUS
 10
185.888199
 20
24.727501
 40
3.000000
 50
0.000000
 51
90.000000
  0
ARC
  8
0
  6
CONTINUOUS
 10
185.888199
 20
25.096359
 40
3.000000
 50
0.000000
 51
82.504204
  0
LINE
  8
0
  6
CONTINUOUS
 10
150.888199
 20
32.727501
 11
150.888199
 21
7.727500
  0
ARC
  8
0
  6
CONTINUOUS
 10
155.888199
 20
32.727520
 40
5.000000
 50
180.000000
 51
270.000000
  0
ARC
  8
0
  6
CONTINUOUS
 10
43.888199
 20
35.358639
 40
3.000000
 50
-82.503883
 51
0.000000
  0
ARC
  8
0
  6
CONTINUOUS
 10
41.888199
 20
32.727501
 40
5.000000
 50
-90.000000
 51
0.000000
  0
ARC
  8
0
  6
CONTINUOUS
 10
11.888200
 20
24.727520
 40
3.000000
 50
90.000000
 51
180.000000
  0
ARC
  8
0
  6
CONTINUOUS
 10
11.888200
 20
25.096399
 40
3.000000
 50
97.496292
 51
180.000000
  0
LINE
  8
0
  6
CONTINUOUS
 10
63.888199
 20
7.727500
 11
65.388199
 21
9.227500
  0
LINE
  8
0
  6
CONTINUOUS
 10
133.888199
 20
7.727500
 11
132.388199
 21
9.227500
  0
ARC
  8
0
  6
CONTINUOUS
 10
39.888199
 20
58.947361
 40
7.000000
 50
0.000000
 51
74.054688
  0
ARC
  8
0
  6
CONTINUOUS
 10
25.888201
 20
119.883278
 40
7.000000
 50
0.000000
 51
60.000092
  0
ARC
  8
0
  6
CONTINUOUS
 10
39.888199
 20
230.007599
 40
7.000000
 50
-74.054443
 51
0.000000
  0
ARC
  8
0
  6
CONTINUOUS
 10
98.888199
 20
119.227501
 40
71.000000
 50
-21.630920
 51
6.068256
  0
ARC
  8
0
  6
CONTINUOUS
 10
98.888199
 20
119.227501
 40
71.000000
 50
173.931793
 51
201.630905
  0
LINE
  8
0
  6
CONTINUOUS
 10
151.888199
 20
62.552979
 11
151.888199
 21
56.227501
  0
LINE
  8
0
  6
CONTINUOUS
 10
45.888199
 20
56.227501
 11
45.888199
 21
62.416500
  0
ARC
  8
0
  6
CONTINUOUS
 10
146.888199
 20
56.227501
 40
5.000000
 50
-36.869869
 51
0.000000
  0
ARC
  8
0
  6
CONTINUOUS
 10
50.888199
 20
56.227501
 40
5.000000
 50
180.000000
 51
216.865204
  0
LINE
  8
0
  6
CONTINUOUS
 10
238.888199
 20
152.727493
 11
238.888199
 21
192.727493
  0
LINE
  8
0
  6
CONTINUOUS
 10
173.888199
 20
192.727493
 11
238.888199
 21
192.727493
  0
LINE
  8
0
  6
CONTINUOUS
 10
173.888199
 20
152.727493
 11
238.888199
 21
152.727493
  0
LINE
  8
0
  6
CONTINUOUS
 10
173.888199
 20
195.227493
 11
173.888199
 21
150.227493
  0
LINE
  8
0
  6
CONTINUOUS
 10
171.888199
 20
195.227493
 11
173.888199
 21
195.227493
  0
LINE
  8
0
  6
CONTINUOUS
 10
171.888199
 20
150.227493
 11
173.888199
 21
150.227493
  0
ARC
  8
0
  6
CONTINUOUS
 10
184.888199
 20
172.727493
 40
6.000000
 50
90.000000
 51
270.000000
  0
LINE
  8
0
  6
CONTINUOUS
 10
184.888199
 20
178.727493
 11
238.888199
 21
178.727493
  0
LINE
  8
0
  6
CONTINUOUS
 10
184.888199
 20
166.727493
 11
238.888199
 21
166.727493
  0
LINE
  8
0
  6
CONTINUOUS
 10
549.552368
 20
73.983498
 11
549.552368
 21
188.227493
  0
LINE
  8
0
  6
CENTER
 10
765.981934
 20
104.227501
 11
494.062378
 21
104.227501
  0
LINE
  8
0
  6
CONTINUOUS
 10
547.552368
 20
190.227493
 11
540.552368
 21
190.227493
  0
LINE
  8
0
  6
CONTINUOUS
 10
547.552368
 20
48.227520
 11
540.552368
 21
48.227520
  0
LINE
  8
0
  6
CONTINUOUS
 10
568.552368
 20
51.227501
 11
597.052368
 21
51.227501
  0
LINE
  8
0
  6
CONTINUOUS
 10
597.052368
 20
157.227493
 11
552.552429
 21
157.227493
  0
LINE
  8
0
  6
CONTINUOUS
 10
551.052368
 20
168.361481
 11
569.640625
 21
157.629425
  0
ARC
  8
0
  6
CONTINUOUS
 10
547.552368
 20
188.227493
 40
2.000000
 50
0.000000
 51
90.000000
  0
ARC
  8
0
  6
CONTINUOUS
 10
547.552368
 20
50.227501
 40
2.000000
 50
-90.000000
 51
-14.477700
  0
LINE
  8
0
  6
CONTINUOUS
 10
568.552368
 20
53.227501
 11
568.552368
 21
69.983498
  0
LINE
  8
0
  6
CONTINUOUS
 10
551.552368
 20
71.983498
 11
566.552368
 21
71.983498
  0
ARC
  8
0
  6
CONTINUOUS
 10
566.552368
 20
69.983521
 40
2.000000
 50
0.000000
 51
90.000000
  0
ARC
  8
0
  6
CONTINUOUS
 10
551.425354
 20
49.227501
 40
2.000000
 50
90.000000
 51
165.522720
  0
ARC
  8
0
  6
CONTINUOUS
 10
551.552368
 20
73.983498
 40
2.000000
 50
180.000000
 51
270.000000
  0
LINE
  8
0
  6
CONTINUOUS
 10
568.552368
 20
51.227501
 11
551.425354
 21
51.227501
  0
ARC
  8
0
  6
CONTINUOUS
 10
570.552368
 20
53.227501
 40
2.000000
 50
180.000000
 51
270.000000
  0
ARC
  8
0
  6
CONTINUOUS
 10
552.552368
 20
160.227493
 40
3.000000
 50
180.000000
 51
270.000000
  0
ARC
  8
0
  6
CONTINUOUS
 10
552.552368
 20
170.959534
 40
3.000000
 50
180.000000
 51
239.999664
  0
ARC
  8
0
  6
CONTINUOUS
 10
571.140686
 20
160.227493
 40
3.000000
 50
-120.000298
 51
-90.000000
  0
LINE
  8
0
  6
CONTINUOUS
 10
597.052368
 20
157.227493
 11
597.052368
 21
51.227501
  0
LINE
  8
0
  6
CONTINUOUS
 10
368.683899
 20
407.412170
 11
414.553040
 21
407.412109
  0
LINE
  8
0
  6
CONTINUOUS
 10
368.684509
 20
587.412170
 11
437.553040
 21
587.412170
  0
LINE
  8
0
  6
CENTER
 10
437.552948
 20
607.727478
 11
437.552368
 21
332.334137
  0
LINE
  8
0
  6
CENTER
 10
362.699219
 20
427.411316
 11
391.067261
 21
427.411316
  0
LINE
  8
0
  6
CONTINUOUS
 10
347.552704
 20
497.412109
 11
348.460724
 21
549.412170
  0
LINE
  8
0
  6
CONTINUOUS
 10
359.229919
 20
580.669556
 11
348.460724
 21
549.412170
  0
ARC
  8
0
  6
CONTINUOUS
 10
368.684326
 20
577.412109
 40
10.000000
 50
90.000000
 51
160.989105
  0
ARC
  8
0
  6
CONTINUOUS
 10
377.552704
 20
427.411316
 40
7.500000
 50
-226.074890
 51
32.226799
  0
LINE
  8
0
  6
CONTINUOUS
 10
347.552704
 20
497.412109
 11
348.460510
 21
445.412170
  0
LINE
  8
0
  6
CONTINUOUS
 10
359.229523
 20
414.154755
 11
348.460510
 21
445.412170
  0
ARC
  8
0
  6
CONTINUOUS
 10
368.683899
 20
417.412170
 40
10.000000
 50
199.010895
 51
270.000000
  0
LINE
  8
0
  6
CONTINUOUS
 10
527.552734
 20
497.411926
 11
526.644897
 21
549.411865
  0
LINE
  8
0
  6
CONTINUOUS
 10
515.875916
 20
580.669312
 11
526.644897
 21
549.411865
  0
ARC
  8
0
  6
CONTINUOUS
 10
506.421326
 20
577.411865
 40
10.000000
 50
19.010900
 51
90.000000
  0
LINE
  8
0
  6
CONTINUOUS
 10
527.552734
 20
497.411926
 11
526.696167
 21
448.359314
  0
LINE
  8
0
  6
CONTINUOUS
 10
515.875488
 20
414.154572
 11
526.297913
 21
444.405334
  0
LINE
  8
0
  6
CONTINUOUS
 10
538.514893
 20
426.411957
 11
540.552490
 21
426.411957
  0
LINE
  8
0
  6
CONTINUOUS
 10
540.552490
 20
426.411957
 11
540.552917
 21
568.411865
  0
LINE
  8
0
  6
CONTINUOUS
 10
529.442932
 20
440.223755
 11
531.753540
 21
431.600159
  0
ARC
  8
0
  6
CONTINUOUS
 10
538.514893
 20
433.411957
 40
7.000000
 50
194.999893
 51
270.000000
  0
ARC
  8
0
  6
CONTINUOUS
 10
522.681335
 20
438.411957
 40
7.000000
 50
14.999700
 51
90.000000
  0
LINE
  8
0
  6
CONTINUOUS
 10
538.515320
 20
568.411865
 11
540.552917
 21
568.411865
  0
LINE
  8
0
  6
CONTINUOUS
 10
529.443115
 20
554.600037
 11
531.753723
 21
563.223633
  0
ARC
  8
0
  6
CONTINUOUS
 10
538.515320
 20
561.411804
 40
7.000000
 50
90.000000
 51
165.000107
  0
ARC
  8
0
  6
CONTINUOUS
 10
522.681519
 20
556.411865
 40
7.000000
 50
301.109222
 51
345.000336
  0
ARC
  8
0
  6
CONTINUOUS
 10
506.421326
 20
417.411530
 40
10.000000
 50
270.000000
 51
340.989105
  0
ARC
  8
0
  6
CONTINUOUS
 10
497.552917
 20
427.410645
 40
7.500000
 50
-212.232941
 51
58.076355
  0
LINE
  8
0
  6
CENTER
 10
377.553009
 20
439.212921
 11
377.552521
 21
415.336517
  0
LINE
  8
0
  6
CENTER
 10
484.542328
 20
427.411224
 11
510.120056
 21
427.411224
  0
LINE
  8
0
  6
CENTER
 10
497.552704
 20
439.212921
 11
497.552521
 21
415.336334
  0
LINE
  8
0
  6
CONTINUOUS
 10
351.408600
 20
445.411713
 11
523.696655
 21
445.411713
  0
LINE
  8
0
  6
CONTINUOUS
 10
480.333496
 20
424.411713
 11
394.772583
 21
424.411713
  0
ARC
  8
0
  6
CONTINUOUS
 10
351.408600
 20
448.411713
 40
3.000000
 50
181.000153
 51
270.000000
  0
ARC
  8
0
  6
CONTINUOUS
 10
523.696655
 20
448.411713
 40
3.000000
 50
270.000000
 51
358.999634
  0
LINE
  8
0
  6
CONTINUOUS
 10
351.408600
 20
549.411682
 11
523.696655
 21
549.411682
  0
ARC
  8
0
  6
CONTINUOUS
 10
351.408600
 20
546.411682
 40
3.000000
 50
90.000000
 51
178.999847
  0
ARC
  8
0
  6
CONTINUOUS
 10
523.696655
 20
546.411682
 40
3.000000
 50
1.000372
 51
90.000000
  0
LINE
  8
0
  6
CONTINUOUS
 10
402.552795
 20
544.411682
 11
402.552795
 21
450.411713
  0
LINE
  8
0
  6
CONTINUOUS
 10
472.552795
 20
544.411682
 11
472.552795
 21
450.411713
  0
LINE
  8
0
  6
CONTINUOUS
 10
496.272797
 20
431.411713
 11
489.553040
 21
431.411713
  0
LINE
  8
0
  6
CONTINUOUS
 10
376.552917
 20
431.411713
 11
385.553040
 21
431.411713
  0
ARC
  8
0
  6
CONTINUOUS
 10
376.552917
 20
438.411713
 40
7.000000
 50
180.000000
 51
270.000000
  0
ARC
  8
0
  6
CONTINUOUS
 10
362.552917
 20
438.411713
 40
7.000000
 50
0.000000
 51
90.000000
  0
LINE
  8
0
  6
CENTER
 10
362.699219
 20
567.411255
 11
391.067261
 21
567.411255
  0
ARC
  8
0
  6
CONTINUOUS
 10
377.552704
 20
567.411255
 40
7.500000
 50
-32.226799
 51
226.074890
  0
ARC
  8
0
  6
CONTINUOUS
 10
497.552917
 20
567.411926
 40
7.500000
 50
-46.078163
 51
212.232941
  0
LINE
  8
0
  6
CENTER
 10
377.553009
 20
555.609619
 11
377.552521
 21
579.486023
  0
LINE
  8
0
  6
CENTER
 10
484.542328
 20
567.411377
 11
510.120056
 21
567.411377
  0
LINE
  8
0
  6
CENTER
 10
497.552704
 20
555.609619
 11
497.552521
 21
579.486267
  0
LINE
  8
0
  6
CONTINUOUS
 10
480.333496
 20
570.411682
 11
394.772583
 21
570.411682
  0
LINE
  8
0
  6
CONTINUOUS
 10
498.552917
 20
563.411682
 11
489.553040
 21
563.411804
  0
ARC
  8
0
  6
CONTINUOUS
 10
498.552917
 20
556.411682
 40
7.000000
 50
0.000000
 51
90.000000
  0
ARC
  8
0
  6
CONTINUOUS
 10
512.552917
 20
556.411682
 40
7.000000
 50
180.000000
 51
270.000000
  0
LINE
  8
0
  6
CONTINUOUS
 10
376.552917
 20
563.411682
 11
385.553040
 21
563.411804
  0
ARC
  8
0
  6
CONTINUOUS
 10
376.552917
 20
556.411682
 40
7.000000
 50
90.000000
 51
180.000000
  0
ARC
  8
0
  6
CONTINUOUS
 10
362.552917
 20
556.411682
 40
7.000000
 50
-90.000000
 51
0.000000
  0
LINE
  8
0
  6
CONTINUOUS
 10
503.003479
 20
436.488647
 11
504.102356
 21
440.334747
  0
ARC
  8
0
  6
CONTINUOUS
 10
496.272797
 20
438.411713
 40
7.000000
 50
270.000000
 51
344.054596
  0
ARC
  8
0
  6
CONTINUOUS
 10
510.833038
 20
438.411713
 40
7.000000
 50
90.000000
 51
164.054611
  0
LINE
  8
0
  6
CONTINUOUS
 10
457.552704
 20
357.411926
 11
414.553040
 21
357.411926
  0
LINE
  8
0
  6
CONTINUOUS
 10
417.552704
 20
422.411926
 11
417.552704
 21
417.411926
  0
LINE
  8
0
  6
CONTINUOUS
 10
457.552704
 20
422.411926
 11
457.552704
 21
357.411926
  0
LINE
  8
0
  6
CONTINUOUS
 10
415.052704
 20
422.411926
 11
460.052704
 21
422.411926
  0
LINE
  8
0
  6
CONTINUOUS
 10
415.052704
 20
424.411926
 11
415.052704
 21
422.411926
  0
LINE
  8
0
  6
CONTINUOUS
 10
460.052704
 20
424.411926
 11
460.052704
 21
422.411926
  0
LINE
  8
0
  6
CONTINUOUS
 10
457.552704
 20
407.412048
 11
506.420929
 21
407.411957
  0
LINE
  8
0
  6
CONTINUOUS
 10
437.553040
 20
587.412048
 11
506.421326
 21
587.411926
  0
LINE
  8
0
  6
CONTINUOUS
 10
414.553040
 20
357.411926
 11
414.553040
 21
417.411926
  0
LINE
  8
0
  6
CONTINUOUS
 10
418.474030
 20
417.411926
 11
414.553040
 21
417.411926
  0
LINE
  8
0
  6
CONTINUOUS
 10
485.648285
 20
426.856171
 11
489.553040
 21
431.411713
  0
ARC
  8
0
  6
CONTINUOUS
 10
480.333496
 20
431.411713
 40
7.000000
 50
270.000000
 51
319.398712
  0
LINE
  8
0
  6
CONTINUOUS
 10
389.457764
 20
426.856171
 11
385.553040
 21
431.411713
  0
ARC
  8
0
  6
CONTINUOUS
 10
394.772583
 20
431.411713
 40
7.000000
 50
220.601288
 51
270.000000
  0
LINE
  8
0
  6
CONTINUOUS
 10
389.457764
 20
567.967346
 11
385.553040
 21
563.411804
  0
ARC
  8
0
  6
CONTINUOUS
 10
394.772583
 20
563.411804
 40
7.000000
 50
90.000000
 51
139.398712
  0
LINE
  8
0
  6
CONTINUOUS
 10
485.648285
 20
567.967346
 11
489.553040
 21
563.411804
  0
ARC
  8
0
  6
CONTINUOUS
 10
480.333496
 20
563.411804
 40
7.000000
 50
40.601295
 51
90.000000
  0
LINE
  8
0
  6
CONTINUOUS
 10
418.474030
 20
357.411926
 11
418.474030
 21
417.411926
  0
LINE
  8
0
  6
CENTER
 10
324.351776
 20
497.411926
 11
768.798157
 21
497.411926
  0
LINE
  8
0
  6
CONTINUOUS
 10
547.552490
 20
426.411926
 11
540.552490
 21
426.411926
  0
LINE
  8
0
  6
CONTINUOUS
 10
549.552490
 20
566.411926
 11
549.552490
 21
428.411926
  0
LINE
  8
0
  6
CONTINUOUS
 10
547.552490
 20
568.411926
 11
540.552917
 21
568.411926
  0
LINE
  8
0
  6
CONTINUOUS
 10
597.052490
 20
444.411926
 11
549.552490
 21
444.411926
  0
LINE
  8
0
  6
CONTINUOUS
 10
597.052490
 20
550.411926
 11
549.552490
 21
550.411926
  0
LINE
  8
0
  6
CONTINUOUS
 10
597.052490
 20
444.411926
 11
597.052490
 21
550.411926
  0
ARC
  8
0
  6
CONTINUOUS
 10
547.552490
 20
428.411926
 40
2.000000
 50
-90.000000
 51
0.000000
  0
ARC
  8
0
  6
CONTINUOUS
 10
547.552490
 20
566.411926
 40
2.000000
 50
0.000000
 51
90.000000
  0
ARC
  8
0
  6
CONTINUOUS
 10
550.337463
 20
497.411926
 40
20.000000
 50
-38.438709
 51
0.000000
  0
LINE
  8
0
  6
CONTINUOUS
 10
549.552490
 20
464.251923
 11
566.002930
 21
484.978394
  0
ARC
  8
0
  6
CONTINUOUS
 10
550.337463
 20
497.411926
 40
20.000000
 50
0.000000
 51
38.438709
  0
LINE
  8
0
  6
CONTINUOUS
 10
549.552490
 20
530.571899
 11
566.002930
 21
509.845459
  0
LINE
  8
0
  6
CONTINUOUS
 10
727.052368
 20
550.411926
 11
727.052368
 21
522.411987
  0
LINE
  8
0
  6
CONTINUOUS
 10
727.053040
 20
444.411926
 11
597.053040
 21
444.411926
  0
LINE
  8
0
  6
CONTINUOUS
 10
727.053040
 20
550.411926
 11
597.053040
 21
550.411926
  0
LINE
  8
0
  6
CONTINUOUS
 10
727.052368
 20
465.911957
 11
607.052368
 21
465.911957
  0
LINE
  8
0
  6
CONTINUOUS
 10
727.052368
 20
528.911926
 11
607.052368
 21
528.911926
  0
LINE
  8
0
  6
CONTINUOUS
 10
607.052368
 20
446.411926
 11
607.052368
 21
465.911957
  0
ARC
  8
0
  6
CONTINUOUS
 10
605.052368
 20
446.411896
 40
2.000000
 50
-90.000000
 51
0.000000
  0
ARC
  8
0
  6
CONTINUOUS
 10
605.052368
 20
548.411926
 40
2.000000
 50
0.000000
 51
90.000000
  0
LINE
  8
0
  6
CONTINUOUS
 10
747.552368
 20
497.411926
 11
747.552368
 21
452.411926
  0
LINE
  8
0
  6
CONTINUOUS
 10
747.552368
 20
497.411926
 11
747.552368
 21
542.411926
  0
LINE
  8
0
  6
CONTINUOUS
 10
747.052368
 20
448.411926
 11
747.052368
 21
542.411926
  0
LINE
  8
0
  6
CONTINUOUS
 10
741.962219
 20
444.411926
 11
727.052368
 21
444.411926
  0
LINE
  8
0
  6
CONTINUOUS
 10
741.962219
 20
550.411926
 11
727.052368
 21
550.411926
  0
LINE
  8
0
  6
CONTINUOUS
 10
747.052368
 20
542.411926
 11
747.052368
 21
546.411926
  0
LINE
  8
0
  6
CONTINUOUS
 10
746.434326
 20
447.175873
 11
747.052368
 21
448.411926
  0
ARC
  8
0
  6
CONTINUOUS
 10
741.962219
 20
449.411896
 40
5.000000
 50
270.000000
 51
333.435211
  0
LINE
  8
0
  6
CONTINUOUS
 10
746.434326
 20
547.648010
 11
747.052368
 21
546.411926
  0
ARC
  8
0
  6
CONTINUOUS
 10
741.962219
 20
545.411926
 40
5.000000
 50
26.565001
 51
90.000000
  0
LINE
  8
0
  6
CONTINUOUS
 10
747.552368
 20
542.411926
 11
747.052368
 21
542.911926
  0
LINE
  8
0
  6
CONTINUOUS
 10
747.552368
 20
452.411926
 11
747.052368
 21
451.911926
  0
LINE
  8
0
  6
CONTINUOUS
 10
727.052368
 20
465.911926
 11
745.177368
 21
465.911926
  0
LINE
  8
0
  6
CONTINUOUS
 10
727.052368
 20
528.911926
 11
745.177368
 21
528.911926
  0
LINE
  8
0
  6
CONTINUOUS
 10
727.052368
 20
472.411957
 11
727.052368
 21
444.411926
  0
LINE
  8
0
  6
CENTER
 10
437.552368
 20
264.311035
 11
437.552368
 21
-3.893965
  0
LINE
  8
0
  6
CENTER
 10
508.667419
 20
172.727493
 11
366.072418
 21
172.727493
  0
LINE
  8
0
  6
CONTINUOUS
 10
527.552368
 20
7.727500
 11
347.552368
 21
7.727500
  0
LINE
  8
0
  6
CONTINUOUS
 10
527.552368
 20
27.727501
 11
347.552368
 21
27.727501
  0
LINE
  8
0
  6
CONTINUOUS
 10
469.366791
 20
250.227493
 11
405.737976
 21
250.227493
  0
LINE
  8
0
  6
CONTINUOUS
 10
347.552368
 20
206.059494
 11
347.552368
 21
7.727500
  0
LINE
  8
0
  6
CONTINUOUS
 10
527.552368
 20
206.059494
 11
527.552368
 21
7.727500
  0
LINE
  8
0
  6
CONTINUOUS
 10
540.552368
 20
190.227493
 11
532.552368
 21
190.227493
  0
LINE
  8
0
  6
CONTINUOUS
 10
540.552368
 20
48.227501
 11
532.552368
 21
48.227501
  0
LINE
  8
0
  6
CONTINUOUS
 10
399.953796
 20
248.384842
 11
351.767975
 21
214.216827
  0
LINE
  8
0
  6
CONTINUOUS
 10
523.336609
 20
214.216827
 11
475.150970
 21
248.384842
  0
ARC
  8
0
  6
CONTINUOUS
 10
357.552368
 20
206.059464
 40
10.000000
 50
125.339897
 51
180.000000
  0
ARC
  8
0
  6
CONTINUOUS
 10
405.737976
 20
240.227493
 40
10.000000
 50
90.000000
 51
125.339996
  0
ARC
  8
0
  6
CONTINUOUS
 10
469.366791
 20
240.227493
 40
10.000000
 50
54.659698
 51
90.000000
  0
ARC
  8
0
  6
CONTINUOUS
 10
517.552368
 20
206.059540
 40
10.000000
 50
0.000000
 51
54.659500
  0
ARC
  8
0
  6
CONTINUOUS
 10
532.552368
 20
195.227493
 40
5.000000
 50
180.000000
 51
270.000000
  0
ARC
  8
0
  6
CONTINUOUS
 10
532.552368
 20
43.227482
 40
5.000000
 50
90.000000
 51
180.000000
  0
LINE
  8
0
  6
CENTER
 10
377.552368
 20
34.816036
 11
377.552368
 21
1.241035
  0
LINE
  8
0
  6
CENTER
 10
497.552368
 20
33.631035
 11
497.552368
 21
1.241035
  0
LINE
  8
0
  6
DASHED
 10
385.052368
 20
27.727501
 11
385.052368
 21
7.727500
  0
LINE
  8
0
  6
DASHED
 10
370.052368
 20
27.727501
 11
370.052368
 21
7.727500
  0
LINE
  8
0
  6
DASHED
 10
490.052368
 20
27.727501
 11
490.052368
 21
7.727500
  0
LINE
  8
0
  6
DASHED
 10
505.052368
 20
27.727501
 11
505.052368
 21
7.727500
  0
LINE
  8
0
  6
CONTINUOUS
 10
361.552368
 20
25.042179
 11
361.552368
 21
7.727500
  0
LINE
  8
0
  6
CONTINUOUS
 10
513.552368
 20
25.042179
 11
513.552368
 21
7.727500
  0
LINE
  8
0
  6
CONTINUOUS
 10
403.794983
 20
32.727501
 11
471.309784
 21
32.727501
  0
LINE
  8
0
  6
CONTINUOUS
 10
472.552368
 20
31.590620
 11
472.552368
 21
28.727501
  0
LINE
  8
0
  6
CONTINUOUS
 10
402.552368
 20
31.590620
 11
402.552368
 21
28.727501
  0
LINE
  8
0
  6
CONTINUOUS
 10
401.673767
 20
31.848820
 11
399.016785
 21
29.191940
  0
LINE
  8
0
  6
CONTINUOUS
 10
473.430969
 20
31.848820
 11
476.087982
 21
29.191999
  0
ARC
  8
0
  6
CONTINUOUS
 10
479.623383
 20
32.727501
 40
5.000000
 50
-135.000107
 51
-90.000000
  0
ARC
  8
0
  6
CONTINUOUS
 10
395.481384
 20
32.727501
 40
5.000000
 50
-90.000000
 51
-45.000111
  0
ARC
  8
0
  6
CONTINUOUS
 10
471.309784
 20
29.727501
 40
3.000000
 50
44.999599
 51
90.000000
  0
ARC
  8
0
  6
CONTINUOUS
 10
403.794983
 20
29.727501
 40
3.000000
 50
90.000000
 51
134.999695
  0
ARC
  8
0
  6
CONTINUOUS
 10
473.552368
 20
28.727501
 40
1.000000
 50
180.000000
 51
270.000000
  0
ARC
  8
0
  6
CONTINUOUS
 10
401.552368
 20
28.727501
 40
1.000000
 50
-90.000000
 51
0.000000
  0
CIRCLE
  8
0
  6
CONTINUOUS
 10
437.552368
 20
172.727493
 40
46.000000
  0
ARC
  8
0
  6
CONTINUOUS
 10
437.552368
 20
172.727493
 40
52.000000
 50
12.522600
 51
167.477295
  0
ARC
  8
0
  6
CONTINUOUS
 10
437.552368
 20
172.727493
 40
48.000000
 50
-192.522705
 51
12.522580
  0
ARC
  8
0
  6
CONTINUOUS
 10
467.552368
 20
102.227501
 40
34.000000
 50
-90.000000
 51
12.522600
  0
ARC
  8
0
  6
CONTINUOUS
 10
467.552368
 20
102.227501
 40
38.000000
 50
-90.000000
 51
12.522600
  0
ARC
  8
0
  6
CONTINUOUS
 10
407.552368
 20
102.227501
 40
34.000000
 50
167.477295
 51
270.000000
  0
ARC
  8
0
  6
CONTINUOUS
 10
407.552368
 20
102.227501
 40
38.000000
 50
167.477295
 51
270.000000
  0
LINE
  8
0
  6
CONTINUOUS
 10
504.648376
 20
110.466866
 11
488.315369
 21
184.002396
  0
LINE
  8
0
  6
CONTINUOUS
 10
386.789368
 20
184.002502
 11
370.456390
 21
110.466927
  0
LINE
  8
0
  6
CONTINUOUS
 10
390.694183
 20
183.135178
 11
374.361176
 21
109.599617
  0
LINE
  8
0
  6
CONTINUOUS
 10
500.743591
 20
109.599564
 11
484.410370
 21
183.135117
  0
LINE
  8
0
  6
CONTINUOUS
 10
467.552368
 20
68.227501
 11
407.552368
 21
68.227501
  0
LINE
  8
0
  6
CONTINUOUS
 10
467.552368
 20
64.227501
 11
407.552368
 21
64.227501
  0
ARC
  8
0
  6
CONTINUOUS
 10
317.870789
 20
119.227501
 40
215.181595
 50
-12.982100
 51
12.982100
  0
LINE
  8
0
  6
CONTINUOUS
 10
425.325378
 20
86.227501
 11
420.384979
 21
86.227501
  0
LINE
  8
0
  6
CONTINUOUS
 10
428.052368
 20
94.502899
 11
428.052368
 21
86.227501
  0
LINE
  8
0
  6
CONTINUOUS
 10
432.802368
 20
97.508743
 11
432.802368
 21
100.477501
  0
LINE
  8
0
  6
CONTINUOUS
 10
442.302368
 20
97.508743
 11
442.302368
 21
100.477501
  0
LINE
  8
0
  6
CONTINUOUS
 10
436.624573
 20
98.733360
 11
436.624573
 21
87.786102
  0
LINE
  8
0
  6
CONTINUOUS
 10
438.405975
 20
98.733360
 11
438.405975
 21
87.786102
  0
LINE
  8
0
  6
CONTINUOUS
 10
447.757385
 20
98.733360
 11
447.757385
 21
87.711884
  0
LINE
  8
0
  6
CONTINUOUS
 10
449.390381
 20
92.888641
 11
449.390381
 21
87.711884
  0
LINE
  8
0
  6
CONTINUOUS
 10
425.798370
 20
98.584923
 11
421.220581
 21
98.584923
  0
LINE
  8
0
  6
CONTINUOUS
 10
421.220581
 20
98.584923
 11
420.147980
 21
97.254921
  0
LINE
  8
0
  6
CONTINUOUS
 10
420.276978
 20
100.477501
 11
418.552368
 21
98.269043
  0
LINE
  8
0
  6
CONTINUOUS
 10
420.147980
 20
89.045341
 11
421.237793
 21
87.897423
  0
LINE
  8
0
  6
CONTINUOUS
 10
418.552368
 20
88.076622
 11
420.384979
 21
86.227501
  0
LINE
  8
0
  6
CONTINUOUS
 10
418.552368
 20
98.269043
 11
418.552368
 21
88.076622
  0
LINE
  8
0
  6
CONTINUOUS
 10
420.147980
 20
97.254921
 11
420.147980
 21
89.045341
  0
LINE
  8
0
  6
CONTINUOUS
 10
426.679382
 20
97.733360
 11
425.780396
 21
98.584923
  0
LINE
  8
0
  6
CONTINUOUS
 10
426.664978
 20
100.477501
 11
428.052368
 21
98.937920
  0
LINE
  8
0
  6
CONTINUOUS
 10
426.679382
 20
97.508743
 11
428.052368
 21
97.508743
  0
LINE
  8
0
  6
CONTINUOUS
 10
420.276978
 20
100.477501
 11
426.664978
 21
100.477501
  0
LINE
  8
0
  6
CONTINUOUS
 10
424.192993
 20
94.502899
 11
428.052368
 21
94.502899
  0
LINE
  8
0
  6
CONTINUOUS
 10
426.679382
 20
92.944298
 11
424.192993
 21
92.944298
  0
LINE
  8
0
  6
CONTINUOUS
 10
423.710571
 20
87.897423
 11
421.237793
 21
87.897423
  0
LINE
  8
0
  6
CONTINUOUS
 10
426.679382
 20
91.459923
 11
426.679382
 21
92.647423
  0
ARC
  8
0
  6
CONTINUOUS
 10
423.710571
 20
90.866158
 40
2.968750
 50
-89.999786
 51
0.000109
  0
LINE
  8
0
  6
CONTINUOUS
 10
426.679382
 20
87.363419
 11
426.679382
 21
86.227501
  0
LINE
  8
0
  6
CONTINUOUS
 10
428.052368
 20
98.937920
 11
428.052368
 21
97.508743
  0
LINE
  8
0
  6
CONTINUOUS
 10
426.679382
 20
92.944298
 11
426.679382
 21
90.866158
  0
LINE
  8
0
  6
CONTINUOUS
 10
424.192993
 20
94.502899
 11
424.192993
 21
92.944298
  0
LINE
  8
0
  6
CONTINUOUS
 10
426.679382
 20
86.227501
 11
428.052368
 21
86.227501
  0
LINE
  8
0
  6
CONTINUOUS
 10
426.679382
 20
87.363419
 11
425.325378
 21
86.227501
  0
LINE
  8
0
  6
CONTINUOUS
 10
438.405975
 20
87.786102
 11
438.999573
 21
87.786102
  0
LINE
  8
0
  6
CONTINUOUS
 10
435.919586
 20
87.786102
 11
435.919586
 21
86.227501
  0
LINE
  8
0
  6
CONTINUOUS
 10
438.999573
 20
87.786102
 11
438.999573
 21
86.227501
  0
LINE
  8
0
  6
CONTINUOUS
 10
441.311371
 20
97.508743
 11
442.302368
 21
97.508743
  0
LINE
  8
0
  6
CONTINUOUS
 10
432.802368
 20
97.508743
 11
433.856995
 21
97.508743
  0
LINE
  8
0
  6
CONTINUOUS
 10
432.802368
 20
100.477501
 11
442.302368
 21
100.477501
  0
LINE
  8
0
  6
CONTINUOUS
 10
435.919586
 20
86.227501
 11
438.999573
 21
86.227501
  0
LINE
  8
0
  6
CONTINUOUS
 10
435.919586
 20
87.786102
 11
436.624573
 21
87.786102
  0
ARC
  8
0
  6
CONTINUOUS
 10
452.748596
 20
96.673782
 40
3.803712
 50
-73.981873
 51
90.003510
  0
ARC
  8
0
  6
CONTINUOUS
 10
452.748596
 20
96.673782
 40
2.320524
 50
-82.585274
 51
62.411850
  0
LINE
  8
0
  6
CONTINUOUS
 10
447.052368
 20
100.477501
 11
452.748596
 21
100.477501
  0
LINE
  8
0
  6
CONTINUOUS
 10
453.048187
 20
94.372658
 11
449.390381
 21
94.372658
  0
LINE
  8
0
  6
CONTINUOUS
 10
447.052368
 20
100.477501
 11
447.052368
 21
98.733360
  0
LINE
  8
0
  6
CONTINUOUS
 10
449.390381
 20
98.733360
 11
449.390381
 21
94.372658
  0
LINE
  8
0
  6
CONTINUOUS
 10
453.798187
 20
93.017761
 11
456.152588
 21
87.711884
  0
LINE
  8
0
  6
CONTINUOUS
 10
452.430969
 20
92.888641
 11
454.658783
 21
87.711884
  0
LINE
  8
0
  6
CONTINUOUS
 10
447.052368
 20
87.711884
 11
447.757385
 21
87.711884
  0
LINE
  8
0
  6
CONTINUOUS
 10
449.390381
 20
87.711884
 11
450.039795
 21
87.711884
  0
LINE
  8
0
  6
CONTINUOUS
 10
450.039795
 20
86.227501
 11
447.052368
 21
86.227501
  0
LINE
  8
0
  6
CONTINUOUS
 10
454.362976
 20
87.711884
 11
454.658783
 21
87.711884
  0
LINE
  8
0
  6
CONTINUOUS
 10
456.152588
 20
87.711884
 11
456.552368
 21
87.711884
  0
LINE
  8
0
  6
CONTINUOUS
 10
454.362976
 20
86.227501
 11
456.552368
 21
86.227501
  0
LINE
  8
0
  6
CONTINUOUS
 10
456.552368
 20
87.711884
 11
456.552368
 21
86.227501
  0
LINE
  8
0
  6
CONTINUOUS
 10
454.362976
 20
87.711884
 11
454.362976
 21
86.227501
  0
LINE
  8
0
  6
CONTINUOUS
 10
450.039795
 20
87.711884
 11
450.039795
 21
86.227501
  0
LINE
  8
0
  6
CONTINUOUS
 10
447.052368
 20
87.711884
 11
447.052368
 21
86.227501
  0
LINE
  8
0
  6
CONTINUOUS
 10
434.367188
 20
98.733360
 11
433.856995
 21
97.508743
  0
LINE
  8
0
  6
CONTINUOUS
 10
440.881195
 20
98.733360
 11
441.311371
 21
97.508743
  0
LINE
  8
0
  6
CONTINUOUS
 10
438.405975
 20
98.733360
 11
440.881195
 21
98.733360
  0
LINE
  8
0
  6
CONTINUOUS
 10
436.624573
 20
98.733360
 11
434.367188
 21
98.733360
  0
LINE
  8
0
  6
CONTINUOUS
 10
449.390381
 20
92.888641
 11
452.430969
 21
92.888641
  0
LINE
  8
0
  6
CONTINUOUS
 10
447.052368
 20
98.733360
 11
447.757385
 21
98.733360
  0
LINE
  8
0
  6
CONTINUOUS
 10
449.390381
 20
98.733360
 11
453.823395
 21
98.730476
  0
LINE
  8
0
  6
CONTINUOUS
 10
426.679382
 20
97.733360
 11
426.679382
 21
97.508743
  0
LINE
  8
0
  6
CONTINUOUS
 10
522.552368
 20
182.653915
 11
522.552368
 21
97.801102
  0
LINE
  8
0
  6
CONTINUOUS
 10
352.552368
 20
182.653900
 11
352.552368
 21
97.801102
  0
ARC
  8
0
  6
CONTINUOUS
 10
437.552368
 20
140.227493
 40
105.000000
 50
50.655579
 51
129.521500
  0
ARC
  8
0
  6
CONTINUOUS
 10
437.552368
 20
140.227493
 40
105.000000
 50
230.478897
 51
309.521606
  0
ARC
  8
0
  6
CONTINUOUS
 10
472.552368
 20
182.653915
 40
50.000000
 50
0.000000
 51
51.150589
  0
ARC
  8
0
  6
CONTINUOUS
 10
402.552368
 20
182.653900
 40
50.000000
 50
129.521698
 51
180.000000
  0
ARC
  8
0
  6
CONTINUOUS
 10
402.552368
 20
97.801102
 40
50.000000
 50
180.000000
 51
230.479202
  0
ARC
  8
0
  6
CONTINUOUS
 10
472.552368
 20
97.801102
 40
50.000000
 50
-50.478550
 51
0.000000
  0
LINE
  8
0
  6
CONTINUOUS
 10
422.552368
 20
178.727493
 11
422.552368
 21
166.727493
  0
LINE
  8
0
  6
CONTINUOUS
 10
414.552368
 20
178.727493
 11
414.552368
 21
166.727493
  0
LINE
  8
0
  6
CONTINUOUS
 10
414.552368
 20
178.727493
 11
422.552368
 21
178.727493
  0
LINE
  8
0
  6
CONTINUOUS
 10
414.552368
 20
166.727493
 11
422.552368
 21
166.727493
  0
ARC
  8
0
  6
CONTINUOUS
 10
437.552368
 20
172.727493
 40
20.000000
 50
-162.542404
 51
162.542404
  0
LINE
  8
0
  6
CONTINUOUS
 10
737.052368
 20
489.911957
 11
736.052368
 21
489.911957
  0
ARC
  8
0
  6
CONTINUOUS
 10
737.052368
 20
490.911957
 40
1.000000
 50
-90.000000
 51
0.000000
  0
LINE
  8
0
  6
CONTINUOUS
 10
741.552368
 20
493.411957
 11
741.552368
 21
501.411957
  0
LINE
  8
0
  6
CONTINUOUS
 10
741.552368
 20
493.411957
 11
738.052368
 21
491.911957
  0
LINE
  8
0
  6
CONTINUOUS
 10
741.552368
 20
501.411957
 11
738.052368
 21
502.911957
  0
LINE
  8
0
  6
CONTINUOUS
 10
738.052368
 20
490.911957
 11
738.052368
 21
503.911957
  0
LINE
  8
0
  6
CONTINUOUS
 10
737.052368
 20
504.911957
 11
736.052368
 21
504.911957
  0
ARC
  8
0
  6
CONTINUOUS
 10
737.052368
 20
503.911957
 40
1.000000
 50
0.000000
 51
90.000000
  0
LINE
  8
0
  6
CONTINUOUS
 10
736.052368
 20
520.411987
 11
736.052368
 21
474.411957
  0
LINE
  8
0
  6
CONTINUOUS
 10
734.052368
 20
472.411957
 11
736.052368
 21
474.411957
  0
LINE
  8
0
  6
CONTINUOUS
 10
734.052368
 20
472.411957
 11
688.052368
 21
472.411957
  0
LINE
  8
0
  6
CONTINUOUS
 10
693.552368
 20
476.911957
 11
693.552368
 21
472.411957
  0
ARC
  8
0
  6
CONTINUOUS
 10
690.552368
 20
476.911957
 40
3.000000
 50
0.000000
 51
90.000000
  0
LINE
  8
0
  6
CONTINUOUS
 10
690.552368
 20
479.911957
 11
686.052368
 21
479.911957
  0
CIRCLE
  8
0
  6
CONTINUOUS
 10
689.552368
 20
475.911957
 40
2.250000
  0
LINE
  8
0
  6
CONTINUOUS
 10
686.052368
 20
520.411987
 11
686.052368
 21
474.411957
  0
LINE
  8
0
  6
CONTINUOUS
 10
688.052368
 20
472.411957
 11
686.052368
 21
474.411957
  0
LINE
  8
0
  6
CONTINUOUS
 10
688.052368
 20
522.411987
 11
686.052368
 21
520.411987
  0
LINE
  8
0
  6
CONTINUOUS
 10
688.052368
 20
522.411987
 11
734.052368
 21
522.411987
  0
LINE
  8
0
  6
CONTINUOUS
 10
736.052368
 20
520.411987
 11
734.052368
 21
522.411987
  0
LINE
  8
0
  6
CONTINUOUS
 10
731.552368
 20
514.911987
 11
736.052368
 21
514.911987
  0
CIRCLE
  8
0
  6
CONTINUOUS
 10
732.552368
 20
518.911987
 40
2.250000
  0
ARC
  8
0
  6
CONTINUOUS
 10
731.552368
 20
517.911987
 40
3.000000
 50
180.000000
 51
270.000000
  0
LINE
  8
0
  6
CONTINUOUS
 10
728.552368
 20
517.911987
 11
728.552368
 21
522.411987
  0
LINE
  8
0
  6
CENTER
 10
711.052368
 20
529.877747
 11
711.052368
 21
465.745697
  0
LINE
  8
0
  6
CONTINUOUS
 10
733.638184
 20
473.411926
 11
735.052368
 21
474.826141
  0
LINE
  8
0
  6
CONTINUOUS
 10
735.052368
 20
514.911926
 11
735.052368
 21
474.826141
  0
LINE
  8
0
  6
CONTINUOUS
 10
693.552368
 20
473.411926
 11
733.638184
 21
473.411926
  0
LINE
  8
0
  6
CONTINUOUS
 10
687.052368
 20
479.911926
 11
687.052368
 21
519.997742
  0
LINE
  8
0
  6
CONTINUOUS
 10
728.552368
 20
521.411926
 11
688.466614
 21
521.411926
  0
LINE
  8
0
  6
CONTINUOUS
 10
688.466614
 20
521.411926
 11
687.052368
 21
519.997742
  0
LINE
  8
0
  6
CONTINUOUS
 10
734.552368
 20
158.727493
 11
688.052368
 21
158.727493
  0
LINE
  8
0
  6
CONTINUOUS
 10
686.052368
 20
188.727493
 11
686.052368
 21
160.727493
  0
LINE
  8
0
  6
CONTINUOUS
 10
736.052368
 20
188.727493
 11
736.052368
 21
160.727493
  0
LINE
  8
0
  6
CONTINUOUS
 10
738.052368
 20
170.727493
 11
686.052368
 21
170.727493
  0
LINE
  8
0
  6
CONTINUOUS
 10
688.052368
 20
158.727493
 11
686.052368
 21
160.727493
  0
LINE
  8
0
  6
CONTINUOUS
 10
736.052368
 20
160.727493
 11
734.052368
 21
158.727493
  0
LINE
  8
0
  6
CONTINUOUS
 10
736.052368
 20
160.727493
 11
686.052368
 21
160.727493
  0
LINE
  8
0
  6
CONTINUOUS
 10
735.052368
 20
189.727493
 11
687.052368
 21
189.727493
  0
LINE
  8
0
  6
CONTINUOUS
 10
687.052368
 20
189.727493
 11
686.052368
 21
188.727493
  0
LINE
  8
0
  6
CONTINUOUS
 10
735.052368
 20
189.727493
 11
736.052368
 21
188.727493
  0
LINE
  8
0
  6
CONTINUOUS
 10
736.052368
 20
188.727493
 11
686.052368
 21
188.727493
  0
LINE
  8
0
  6
CONTINUOUS
 10
738.052368
 20
186.727493
 11
738.052368
 21
170.727493
  0
LINE
  8
0
  6
CONTINUOUS
 10
737.052368
 20
187.727493
 11
736.052368
 21
187.727493
  0
ARC
  8
0
  6
CONTINUOUS
 10
737.052368
 20
186.727493
 40
1.000000
 50
0.000000
 51
90.000000
  0
LINE
  8
0
  6
CONTINUOUS
 10
741.552368
 20
184.227493
 11
741.552368
 21
176.227493
  0
LINE
  8
0
  6
CONTINUOUS
 10
741.552368
 20
184.227493
 11
738.052368
 21
185.727493
  0
LINE
  8
0
  6
CONTINUOUS
 10
741.552368
 20
176.227493
 11
738.052368
 21
174.727493
  0
LINE
  8
0
  6
CENTER
 10
711.052368
 20
150.898132
 11
711.052368
 21
198.485626
  0
LINE
  8
0
  6
CONTINUOUS
 10
734.552368
 20
158.727493
 11
734.552368
 21
157.227493
  0
LINE
  8
0
  6
CONTINUOUS
 10
688.552368
 20
158.727493
 11
688.552368
 21
157.227493
  0
LINE
  8
0
  6
CENTER
 10
743.996155
 20
180.227493
 11
731.921143
 21
180.227493
  0
LINE
  8
0
  6
CONTINUOUS
 10
607.052368
 20
528.911926
 11
607.052368
 21
548.411926
  0
TEXT
  8
0
 10
5.000000
 20
-8.000000
 40
4.000000
 41
1.000000
  1
HLM-40L-1200~1800-T90WT
 50
0.000000
  0
ENDSEC
  0
EOF
