  0
SECTION
  2
HEADER
  9
$CLAYER
  8
1
  9
$LTSCALE
 40
3.0
  0
ENDSEC
  0
SECTION
  2
TABLES
  0
TABLE
  2
LTYPE
 70
     4
  0
LTYPE
  2
CONTINUOUS
  3
solid line
 70
    64
 72
    65
 73
     0
 40
0.0
  0
LTYPE
  2
DASHED
  3
__ __ __ __ __ __ __ __ __ __ __ __ __ __ __
 70
    64
 72
    65
 73
     2
 40
0.75
 49
0.5
 49
-0.25
  0
LTYPE
  2
CENTER
  3
____ _ ____ _ ____ _ ____ _ ____ _ ____ _ ____
 70
    64
 72
    65
 73
     4
 40
2.0
 49
1.25
 49
-0.25
 49
0.25
 49
-0.25
  0
LTYPE
  2
PHANTOM
  3
_____ _ _ _____ _ _ _____ _ _ _____ _ _ ____
 70
    64
 72
    65
 73
     6
 40
2.5
 49
1.25
 49
-0.25
 49
0.25
 49
-0.25
 49
0.25
 49
-0.25
  0
ENDTAB
  0
TABLE
  2
LAYER
 70
     1
  0
LAYER
  2
0
 70
    64
 62
     7
  6
CONTINUOUS
  0
ENDTAB
  0
TABLE
  2
STYLE
 70
     1
  0
STYLE
  2
STANDARD
 70
     0
 40
0.000000
 41
1.000000
 50
0.000000
 71
     0
 42
3.000000
  3
txt
  4
BIGFONT
  0
ENDTAB
  0
ENDSEC
  0
SECTION
  2
BLOCKS
  0
ENDSEC
  0
SECTION
  2
ENTITIES
  0
LINE
  8
0
  6
CONTINUOUS
 10
241.772385
 20
52.047501
 11
241.772385
 21
194.047501
  0
LINE
  8
0
  6
CENTER
 10
144.382507
 20
123.047501
 11
288.262390
 21
123.047501
  0
LINE
  8
0
  6
CENTER
 10
344.772369
 20
266.402496
 11
344.772369
 21
-2.592500
  0
LINE
  8
0
  6
CENTER
 10
270.079987
 20
176.547501
 11
419.785004
 21
176.547501
  0
LINE
  8
0
  6
CONTINUOUS
 10
254.772385
 20
11.547500
 11
434.772369
 21
11.547500
  0
LINE
  8
0
  6
CONTINUOUS
 10
254.772385
 20
31.547501
 11
434.772369
 21
31.547501
  0
LINE
  8
0
  6
CONTINUOUS
 10
312.957977
 20
254.047501
 11
376.586792
 21
254.047501
  0
LINE
  8
0
  6
CONTINUOUS
 10
434.772369
 20
209.879501
 11
434.772369
 21
11.547500
  0
LINE
  8
0
  6
CONTINUOUS
 10
254.772385
 20
209.879501
 11
254.772385
 21
11.547500
  0
LINE
  8
0
  6
CONTINUOUS
 10
241.772385
 20
194.047501
 11
249.772385
 21
194.047501
  0
LINE
  8
0
  6
CONTINUOUS
 10
241.772385
 20
52.047501
 11
249.772385
 21
52.047501
  0
LINE
  8
0
  6
CONTINUOUS
 10
382.370972
 20
252.204834
 11
430.556793
 21
218.036819
  0
LINE
  8
0
  6
CONTINUOUS
 10
258.988190
 20
218.036819
 11
307.173767
 21
252.204834
  0
ARC
  8
0
  6
CONTINUOUS
 10
424.772369
 20
209.879456
 40
10.000000
 50
0.000000
 51
54.660099
  0
ARC
  8
0
  6
CONTINUOUS
 10
376.586792
 20
244.047501
 40
10.000000
 50
54.659950
 51
90.000000
  0
ARC
  8
0
  6
CONTINUOUS
 10
312.957977
 20
244.047501
 40
10.000000
 50
90.000000
 51
125.340302
  0
ARC
  8
0
  6
CONTINUOUS
 10
264.772369
 20
209.879547
 40
10.000000
 50
125.340500
 51
180.000000
  0
ARC
  8
0
  6
CONTINUOUS
 10
249.772385
 20
199.047501
 40
5.000000
 50
-90.000000
 51
0.000000
  0
ARC
  8
0
  6
CONTINUOUS
 10
249.772385
 20
47.047482
 40
5.000000
 50
0.000000
 51
90.000000
  0
LINE
  8
0
  6
CENTER
 10
404.772369
 20
37.302502
 11
404.772369
 21
3.332500
  0
LINE
  8
0
  6
CENTER
 10
284.772369
 20
38.487499
 11
284.772369
 21
3.727500
  0
LINE
  8
0
  6
DASHED
 10
397.272369
 20
31.547501
 11
397.272369
 21
11.547500
  0
LINE
  8
0
  6
DASHED
 10
412.272369
 20
31.547501
 11
412.272369
 21
11.547500
  0
LINE
  8
0
  6
DASHED
 10
292.272369
 20
31.547501
 11
292.272369
 21
11.547500
  0
LINE
  8
0
  6
DASHED
 10
277.272369
 20
31.547501
 11
277.272369
 21
11.547500
  0
LINE
  8
0
  6
CONTINUOUS
 10
420.772369
 20
28.862181
 11
420.772369
 21
11.547500
  0
LINE
  8
0
  6
CONTINUOUS
 10
268.772369
 20
28.862181
 11
268.772369
 21
11.547500
  0
LINE
  8
0
  6
CONTINUOUS
 10
378.529785
 20
36.547501
 11
311.014984
 21
36.547501
  0
LINE
  8
0
  6
CONTINUOUS
 10
309.772369
 20
35.410622
 11
309.772369
 21
32.547501
  0
LINE
  8
0
  6
CONTINUOUS
 10
379.772369
 20
35.410622
 11
379.772369
 21
32.547501
  0
LINE
  8
0
  6
CONTINUOUS
 10
380.650970
 20
35.668819
 11
383.307983
 21
33.011940
  0
LINE
  8
0
  6
CONTINUOUS
 10
308.893768
 20
35.668819
 11
306.236786
 21
33.012001
  0
ARC
  8
0
  6
CONTINUOUS
 10
302.701385
 20
36.547501
 40
5.000000
 50
270.000000
 51
315.000092
  0
ARC
  8
0
  6
CONTINUOUS
 10
386.843384
 20
36.547501
 40
5.000000
 50
225.000107
 51
270.000000
  0
ARC
  8
0
  6
CONTINUOUS
 10
311.014984
 20
33.547501
 40
3.000000
 50
90.000000
 51
135.000397
  0
ARC
  8
0
  6
CONTINUOUS
 10
378.529785
 20
33.547501
 40
3.000000
 50
45.000259
 51
90.000000
  0
ARC
  8
0
  6
CONTINUOUS
 10
308.772369
 20
32.547501
 40
1.000000
 50
-90.000000
 51
0.000000
  0
ARC
  8
0
  6
CONTINUOUS
 10
380.772369
 20
32.547501
 40
1.000000
 50
180.000000
 51
270.000000
  0
CIRCLE
  8
0
  6
CONTINUOUS
 10
344.772369
 20
176.547501
 40
46.000000
  0
ARC
  8
0
  6
CONTINUOUS
 10
344.772369
 20
176.547501
 40
52.000000
 50
12.522720
 51
167.477402
  0
ARC
  8
0
  6
CONTINUOUS
 10
344.772369
 20
176.547501
 40
48.000000
 50
-192.522598
 51
12.522720
  0
ARC
  8
0
  6
CONTINUOUS
 10
314.772369
 20
106.047501
 40
34.000000
 50
167.477402
 51
270.000000
  0
ARC
  8
0
  6
CONTINUOUS
 10
314.772369
 20
106.047501
 40
38.000000
 50
167.477402
 51
270.000000
  0
ARC
  8
0
  6
CONTINUOUS
 10
374.772369
 20
106.047501
 40
34.000000
 50
-90.000000
 51
12.522730
  0
ARC
  8
0
  6
CONTINUOUS
 10
374.772369
 20
106.047501
 40
38.000000
 50
-90.000000
 51
12.522720
  0
LINE
  8
0
  6
CONTINUOUS
 10
277.676392
 20
114.286865
 11
294.009369
 21
187.822403
  0
LINE
  8
0
  6
CONTINUOUS
 10
395.535370
 20
187.822495
 11
411.868378
 21
114.286926
  0
LINE
  8
0
  6
CONTINUOUS
 10
391.630371
 20
186.955185
 11
407.963593
 21
113.419617
  0
LINE
  8
0
  6
CONTINUOUS
 10
281.581177
 20
113.419563
 11
297.914368
 21
186.955124
  0
LINE
  8
0
  6
CONTINUOUS
 10
314.772369
 20
72.047501
 11
374.772369
 21
72.047501
  0
LINE
  8
0
  6
CONTINUOUS
 10
314.772369
 20
68.047501
 11
374.772369
 21
68.047501
  0
LINE
  8
0
  6
CONTINUOUS
 10
332.545380
 20
90.047501
 11
327.604980
 21
90.047501
  0
LINE
  8
0
  6
CONTINUOUS
 10
335.272369
 20
98.322899
 11
335.272369
 21
90.047501
  0
LINE
  8
0
  6
CONTINUOUS
 10
340.022369
 20
101.328743
 11
340.022369
 21
104.297501
  0
LINE
  8
0
  6
CONTINUOUS
 10
349.522369
 20
101.328743
 11
349.522369
 21
104.297501
  0
LINE
  8
0
  6
CONTINUOUS
 10
343.844574
 20
102.553360
 11
343.844574
 21
91.606102
  0
LINE
  8
0
  6
CONTINUOUS
 10
345.625977
 20
102.553360
 11
345.625977
 21
91.606102
  0
LINE
  8
0
  6
CONTINUOUS
 10
354.977570
 20
102.553360
 11
354.977570
 21
91.531883
  0
LINE
  8
0
  6
CONTINUOUS
 10
356.610382
 20
96.708641
 11
356.610382
 21
91.531883
  0
LINE
  8
0
  6
CONTINUOUS
 10
333.018372
 20
102.404922
 11
328.440796
 21
102.404922
  0
LINE
  8
0
  6
CONTINUOUS
 10
328.440796
 20
102.404922
 11
327.368195
 21
101.074921
  0
LINE
  8
0
  6
CONTINUOUS
 10
327.497192
 20
104.297501
 11
325.772369
 21
102.089043
  0
LINE
  8
0
  6
CONTINUOUS
 10
327.368195
 20
92.865341
 11
328.457977
 21
91.717422
  0
LINE
  8
0
  6
CONTINUOUS
 10
325.772369
 20
91.896622
 11
327.604980
 21
90.047501
  0
LINE
  8
0
  6
CONTINUOUS
 10
325.772369
 20
102.089043
 11
325.772369
 21
91.896622
  0
LINE
  8
0
  6
CONTINUOUS
 10
327.368195
 20
101.074921
 11
327.368195
 21
92.865341
  0
LINE
  8
0
  6
CONTINUOUS
 10
333.899384
 20
101.553360
 11
333.000397
 21
102.404922
  0
LINE
  8
0
  6
CONTINUOUS
 10
333.884979
 20
104.297501
 11
335.272369
 21
102.757919
  0
LINE
  8
0
  6
CONTINUOUS
 10
333.899384
 20
101.328743
 11
335.272369
 21
101.328743
  0
LINE
  8
0
  6
CONTINUOUS
 10
327.497192
 20
104.297501
 11
333.884979
 21
104.297501
  0
LINE
  8
0
  6
CONTINUOUS
 10
331.412994
 20
98.322899
 11
335.272369
 21
98.322899
  0
LINE
  8
0
  6
CONTINUOUS
 10
333.899384
 20
96.764297
 11
331.412994
 21
96.764297
  0
LINE
  8
0
  6
CONTINUOUS
 10
330.930573
 20
91.717422
 11
328.457977
 21
91.717422
  0
LINE
  8
0
  6
CONTINUOUS
 10
333.899384
 20
95.279922
 11
333.899384
 21
96.467422
  0
ARC
  8
0
  6
CONTINUOUS
 10
330.930573
 20
94.686157
 40
2.968750
 50
-89.999786
 51
0.000109
  0
LINE
  8
0
  6
CONTINUOUS
 10
333.899384
 20
91.183418
 11
333.899384
 21
90.047501
  0
LINE
  8
0
  6
CONTINUOUS
 10
335.272369
 20
102.757919
 11
335.272369
 21
101.328743
  0
LINE
  8
0
  6
CONTINUOUS
 10
333.899384
 20
96.764297
 11
333.899384
 21
94.686157
  0
LINE
  8
0
  6
CONTINUOUS
 10
331.412994
 20
98.322899
 11
331.412994
 21
96.764297
  0
LINE
  8
0
  6
CONTINUOUS
 10
333.899384
 20
90.047501
 11
335.272369
 21
90.047501
  0
LINE
  8
0
  6
CONTINUOUS
 10
333.899384
 20
91.183418
 11
332.545380
 21
90.047501
  0
LINE
  8
0
  6
CONTINUOUS
 10
345.625977
 20
91.606102
 11
346.219574
 21
91.606102
  0
LINE
  8
0
  6
CONTINUOUS
 10
343.139587
 20
91.606102
 11
343.139587
 21
90.047501
  0
LINE
  8
0
  6
CONTINUOUS
 10
346.219574
 20
91.606102
 11
346.219574
 21
90.047501
  0
LINE
  8
0
  6
CONTINUOUS
 10
348.531372
 20
101.328743
 11
349.522369
 21
101.328743
  0
LINE
  8
0
  6
CONTINUOUS
 10
340.022369
 20
101.328743
 11
341.076996
 21
101.328743
  0
LINE
  8
0
  6
CONTINUOUS
 10
340.022369
 20
104.297501
 11
349.522369
 21
104.297501
  0
LINE
  8
0
  6
CONTINUOUS
 10
343.139587
 20
90.047501
 11
346.219574
 21
90.047501
  0
LINE
  8
0
  6
CONTINUOUS
 10
343.139587
 20
91.606102
 11
343.844574
 21
91.606102
  0
ARC
  8
0
  6
CONTINUOUS
 10
359.968567
 20
100.493782
 40
3.803712
 50
-73.981873
 51
90.003510
  0
ARC
  8
0
  6
CONTINUOUS
 10
359.968567
 20
100.493782
 40
2.320524
 50
-82.585274
 51
62.411850
  0
LINE
  8
0
  6
CONTINUOUS
 10
354.272369
 20
104.297501
 11
359.968567
 21
104.297501
  0
LINE
  8
0
  6
CONTINUOUS
 10
360.268188
 20
98.192657
 11
356.610382
 21
98.192657
  0
LINE
  8
0
  6
CONTINUOUS
 10
354.272369
 20
104.297501
 11
354.272369
 21
102.553360
  0
LINE
  8
0
  6
CONTINUOUS
 10
356.610382
 20
102.553360
 11
356.610382
 21
98.192657
  0
LINE
  8
0
  6
CONTINUOUS
 10
361.018188
 20
96.837761
 11
363.372589
 21
91.531883
  0
LINE
  8
0
  6
CONTINUOUS
 10
359.650970
 20
96.708641
 11
361.878784
 21
91.531883
  0
LINE
  8
0
  6
CONTINUOUS
 10
354.272369
 20
91.531883
 11
354.977570
 21
91.531883
  0
LINE
  8
0
  6
CONTINUOUS
 10
356.610382
 20
91.531883
 11
357.259796
 21
91.531883
  0
LINE
  8
0
  6
CONTINUOUS
 10
357.259796
 20
90.047501
 11
354.272369
 21
90.047501
  0
LINE
  8
0
  6
CONTINUOUS
 10
361.582977
 20
91.531883
 11
361.878784
 21
91.531883
  0
LINE
  8
0
  6
CONTINUOUS
 10
363.372589
 20
91.531883
 11
363.772369
 21
91.531883
  0
LINE
  8
0
  6
CONTINUOUS
 10
361.582977
 20
90.047501
 11
363.772369
 21
90.047501
  0
LINE
  8
0
  6
CONTINUOUS
 10
363.772369
 20
91.531883
 11
363.772369
 21
90.047501
  0
LINE
  8
0
  6
CONTINUOUS
 10
361.582977
 20
91.531883
 11
361.582977
 21
90.047501
  0
LINE
  8
0
  6
CONTINUOUS
 10
357.259796
 20
91.531883
 11
357.259796
 21
90.047501
  0
LINE
  8
0
  6
CONTINUOUS
 10
354.272369
 20
91.531883
 11
354.272369
 21
90.047501
  0
LINE
  8
0
  6
CONTINUOUS
 10
341.587189
 20
102.553360
 11
341.076996
 21
101.328743
  0
LINE
  8
0
  6
CONTINUOUS
 10
348.101196
 20
102.553360
 11
348.531372
 21
101.328743
  0
LINE
  8
0
  6
CONTINUOUS
 10
345.625977
 20
102.553360
 11
348.101196
 21
102.553360
  0
LINE
  8
0
  6
CONTINUOUS
 10
343.844574
 20
102.553360
 11
341.587189
 21
102.553360
  0
LINE
  8
0
  6
CONTINUOUS
 10
356.610382
 20
96.708641
 11
359.650970
 21
96.708641
  0
LINE
  8
0
  6
CONTINUOUS
 10
354.272369
 20
102.553360
 11
354.977570
 21
102.553360
  0
LINE
  8
0
  6
CONTINUOUS
 10
356.610382
 20
102.553360
 11
361.043396
 21
102.550484
  0
LINE
  8
0
  6
CONTINUOUS
 10
333.899384
 20
101.553360
 11
333.899384
 21
101.328743
  0
ARC
  8
0
  6
CONTINUOUS
 10
464.453979
 20
123.047501
 40
215.181595
 50
167.017899
 51
192.982101
  0
LINE
  8
0
  6
CONTINUOUS
 10
55.272381
 20
161.047501
 11
185.272385
 21
161.047501
  0
LINE
  8
0
  6
CONTINUOUS
 10
55.272381
 20
55.047501
 11
185.272385
 21
55.047501
  0
LINE
  8
0
  6
CONTINUOUS
 10
55.272381
 20
150.670837
 11
173.934143
 21
150.670837
  0
LINE
  8
0
  6
CONTINUOUS
 10
55.272381
 20
65.424141
 11
173.934143
 21
65.424141
  0
LINE
  8
0
  6
CONTINUOUS
 10
175.272385
 20
159.047501
 11
175.272385
 21
57.047482
  0
ARC
  8
0
  6
CONTINUOUS
 10
177.272385
 20
159.047516
 40
2.000000
 50
90.000000
 51
180.000000
  0
ARC
  8
0
  6
CONTINUOUS
 10
177.272385
 20
57.047501
 40
2.000000
 50
180.000000
 51
270.000000
  0
LINE
  8
0
  6
CENTER
 10
675.911621
 20
-4.962500
 11
675.911621
 21
267.192505
  0
LINE
  8
0
  6
CENTER
 10
575.109192
 20
123.047501
 11
771.819214
 21
123.047501
  0
LINE
  8
0
  6
CENTER
 10
520.099976
 20
176.547501
 11
767.079224
 21
176.547501
  0
LINE
  8
0
  6
CENTER
 10
605.911621
 20
43.227501
 11
605.911621
 21
4.517500
  0
LINE
  8
0
  6
CENTER
 10
745.911621
 20
40.462502
 11
745.911621
 21
3.727500
  0
LINE
  8
0
  6
DASHED
 10
738.411621
 20
31.547501
 11
738.411621
 21
11.547500
  0
LINE
  8
0
  6
DASHED
 10
753.411621
 20
31.547501
 11
753.411621
 21
11.547500
  0
LINE
  8
0
  6
DASHED
 10
613.411621
 20
31.547501
 11
613.411621
 21
11.547500
  0
LINE
  8
0
  6
DASHED
 10
598.411621
 20
31.547501
 11
598.411621
 21
11.547500
  0
LINE
  8
0
  6
CONTINUOUS
 10
585.911621
 20
11.547500
 11
640.911621
 21
11.547500
  0
LINE
  8
0
  6
CONTINUOUS
 10
710.911621
 20
11.547500
 11
765.911621
 21
11.547500
  0
LINE
  8
0
  6
CONTINUOUS
 10
732.911621
 20
31.547501
 11
762.911621
 21
31.547501
  0
LINE
  8
0
  6
CONTINUOUS
 10
588.911621
 20
31.547501
 11
618.911621
 21
31.547501
  0
LINE
  8
0
  6
CONTINUOUS
 10
585.911621
 20
28.916380
 11
585.911621
 21
11.547520
  0
LINE
  8
0
  6
CONTINUOUS
 10
765.911621
 20
28.916380
 11
765.911621
 21
11.547500
  0
LINE
  8
0
  6
CONTINUOUS
 10
727.911621
 20
233.827606
 11
727.911621
 21
249.209259
  0
LINE
  8
0
  6
CONTINUOUS
 10
623.911621
 20
249.208878
 11
623.911621
 21
11.547500
  0
LINE
  8
0
  6
CONTINUOUS
 10
642.411621
 20
13.047500
 11
709.411621
 21
13.047500
  0
LINE
  8
0
  6
CONTINUOUS
 10
628.356201
 20
215.047501
 11
724.143372
 21
215.047501
  0
LINE
  8
0
  6
CONTINUOUS
 10
723.981384
 20
253.208633
 11
675.911621
 21
254.047516
  0
LINE
  8
0
  6
CONTINUOUS
 10
627.841797
 20
253.208282
 11
675.911621
 21
254.047516
  0
LINE
  8
0
  6
CONTINUOUS
 10
602.911621
 20
135.827606
 11
602.911621
 21
217.267380
  0
LINE
  8
0
  6
CONTINUOUS
 10
748.911621
 20
135.827606
 11
748.911621
 21
217.267380
  0
LINE
  8
0
  6
CONTINUOUS
 10
609.911621
 20
77.327599
 11
609.911621
 21
180.687775
  0
LINE
  8
0
  6
CONTINUOUS
 10
741.911621
 20
77.327621
 11
741.911621
 21
180.687775
  0
ARC
  8
0
  6
CONTINUOUS
 10
627.911621
 20
249.208893
 40
4.000000
 50
91.000580
 51
180.000000
  0
ARC
  8
0
  6
CONTINUOUS
 10
723.911621
 20
249.209244
 40
4.000000
 50
0.000000
 51
89.000359
  0
LINE
  8
0
  6
CONTINUOUS
 10
607.988586
 20
223.998062
 11
618.834595
 21
227.096939
  0
LINE
  8
0
  6
CONTINUOUS
 10
732.988586
 20
227.096939
 11
743.834595
 21
223.998062
  0
LINE
  8
0
  6
CONTINUOUS
 10
614.988586
 20
70.596939
 11
618.834595
 21
69.498062
  0
LINE
  8
0
  6
CONTINUOUS
 10
736.834595
 20
70.596939
 11
732.988586
 21
69.498062
  0
LINE
  8
0
  6
CONTINUOUS
 10
763.302979
 20
31.890739
 11
730.520203
 21
36.204262
  0
LINE
  8
0
  6
CONTINUOUS
 10
588.520203
 20
31.890739
 11
621.302979
 21
36.204281
  0
ARC
  8
0
  6
CONTINUOUS
 10
609.911621
 20
217.267426
 40
7.000000
 50
105.945801
 51
180.000000
  0
ARC
  8
0
  6
CONTINUOUS
 10
609.911621
 20
135.827652
 40
7.000000
 50
180.000000
 51
240.000198
  0
ARC
  8
0
  6
CONTINUOUS
 10
741.911621
 20
217.267365
 40
7.000000
 50
0.000000
 51
74.054764
  0
ARC
  8
0
  6
CONTINUOUS
 10
741.911621
 20
135.827591
 40
7.000000
 50
-59.999882
 51
0.000000
  0
ARC
  8
0
  6
CONTINUOUS
 10
616.911621
 20
77.327660
 40
7.000000
 50
180.000000
 51
254.054901
  0
ARC
  8
0
  6
CONTINUOUS
 10
734.911621
 20
77.327599
 40
7.000000
 50
-74.054497
 51
0.000000
  0
LINE
  8
0
  6
CONTINUOUS
 10
727.911621
 20
36.547501
 11
727.911621
 21
233.827606
  0
ARC
  8
0
  6
CONTINUOUS
 10
734.911621
 20
233.827667
 40
7.000000
 50
180.000000
 51
254.054901
  0
ARC
  8
0
  6
CONTINUOUS
 10
734.911621
 20
62.767441
 40
7.000000
 50
105.945801
 51
180.000000
  0
ARC
  8
0
  6
CONTINUOUS
 10
748.911621
 20
123.703247
 40
7.000000
 50
120.000099
 51
180.000000
  0
ARC
  8
0
  6
CONTINUOUS
 10
730.911621
 20
39.178638
 40
3.000000
 50
180.000000
 51
262.504395
  0
ARC
  8
0
  6
CONTINUOUS
 10
762.911621
 20
28.547501
 40
3.000000
 50
0.000000
 51
90.000000
  0
ARC
  8
0
  6
CONTINUOUS
 10
762.911621
 20
28.916361
 40
3.000000
 50
0.000000
 51
82.504204
  0
LINE
  8
0
  6
CONTINUOUS
 10
727.911621
 20
36.547501
 11
727.911621
 21
11.547500
  0
ARC
  8
0
  6
CONTINUOUS
 10
732.911621
 20
36.547520
 40
5.000000
 50
180.000000
 51
270.000000
  0
ARC
  8
0
  6
CONTINUOUS
 10
620.911621
 20
39.178638
 40
3.000000
 50
-82.503883
 51
0.000000
  0
ARC
  8
0
  6
CONTINUOUS
 10
618.911621
 20
36.547501
 40
5.000000
 50
-90.000000
 51
0.000000
  0
ARC
  8
0
  6
CONTINUOUS
 10
588.911621
 20
28.547520
 40
3.000000
 50
90.000000
 51
180.000000
  0
ARC
  8
0
  6
CONTINUOUS
 10
588.911621
 20
28.916401
 40
3.000000
 50
97.496292
 51
180.000000
  0
LINE
  8
0
  6
CONTINUOUS
 10
640.911621
 20
11.547500
 11
642.411621
 21
13.047500
  0
LINE
  8
0
  6
CONTINUOUS
 10
710.911621
 20
11.547500
 11
709.411621
 21
13.047500
  0
ARC
  8
0
  6
CONTINUOUS
 10
616.911621
 20
62.767361
 40
7.000000
 50
0.000000
 51
74.054688
  0
ARC
  8
0
  6
CONTINUOUS
 10
602.911621
 20
123.703278
 40
7.000000
 50
0.000000
 51
60.000092
  0
ARC
  8
0
  6
CONTINUOUS
 10
616.911621
 20
233.827606
 40
7.000000
 50
-74.054443
 51
0.000000
  0
ARC
  8
0
  6
CONTINUOUS
 10
675.911621
 20
123.047501
 40
71.000000
 50
-21.630920
 51
6.068256
  0
ARC
  8
0
  6
CONTINUOUS
 10
675.911621
 20
123.047501
 40
71.000000
 50
173.931793
 51
201.630905
  0
LINE
  8
0
  6
CONTINUOUS
 10
728.911621
 20
66.372978
 11
728.911621
 21
60.047501
  0
LINE
  8
0
  6
CONTINUOUS
 10
622.911621
 20
60.047501
 11
622.911621
 21
66.236504
  0
ARC
  8
0
  6
CONTINUOUS
 10
723.911621
 20
60.047501
 40
5.000000
 50
-36.869869
 51
0.000000
  0
ARC
  8
0
  6
CONTINUOUS
 10
627.911621
 20
60.047501
 40
5.000000
 50
180.000000
 51
216.865204
  0
LINE
  8
0
  6
CONTINUOUS
 10
359.772369
 20
170.547562
 11
359.772369
 21
182.547562
  0
LINE
  8
0
  6
CONTINUOUS
 10
367.772369
 20
170.547577
 11
367.772369
 21
182.547577
  0
LINE
  8
0
  6
CONTINUOUS
 10
367.772369
 20
170.547577
 11
359.772369
 21
170.547562
  0
LINE
  8
0
  6
CONTINUOUS
 10
367.772369
 20
182.547577
 11
359.772369
 21
182.547562
  0
ARC
  8
0
  6
CONTINUOUS
 10
344.772369
 20
176.547501
 40
20.000000
 50
17.457600
 51
342.542389
  0
LINE
  8
0
  6
CONTINUOUS
 10
535.911621
 20
156.547501
 11
535.911621
 21
196.547501
  0
LINE
  8
0
  6
CONTINUOUS
 10
600.911621
 20
196.547501
 11
535.911621
 21
196.547501
  0
LINE
  8
0
  6
CONTINUOUS
 10
600.911621
 20
156.547501
 11
535.911621
 21
156.547501
  0
LINE
  8
0
  6
CONTINUOUS
 10
600.911621
 20
199.047501
 11
600.911621
 21
154.047501
  0
LINE
  8
0
  6
CONTINUOUS
 10
602.911621
 20
199.047501
 11
600.911621
 21
199.047501
  0
LINE
  8
0
  6
CONTINUOUS
 10
602.911621
 20
154.047501
 11
600.911621
 21
154.047501
  0
ARC
  8
0
  6
CONTINUOUS
 10
589.911621
 20
176.547501
 40
6.000000
 50
-90.000000
 51
90.000000
  0
LINE
  8
0
  6
CONTINUOUS
 10
589.911621
 20
182.547501
 11
535.911621
 21
182.547501
  0
LINE
  8
0
  6
CONTINUOUS
 10
589.911621
 20
170.547501
 11
535.911621
 21
170.547501
  0
LINE
  8
0
  6
CONTINUOUS
 10
232.772385
 20
77.803497
 11
232.772385
 21
192.047501
  0
LINE
  8
0
  6
CENTER
 10
-18.525000
 20
108.047501
 11
288.262390
 21
108.047501
  0
LINE
  8
0
  6
CONTINUOUS
 10
234.772385
 20
194.047501
 11
241.772385
 21
194.047501
  0
LINE
  8
0
  6
CONTINUOUS
 10
234.772385
 20
52.047520
 11
241.772385
 21
52.047520
  0
LINE
  8
0
  6
CONTINUOUS
 10
213.772385
 20
55.047501
 11
185.272385
 21
55.047501
  0
LINE
  8
0
  6
CONTINUOUS
 10
185.272385
 20
161.047501
 11
229.772369
 21
161.047501
  0
LINE
  8
0
  6
CONTINUOUS
 10
231.272385
 20
172.181473
 11
212.684113
 21
161.449432
  0
ARC
  8
0
  6
CONTINUOUS
 10
234.772400
 20
192.047501
 40
2.000000
 50
90.000000
 51
180.000000
  0
ARC
  8
0
  6
CONTINUOUS
 10
234.772385
 20
54.047501
 40
2.000000
 50
194.477707
 51
270.000000
  0
LINE
  8
0
  6
CONTINUOUS
 10
213.772385
 20
57.047501
 11
213.772385
 21
73.803497
  0
LINE
  8
0
  6
CONTINUOUS
 10
230.772385
 20
75.803497
 11
215.772385
 21
75.803497
  0
ARC
  8
0
  6
CONTINUOUS
 10
215.772385
 20
73.803520
 40
2.000000
 50
90.000000
 51
180.000000
  0
ARC
  8
0
  6
CONTINUOUS
 10
230.899399
 20
53.047501
 40
2.000000
 50
14.477280
 51
90.000000
  0
ARC
  8
0
  6
CONTINUOUS
 10
230.772385
 20
77.803497
 40
2.000000
 50
-90.000000
 51
0.000000
  0
LINE
  8
0
  6
CONTINUOUS
 10
213.772385
 20
55.047501
 11
230.899399
 21
55.047501
  0
ARC
  8
0
  6
CONTINUOUS
 10
211.772385
 20
57.047501
 40
2.000000
 50
-90.000000
 51
0.000000
  0
ARC
  8
0
  6
CONTINUOUS
 10
229.772385
 20
164.047501
 40
3.000000
 50
-90.000000
 51
0.000000
  0
ARC
  8
0
  6
CONTINUOUS
 10
229.772385
 20
174.779541
 40
3.000000
 50
-59.999660
 51
0.000000
  0
ARC
  8
0
  6
CONTINUOUS
 10
211.184097
 20
164.047501
 40
3.000000
 50
270.000000
 51
300.000305
  0
LINE
  8
0
  6
CONTINUOUS
 10
185.272385
 20
161.047501
 11
185.272385
 21
55.047501
  0
LINE
  8
0
  6
CONTINUOUS
 10
413.641510
 20
591.231689
 11
344.773041
 21
591.231689
  0
LINE
  8
0
  6
CONTINUOUS
 10
413.640900
 20
411.231659
 11
367.772369
 21
411.231750
  0
LINE
  8
0
  6
CENTER
 10
344.772369
 20
346.842865
 11
344.772919
 21
617.077515
  0
LINE
  8
0
  6
CENTER
 10
419.626190
 20
571.232544
 11
391.258148
 21
571.232544
  0
LINE
  8
0
  6
CONTINUOUS
 10
434.772705
 20
501.231750
 11
433.864685
 21
449.231720
  0
LINE
  8
0
  6
CONTINUOUS
 10
423.095490
 20
417.974274
 11
433.864685
 21
449.231720
  0
ARC
  8
0
  6
CONTINUOUS
 10
413.641083
 20
421.231720
 40
10.000000
 50
-90.000000
 51
-19.010900
  0
ARC
  8
0
  6
CONTINUOUS
 10
404.772705
 20
571.232544
 40
7.500000
 50
-46.074883
 51
212.226791
  0
LINE
  8
0
  6
CONTINUOUS
 10
434.772705
 20
501.231750
 11
433.864899
 21
553.231689
  0
LINE
  8
0
  6
CONTINUOUS
 10
423.095886
 20
584.489075
 11
433.864899
 21
553.231689
  0
ARC
  8
0
  6
CONTINUOUS
 10
413.641510
 20
581.231689
 40
10.000000
 50
19.010900
 51
90.000000
  0
LINE
  8
0
  6
CONTINUOUS
 10
254.772690
 20
501.231934
 11
255.680496
 21
449.231995
  0
LINE
  8
0
  6
CONTINUOUS
 10
266.449493
 20
417.974518
 11
255.680496
 21
449.231995
  0
ARC
  8
0
  6
CONTINUOUS
 10
275.904083
 20
421.231964
 40
10.000000
 50
199.010895
 51
270.000000
  0
LINE
  8
0
  6
CONTINUOUS
 10
254.772690
 20
501.231934
 11
255.629227
 21
550.284546
  0
LINE
  8
0
  6
CONTINUOUS
 10
266.449890
 20
584.489258
 11
256.027527
 21
554.238525
  0
LINE
  8
0
  6
CONTINUOUS
 10
243.810501
 20
572.231873
 11
241.772903
 21
572.231873
  0
LINE
  8
0
  6
CONTINUOUS
 10
241.772903
 20
572.231873
 11
241.772491
 21
430.231995
  0
LINE
  8
0
  6
CONTINUOUS
 10
252.882492
 20
558.420105
 11
250.571899
 21
567.043701
  0
ARC
  8
0
  6
CONTINUOUS
 10
243.810501
 20
565.231873
 40
7.000000
 50
14.999900
 51
90.000000
  0
ARC
  8
0
  6
CONTINUOUS
 10
259.644104
 20
560.231873
 40
7.000000
 50
-165.000305
 51
-90.000000
  0
LINE
  8
0
  6
CONTINUOUS
 10
243.810089
 20
430.231995
 11
241.772491
 21
430.231995
  0
LINE
  8
0
  6
CONTINUOUS
 10
252.882294
 20
444.043823
 11
250.571701
 21
435.420227
  0
ARC
  8
0
  6
CONTINUOUS
 10
243.810089
 20
437.232025
 40
7.000000
 50
-90.000000
 51
-14.999900
  0
ARC
  8
0
  6
CONTINUOUS
 10
259.643890
 20
442.231995
 40
7.000000
 50
121.109207
 51
165.000336
  0
ARC
  8
0
  6
CONTINUOUS
 10
275.904083
 20
581.232300
 40
10.000000
 50
90.000000
 51
160.989105
  0
ARC
  8
0
  6
CONTINUOUS
 10
284.772491
 20
571.233215
 40
7.500000
 50
-32.232941
 51
238.076355
  0
LINE
  8
0
  6
CENTER
 10
404.772400
 20
559.430908
 11
404.772888
 21
583.307312
  0
LINE
  8
0
  6
CENTER
 10
297.783081
 20
571.232605
 11
272.205353
 21
571.232605
  0
LINE
  8
0
  6
CENTER
 10
284.772705
 20
559.430908
 11
284.772888
 21
583.307495
  0
LINE
  8
0
  6
CONTINUOUS
 10
430.916809
 20
553.232178
 11
258.628784
 21
553.232178
  0
LINE
  8
0
  6
CONTINUOUS
 10
301.991913
 20
574.232178
 11
387.552826
 21
574.232178
  0
ARC
  8
0
  6
CONTINUOUS
 10
430.916809
 20
550.232178
 40
3.000000
 50
1.000152
 51
90.000000
  0
ARC
  8
0
  6
CONTINUOUS
 10
258.628784
 20
550.232178
 40
3.000000
 50
90.000000
 51
178.999634
  0
LINE
  8
0
  6
CONTINUOUS
 10
430.916809
 20
449.232147
 11
258.628784
 21
449.232147
  0
ARC
  8
0
  6
CONTINUOUS
 10
430.916809
 20
452.232147
 40
3.000000
 50
270.000000
 51
358.999847
  0
ARC
  8
0
  6
CONTINUOUS
 10
258.628784
 20
452.232147
 40
3.000000
 50
181.000366
 51
270.000000
  0
LINE
  8
0
  6
CONTINUOUS
 10
379.772614
 20
454.232147
 11
379.772614
 21
548.232178
  0
LINE
  8
0
  6
CONTINUOUS
 10
309.772614
 20
454.232147
 11
309.772614
 21
548.232178
  0
LINE
  8
0
  6
CONTINUOUS
 10
286.052612
 20
567.232178
 11
292.772369
 21
567.232178
  0
LINE
  8
0
  6
CONTINUOUS
 10
405.772491
 20
567.232178
 11
396.772369
 21
567.232178
  0
ARC
  8
0
  6
CONTINUOUS
 10
405.772491
 20
560.232178
 40
7.000000
 50
0.000000
 51
90.000000
  0
ARC
  8
0
  6
CONTINUOUS
 10
419.772491
 20
560.232178
 40
7.000000
 50
180.000000
 51
270.000000
  0
LINE
  8
0
  6
CENTER
 10
419.626190
 20
431.232605
 11
391.258148
 21
431.232605
  0
ARC
  8
0
  6
CONTINUOUS
 10
404.772705
 20
431.232605
 40
7.500000
 50
-212.226791
 51
46.074883
  0
ARC
  8
0
  6
CONTINUOUS
 10
284.772491
 20
431.231934
 40
7.500000
 50
-226.078156
 51
32.232941
  0
LINE
  8
0
  6
CENTER
 10
404.772400
 20
443.034210
 11
404.772888
 21
419.157806
  0
LINE
  8
0
  6
CENTER
 10
297.783081
 20
431.232513
 11
272.205353
 21
431.232513
  0
LINE
  8
0
  6
CENTER
 10
284.772705
 20
443.034210
 11
284.772888
 21
419.157593
  0
LINE
  8
0
  6
CONTINUOUS
 10
301.991913
 20
428.232147
 11
387.552826
 21
428.232147
  0
LINE
  8
0
  6
CONTINUOUS
 10
283.772491
 20
435.232147
 11
292.772369
 21
435.232086
  0
ARC
  8
0
  6
CONTINUOUS
 10
283.772491
 20
442.232147
 40
7.000000
 50
180.000000
 51
270.000000
  0
ARC
  8
0
  6
CONTINUOUS
 10
269.772491
 20
442.232147
 40
7.000000
 50
0.000000
 51
90.000000
  0
LINE
  8
0
  6
CONTINUOUS
 10
405.772491
 20
435.232147
 11
396.772369
 21
435.232086
  0
ARC
  8
0
  6
CONTINUOUS
 10
405.772491
 20
442.232147
 40
7.000000
 50
-90.000000
 51
0.000000
  0
ARC
  8
0
  6
CONTINUOUS
 10
419.772491
 20
442.232147
 40
7.000000
 50
90.000000
 51
180.000000
  0
LINE
  8
0
  6
CONTINUOUS
 10
279.321930
 20
562.155212
 11
278.223053
 21
558.309082
  0
ARC
  8
0
  6
CONTINUOUS
 10
286.052612
 20
560.232178
 40
7.000000
 50
90.000000
 51
164.054611
  0
ARC
  8
0
  6
CONTINUOUS
 10
271.492401
 20
560.232178
 40
7.000000
 50
-90.000000
 51
-15.945396
  0
LINE
  8
0
  6
CONTINUOUS
 10
324.772705
 20
361.231934
 11
367.772369
 21
361.231934
  0
LINE
  8
0
  6
CONTINUOUS
 10
364.772705
 20
426.231934
 11
364.772705
 21
421.232361
  0
LINE
  8
0
  6
CONTINUOUS
 10
324.772705
 20
426.231934
 11
324.772705
 21
361.231934
  0
LINE
  8
0
  6
CONTINUOUS
 10
367.272705
 20
426.231934
 11
322.272705
 21
426.231934
  0
LINE
  8
0
  6
CONTINUOUS
 10
367.272705
 20
428.231934
 11
367.272705
 21
426.231934
  0
LINE
  8
0
  6
CONTINUOUS
 10
322.272705
 20
428.231934
 11
322.272705
 21
426.231934
  0
LINE
  8
0
  6
CONTINUOUS
 10
344.773041
 20
591.231812
 11
275.904510
 21
591.231873
  0
LINE
  8
0
  6
CONTINUOUS
 10
324.772705
 20
411.231842
 11
275.904083
 21
411.231934
  0
LINE
  8
0
  6
CONTINUOUS
 10
367.772369
 20
361.232361
 11
367.772369
 21
421.232361
  0
LINE
  8
0
  6
CONTINUOUS
 10
363.851379
 20
421.232361
 11
367.772369
 21
421.232361
  0
LINE
  8
0
  6
CONTINUOUS
 10
296.677124
 20
571.787659
 11
292.772369
 21
567.232178
  0
ARC
  8
0
  6
CONTINUOUS
 10
301.991913
 20
567.232178
 40
7.000000
 50
90.000000
 51
139.398712
  0
LINE
  8
0
  6
CONTINUOUS
 10
392.867645
 20
571.787659
 11
396.772369
 21
567.232178
  0
ARC
  8
0
  6
CONTINUOUS
 10
387.552826
 20
567.232178
 40
7.000000
 50
40.601295
 51
90.000000
  0
LINE
  8
0
  6
CONTINUOUS
 10
392.867645
 20
430.676544
 11
396.772369
 21
435.232086
  0
ARC
  8
0
  6
CONTINUOUS
 10
387.552826
 20
435.232086
 40
7.000000
 50
-90.000000
 51
-40.601295
  0
LINE
  8
0
  6
CONTINUOUS
 10
296.677124
 20
430.676544
 11
292.772369
 21
435.232086
  0
ARC
  8
0
  6
CONTINUOUS
 10
301.991913
 20
435.232086
 40
7.000000
 50
-139.398712
 51
-90.000000
  0
LINE
  8
0
  6
CONTINUOUS
 10
363.851379
 20
421.232361
 11
363.851379
 21
361.231934
  0
LINE
  8
0
  6
CENTER
 10
457.973633
 20
501.231934
 11
-19.032499
 21
501.231934
  0
LINE
  8
0
  6
CONTINUOUS
 10
234.772903
 20
572.231934
 11
241.772903
 21
572.231934
  0
LINE
  8
0
  6
CONTINUOUS
 10
232.772903
 20
432.231934
 11
232.772903
 21
570.231934
  0
LINE
  8
0
  6
CONTINUOUS
 10
234.772903
 20
430.231934
 11
241.772491
 21
430.231934
  0
LINE
  8
0
  6
CONTINUOUS
 10
185.272903
 20
554.231934
 11
232.772903
 21
554.231934
  0
LINE
  8
0
  6
CONTINUOUS
 10
185.272903
 20
448.231934
 11
232.772903
 21
448.231934
  0
LINE
  8
0
  6
CONTINUOUS
 10
185.272385
 20
554.231934
 11
185.272385
 21
448.231934
  0
ARC
  8
0
  6
CONTINUOUS
 10
234.772903
 20
570.231934
 40
2.000000
 50
90.000000
 51
180.000000
  0
ARC
  8
0
  6
CONTINUOUS
 10
234.772903
 20
432.231934
 40
2.000000
 50
180.000000
 51
270.000000
  0
ARC
  8
0
  6
CONTINUOUS
 10
231.987976
 20
501.231934
 40
20.000000
 50
141.561295
 51
180.000000
  0
LINE
  8
0
  6
CONTINUOUS
 10
232.772903
 20
534.391907
 11
216.322495
 21
513.665466
  0
ARC
  8
0
  6
CONTINUOUS
 10
231.987976
 20
501.231934
 40
20.000000
 50
-180.000000
 51
-141.561295
  0
LINE
  8
0
  6
CONTINUOUS
 10
232.772903
 20
468.071930
 11
216.322495
 21
488.798370
  0
LINE
  8
0
  6
CONTINUOUS
 10
55.272381
 20
554.231934
 11
185.272385
 21
554.231934
  0
LINE
  8
0
  6
CONTINUOUS
 10
55.272381
 20
448.231934
 11
185.272385
 21
448.231934
  0
LINE
  8
0
  6
CONTINUOUS
 10
55.272381
 20
532.731934
 11
175.272385
 21
532.731934
  0
LINE
  8
0
  6
CONTINUOUS
 10
55.272381
 20
469.731934
 11
175.272385
 21
469.731934
  0
LINE
  8
0
  6
CONTINUOUS
 10
175.272385
 20
552.231934
 11
175.272385
 21
532.731934
  0
ARC
  8
0
  6
CONTINUOUS
 10
177.272385
 20
552.231934
 40
2.000000
 50
90.000000
 51
180.000000
  0
ARC
  8
0
  6
CONTINUOUS
 10
177.272385
 20
450.231934
 40
2.000000
 50
180.000000
 51
270.000000
  0
LINE
  8
0
  6
CONTINUOUS
 10
46.772339
 20
554.231934
 11
55.272381
 21
554.231934
  0
LINE
  8
0
  6
CONTINUOUS
 10
46.772339
 20
448.231934
 11
55.272381
 21
448.231934
  0
LINE
  8
0
  6
CONTINUOUS
 10
55.272381
 20
532.731934
 11
46.772339
 21
532.731934
  0
LINE
  8
0
  6
CONTINUOUS
 10
55.272381
 20
469.731934
 11
46.772339
 21
469.731934
  0
LINE
  8
0
  6
CONTINUOUS
 10
55.272381
 20
448.231934
 11
55.272381
 21
494.365906
  0
LINE
  8
0
  6
CONTINUOUS
 10
48.772381
 20
495.231934
 11
48.772381
 21
507.231934
  0
LINE
  8
0
  6
CONTINUOUS
 10
55.772381
 20
495.231934
 11
55.772381
 21
507.231934
  0
LINE
  8
0
  6
CONTINUOUS
 10
49.772381
 20
508.231934
 11
54.772381
 21
508.231934
  0
LINE
  8
0
  6
CONTINUOUS
 10
54.772381
 20
494.231934
 11
49.772381
 21
494.231934
  0
ARC
  8
0
  6
CONTINUOUS
 10
54.772381
 20
507.231934
 40
1.000000
 50
0.000000
 51
90.000000
  0
ARC
  8
0
  6
CONTINUOUS
 10
49.772381
 20
507.231934
 40
1.000000
 50
90.000000
 51
180.000000
  0
ARC
  8
0
  6
CONTINUOUS
 10
49.772381
 20
495.231934
 40
1.000000
 50
180.000000
 51
270.000000
  0
ARC
  8
0
  6
CONTINUOUS
 10
54.772381
 20
495.231934
 40
1.000000
 50
-90.000000
 51
0.000000
  0
LINE
  8
0
  6
CONTINUOUS
 10
53.272381
 20
497.731934
 11
53.272381
 21
504.731934
  0
LINE
  8
0
  6
CONTINUOUS
 10
51.272381
 20
497.731934
 11
51.272381
 21
504.731934
  0
ARC
  8
0
  6
CONTINUOUS
 10
52.272381
 20
504.731934
 40
1.000000
 50
90.000000
 51
180.000000
  0
ARC
  8
0
  6
CONTINUOUS
 10
52.272381
 20
504.731934
 40
1.000000
 50
0.000000
 51
90.000000
  0
ARC
  8
0
  6
CONTINUOUS
 10
52.272381
 20
497.731934
 40
1.000000
 50
180.000000
 51
270.000000
  0
ARC
  8
0
  6
CONTINUOUS
 10
52.272381
 20
497.731934
 40
1.000000
 50
-90.000000
 51
0.000000
  0
LINE
  8
0
  6
CONTINUOUS
 10
55.272381
 20
508.097961
 11
55.272381
 21
554.231934
  0
LINE
  8
0
  6
CONTINUOUS
 10
46.772339
 20
556.231934
 11
46.772339
 21
446.231934
  0
LINE
  8
0
  6
CONTINUOUS
 10
7.772340
 20
556.231934
 11
46.772339
 21
556.231934
  0
LINE
  8
0
  6
CONTINUOUS
 10
7.772340
 20
446.231934
 11
46.772339
 21
446.231934
  0
LINE
  8
0
  6
CONTINUOUS
 10
-2.227660
 20
456.231934
 11
-2.227660
 21
546.231934
  0
LINE
  8
0
  6
CONTINUOUS
 10
2.772340
 20
531.731934
 11
46.772339
 21
531.731934
  0
LINE
  8
0
  6
CONTINUOUS
 10
2.772340
 20
470.731934
 11
46.772339
 21
470.731934
  0
ARC
  8
0
  6
CONTINUOUS
 10
7.772430
 20
546.231934
 40
10.000000
 50
90.000000
 51
180.000000
  0
ARC
  8
0
  6
CONTINUOUS
 10
7.772340
 20
456.231934
 40
10.000000
 50
180.000000
 51
270.000000
  0
LINE
  8
0
  6
CONTINUOUS
 10
46.772381
 20
163.047501
 11
46.772381
 21
53.047501
  0
LINE
  8
0
  6
CONTINUOUS
 10
46.772381
 20
161.047501
 11
55.272381
 21
161.047501
  0
LINE
  8
0
  6
CONTINUOUS
 10
46.772381
 20
55.047501
 11
55.272381
 21
55.047501
  0
LINE
  8
0
  6
CONTINUOUS
 10
55.772381
 20
162.547501
 11
55.772381
 21
161.047501
  0
LINE
  8
0
  6
CONTINUOUS
 10
48.772381
 20
162.547501
 11
48.772381
 21
161.047501
  0
LINE
  8
0
  6
CONTINUOUS
 10
48.772381
 20
162.547501
 11
55.772381
 21
162.547501
  0
LINE
  8
0
  6
CONTINUOUS
 10
53.172371
 20
175.547501
 11
53.172371
 21
162.547501
  0
LINE
  8
0
  6
CONTINUOUS
 10
51.372372
 20
176.172501
 11
51.372372
 21
162.547501
  0
LINE
  8
0
  6
CONTINUOUS
 10
49.572372
 20
174.110001
 11
49.572372
 21
162.547501
  0
LINE
  8
0
  6
CONTINUOUS
 10
54.972382
 20
174.922501
 11
54.972382
 21
162.547501
  0
LINE
  8
0
  6
CONTINUOUS
 10
51.372372
 20
176.172501
 11
53.172371
 21
175.547501
  0
LINE
  8
0
  6
CONTINUOUS
 10
49.572372
 20
174.110001
 11
51.372372
 21
174.735001
  0
LINE
  8
0
  6
CONTINUOUS
 10
54.972382
 20
174.922501
 11
53.173382
 21
174.474792
  0
LINE
  8
0
  6
CONTINUOUS
 10
46.772381
 20
150.610107
 11
55.272381
 21
150.610107
  0
LINE
  8
0
  6
CONTINUOUS
 10
46.772381
 20
65.363373
 11
55.272381
 21
65.363373
  0
LINE
  8
0
  6
CONTINUOUS
 10
7.772382
 20
163.047501
 11
46.772381
 21
163.047501
  0
LINE
  8
0
  6
CONTINUOUS
 10
7.772382
 20
53.047501
 11
46.772381
 21
53.047501
  0
LINE
  8
0
  6
CONTINUOUS
 10
-2.227618
 20
63.047501
 11
-2.227618
 21
153.047501
  0
LINE
  8
0
  6
CONTINUOUS
 10
2.772382
 20
138.547501
 11
46.772381
 21
138.547501
  0
LINE
  8
0
  6
CONTINUOUS
 10
2.772382
 20
77.547501
 11
46.772381
 21
77.547501
  0
ARC
  8
0
  6
CONTINUOUS
 10
7.772472
 20
153.047501
 40
10.000000
 50
90.000000
 51
180.000000
  0
ARC
  8
0
  6
CONTINUOUS
 10
7.772382
 20
63.047501
 40
10.000000
 50
180.000000
 51
270.000000
  0
LINE
  8
0
  6
CONTINUOUS
 10
55.272381
 20
55.047501
 11
55.272381
 21
161.047501
  0
LINE
  8
0
  6
CONTINUOUS
 10
175.272385
 20
469.731934
 11
175.272385
 21
450.231903
  0
TEXT
  8
0
 10
-19.000000
 20
-4.000000
 40
4.000000
 41
1.000000
  1
HLM-40R-1200~1800-S90
 50
0.000000
  0
ENDSEC
  0
EOF
