  0
SECTION
  2
HEADER
  9
$CLAYER
  8
1
  9
$LTSCALE
 40
3.0
  0
ENDSEC
  0
SECTION
  2
TABLES
  0
TABLE
  2
LTYPE
 70
     4
  0
LTYPE
  2
CONTINUOUS
  3
solid line
 70
    64
 72
    65
 73
     0
 40
0.0
  0
LTYPE
  2
DASHED
  3
__ __ __ __ __ __ __ __ __ __ __ __ __ __ __
 70
    64
 72
    65
 73
     2
 40
0.75
 49
0.5
 49
-0.25
  0
LTYPE
  2
CENTER
  3
____ _ ____ _ ____ _ ____ _ ____ _ ____ _ ____
 70
    64
 72
    65
 73
     4
 40
2.0
 49
1.25
 49
-0.25
 49
0.25
 49
-0.25
  0
LTYPE
  2
PHANTOM
  3
_____ _ _ _____ _ _ _____ _ _ _____ _ _ ____
 70
    64
 72
    65
 73
     6
 40
2.5
 49
1.25
 49
-0.25
 49
0.25
 49
-0.25
 49
0.25
 49
-0.25
  0
ENDTAB
  0
TABLE
  2
LAYER
 70
     1
  0
LAYER
  2
0
 70
    64
 62
     7
  6
CONTINUOUS
  0
ENDTAB
  0
TABLE
  2
STYLE
 70
     1
  0
STYLE
  2
STANDARD
 70
     0
 40
0.000000
 41
1.000000
 50
0.000000
 71
     0
 42
3.000000
  3
txt
  4
BIGFONT
  0
ENDTAB
  0
ENDSEC
  0
SECTION
  2
BLOCKS
  0
ENDSEC
  0
SECTION
  2
ENTITIES
  0
LINE
  8
0
  6
CONTINUOUS
 10
240.637375
 20
59.480000
 11
240.637375
 21
201.479996
  0
LINE
  8
0
  6
CENTER
 10
143.247498
 20
130.479996
 11
287.127380
 21
130.479996
  0
LINE
  8
0
  6
CENTER
 10
343.637390
 20
273.834991
 11
343.637390
 21
4.840000
  0
LINE
  8
0
  6
CENTER
 10
268.945007
 20
183.979996
 11
418.649994
 21
183.979996
  0
LINE
  8
0
  6
CONTINUOUS
 10
253.637375
 20
18.980000
 11
433.637390
 21
18.980000
  0
LINE
  8
0
  6
CONTINUOUS
 10
253.637375
 20
38.980000
 11
433.637390
 21
38.980000
  0
LINE
  8
0
  6
CONTINUOUS
 10
311.822968
 20
261.480011
 11
375.451782
 21
261.480011
  0
LINE
  8
0
  6
CONTINUOUS
 10
433.637390
 20
217.311996
 11
433.637390
 21
18.980000
  0
LINE
  8
0
  6
CONTINUOUS
 10
253.637375
 20
217.311996
 11
253.637375
 21
18.980000
  0
LINE
  8
0
  6
CONTINUOUS
 10
240.637375
 20
201.479996
 11
248.637375
 21
201.479996
  0
LINE
  8
0
  6
CONTINUOUS
 10
240.637375
 20
59.480000
 11
248.637375
 21
59.480000
  0
LINE
  8
0
  6
CONTINUOUS
 10
381.235992
 20
259.637329
 11
429.421783
 21
225.469315
  0
LINE
  8
0
  6
CONTINUOUS
 10
257.853180
 20
225.469315
 11
306.038788
 21
259.637329
  0
ARC
  8
0
  6
CONTINUOUS
 10
423.637390
 20
217.311966
 40
10.000000
 50
0.000000
 51
54.660099
  0
ARC
  8
0
  6
CONTINUOUS
 10
375.451782
 20
251.479996
 40
10.000000
 50
54.659950
 51
90.000000
  0
ARC
  8
0
  6
CONTINUOUS
 10
311.822968
 20
251.479996
 40
10.000000
 50
90.000000
 51
125.340302
  0
ARC
  8
0
  6
CONTINUOUS
 10
263.637390
 20
217.312042
 40
10.000000
 50
125.340500
 51
180.000000
  0
ARC
  8
0
  6
CONTINUOUS
 10
248.637375
 20
206.479996
 40
5.000000
 50
-90.000000
 51
0.000000
  0
ARC
  8
0
  6
CONTINUOUS
 10
248.637375
 20
54.479980
 40
5.000000
 50
0.000000
 51
90.000000
  0
LINE
  8
0
  6
CENTER
 10
403.637390
 20
44.735001
 11
403.637390
 21
10.765000
  0
LINE
  8
0
  6
CENTER
 10
283.637390
 20
45.919998
 11
283.637390
 21
11.160000
  0
LINE
  8
0
  6
DASHED
 10
396.137390
 20
38.980000
 11
396.137390
 21
18.980000
  0
LINE
  8
0
  6
DASHED
 10
411.137390
 20
38.980000
 11
411.137390
 21
18.980000
  0
LINE
  8
0
  6
DASHED
 10
291.137390
 20
38.980000
 11
291.137390
 21
18.980000
  0
LINE
  8
0
  6
DASHED
 10
276.137390
 20
38.980000
 11
276.137390
 21
18.980000
  0
LINE
  8
0
  6
CONTINUOUS
 10
419.637390
 20
36.294682
 11
419.637390
 21
18.980000
  0
LINE
  8
0
  6
CONTINUOUS
 10
267.637390
 20
36.294682
 11
267.637390
 21
18.980000
  0
LINE
  8
0
  6
CONTINUOUS
 10
377.394775
 20
43.980000
 11
309.879974
 21
43.980000
  0
LINE
  8
0
  6
CONTINUOUS
 10
308.637390
 20
42.843121
 11
308.637390
 21
39.980000
  0
LINE
  8
0
  6
CONTINUOUS
 10
378.637390
 20
42.843121
 11
378.637390
 21
39.980000
  0
LINE
  8
0
  6
CONTINUOUS
 10
379.515991
 20
43.101318
 11
382.172974
 21
40.444439
  0
LINE
  8
0
  6
CONTINUOUS
 10
307.758789
 20
43.101318
 11
305.101776
 21
40.444500
  0
ARC
  8
0
  6
CONTINUOUS
 10
301.566376
 20
43.980000
 40
5.000000
 50
270.000000
 51
315.000092
  0
ARC
  8
0
  6
CONTINUOUS
 10
385.708374
 20
43.980000
 40
5.000000
 50
225.000107
 51
270.000000
  0
ARC
  8
0
  6
CONTINUOUS
 10
309.879974
 20
40.980000
 40
3.000000
 50
90.000000
 51
135.000397
  0
ARC
  8
0
  6
CONTINUOUS
 10
377.394775
 20
40.980000
 40
3.000000
 50
45.000259
 51
90.000000
  0
ARC
  8
0
  6
CONTINUOUS
 10
307.637390
 20
39.980000
 40
1.000000
 50
-90.000000
 51
0.000000
  0
ARC
  8
0
  6
CONTINUOUS
 10
379.637390
 20
39.980000
 40
1.000000
 50
180.000000
 51
270.000000
  0
CIRCLE
  8
0
  6
CONTINUOUS
 10
343.637390
 20
183.979996
 40
46.000000
  0
ARC
  8
0
  6
CONTINUOUS
 10
343.637390
 20
183.979996
 40
52.000000
 50
12.522720
 51
167.477402
  0
ARC
  8
0
  6
CONTINUOUS
 10
343.637390
 20
183.979996
 40
48.000000
 50
-192.522598
 51
12.522720
  0
ARC
  8
0
  6
CONTINUOUS
 10
313.637390
 20
113.480003
 40
34.000000
 50
167.477402
 51
270.000000
  0
ARC
  8
0
  6
CONTINUOUS
 10
313.637390
 20
113.480003
 40
38.000000
 50
167.477402
 51
270.000000
  0
ARC
  8
0
  6
CONTINUOUS
 10
373.637390
 20
113.480003
 40
34.000000
 50
-90.000000
 51
12.522730
  0
ARC
  8
0
  6
CONTINUOUS
 10
373.637390
 20
113.480003
 40
38.000000
 50
-90.000000
 51
12.522720
  0
LINE
  8
0
  6
CONTINUOUS
 10
276.541382
 20
121.719360
 11
292.874390
 21
195.254898
  0
LINE
  8
0
  6
CONTINUOUS
 10
394.400391
 20
195.255005
 11
410.733368
 21
121.719429
  0
LINE
  8
0
  6
CONTINUOUS
 10
390.495392
 20
194.387680
 11
406.828583
 21
120.852119
  0
LINE
  8
0
  6
CONTINUOUS
 10
280.446167
 20
120.852066
 11
296.779388
 21
194.387619
  0
LINE
  8
0
  6
CONTINUOUS
 10
313.637390
 20
79.480003
 11
373.637390
 21
79.480003
  0
LINE
  8
0
  6
CONTINUOUS
 10
313.637390
 20
75.480003
 11
373.637390
 21
75.480003
  0
LINE
  8
0
  6
CONTINUOUS
 10
331.410370
 20
97.480003
 11
326.469971
 21
97.480003
  0
LINE
  8
0
  6
CONTINUOUS
 10
334.137390
 20
105.755402
 11
334.137390
 21
97.480003
  0
LINE
  8
0
  6
CONTINUOUS
 10
338.887390
 20
108.761238
 11
338.887390
 21
111.730003
  0
LINE
  8
0
  6
CONTINUOUS
 10
348.387390
 20
108.761238
 11
348.387390
 21
111.730003
  0
LINE
  8
0
  6
CONTINUOUS
 10
342.709595
 20
109.985863
 11
342.709595
 21
99.038597
  0
LINE
  8
0
  6
CONTINUOUS
 10
344.490967
 20
109.985863
 11
344.490967
 21
99.038597
  0
LINE
  8
0
  6
CONTINUOUS
 10
353.842590
 20
109.985863
 11
353.842590
 21
98.964378
  0
LINE
  8
0
  6
CONTINUOUS
 10
355.475372
 20
104.141144
 11
355.475372
 21
98.964378
  0
LINE
  8
0
  6
CONTINUOUS
 10
331.883392
 20
109.837418
 11
327.305786
 21
109.837418
  0
LINE
  8
0
  6
CONTINUOUS
 10
327.305786
 20
109.837418
 11
326.233185
 21
108.507423
  0
LINE
  8
0
  6
CONTINUOUS
 10
326.362183
 20
111.730003
 11
324.637390
 21
109.521538
  0
LINE
  8
0
  6
CONTINUOUS
 10
326.233185
 20
100.297836
 11
327.322968
 21
99.149918
  0
LINE
  8
0
  6
CONTINUOUS
 10
324.637390
 20
99.329117
 11
326.469971
 21
97.480003
  0
LINE
  8
0
  6
CONTINUOUS
 10
324.637390
 20
109.521538
 11
324.637390
 21
99.329117
  0
LINE
  8
0
  6
CONTINUOUS
 10
326.233185
 20
108.507423
 11
326.233185
 21
100.297836
  0
LINE
  8
0
  6
CONTINUOUS
 10
332.764374
 20
108.985863
 11
331.865387
 21
109.837418
  0
LINE
  8
0
  6
CONTINUOUS
 10
332.749969
 20
111.730003
 11
334.137390
 21
110.190422
  0
LINE
  8
0
  6
CONTINUOUS
 10
332.764374
 20
108.761238
 11
334.137390
 21
108.761238
  0
LINE
  8
0
  6
CONTINUOUS
 10
326.362183
 20
111.730003
 11
332.749969
 21
111.730003
  0
LINE
  8
0
  6
CONTINUOUS
 10
330.277985
 20
105.755402
 11
334.137390
 21
105.755402
  0
LINE
  8
0
  6
CONTINUOUS
 10
332.764374
 20
104.196800
 11
330.277985
 21
104.196800
  0
LINE
  8
0
  6
CONTINUOUS
 10
329.795593
 20
99.149918
 11
327.322968
 21
99.149918
  0
LINE
  8
0
  6
CONTINUOUS
 10
332.764374
 20
102.712418
 11
332.764374
 21
103.899918
  0
ARC
  8
0
  6
CONTINUOUS
 10
329.795593
 20
102.118660
 40
2.968750
 50
-89.999786
 51
0.000109
  0
LINE
  8
0
  6
CONTINUOUS
 10
332.764374
 20
98.615921
 11
332.764374
 21
97.480003
  0
LINE
  8
0
  6
CONTINUOUS
 10
334.137390
 20
110.190422
 11
334.137390
 21
108.761238
  0
LINE
  8
0
  6
CONTINUOUS
 10
332.764374
 20
104.196800
 11
332.764374
 21
102.118660
  0
LINE
  8
0
  6
CONTINUOUS
 10
330.277985
 20
105.755402
 11
330.277985
 21
104.196800
  0
LINE
  8
0
  6
CONTINUOUS
 10
332.764374
 20
97.480003
 11
334.137390
 21
97.480003
  0
LINE
  8
0
  6
CONTINUOUS
 10
332.764374
 20
98.615921
 11
331.410370
 21
97.480003
  0
LINE
  8
0
  6
CONTINUOUS
 10
344.490967
 20
99.038597
 11
345.084595
 21
99.038597
  0
LINE
  8
0
  6
CONTINUOUS
 10
342.004578
 20
99.038597
 11
342.004578
 21
97.480003
  0
LINE
  8
0
  6
CONTINUOUS
 10
345.084595
 20
99.038597
 11
345.084595
 21
97.480003
  0
LINE
  8
0
  6
CONTINUOUS
 10
347.396393
 20
108.761238
 11
348.387390
 21
108.761238
  0
LINE
  8
0
  6
CONTINUOUS
 10
338.887390
 20
108.761238
 11
339.941986
 21
108.761238
  0
LINE
  8
0
  6
CONTINUOUS
 10
338.887390
 20
111.730003
 11
348.387390
 21
111.730003
  0
LINE
  8
0
  6
CONTINUOUS
 10
342.004578
 20
97.480003
 11
345.084595
 21
97.480003
  0
LINE
  8
0
  6
CONTINUOUS
 10
342.004578
 20
99.038597
 11
342.709595
 21
99.038597
  0
ARC
  8
0
  6
CONTINUOUS
 10
358.833588
 20
107.926277
 40
3.803712
 50
-73.981873
 51
90.003510
  0
ARC
  8
0
  6
CONTINUOUS
 10
358.833588
 20
107.926277
 40
2.320524
 50
-82.585274
 51
62.411850
  0
LINE
  8
0
  6
CONTINUOUS
 10
353.137390
 20
111.730003
 11
358.833588
 21
111.730003
  0
LINE
  8
0
  6
CONTINUOUS
 10
359.133179
 20
105.625160
 11
355.475372
 21
105.625160
  0
LINE
  8
0
  6
CONTINUOUS
 10
353.137390
 20
111.730003
 11
353.137390
 21
109.985863
  0
LINE
  8
0
  6
CONTINUOUS
 10
355.475372
 20
109.985863
 11
355.475372
 21
105.625160
  0
LINE
  8
0
  6
CONTINUOUS
 10
359.883179
 20
104.270264
 11
362.237579
 21
98.964378
  0
LINE
  8
0
  6
CONTINUOUS
 10
358.515991
 20
104.141144
 11
360.743774
 21
98.964378
  0
LINE
  8
0
  6
CONTINUOUS
 10
353.137390
 20
98.964378
 11
353.842590
 21
98.964378
  0
LINE
  8
0
  6
CONTINUOUS
 10
355.475372
 20
98.964378
 11
356.124786
 21
98.964378
  0
LINE
  8
0
  6
CONTINUOUS
 10
356.124786
 20
97.480003
 11
353.137390
 21
97.480003
  0
LINE
  8
0
  6
CONTINUOUS
 10
360.447968
 20
98.964378
 11
360.743774
 21
98.964378
  0
LINE
  8
0
  6
CONTINUOUS
 10
362.237579
 20
98.964378
 11
362.637390
 21
98.964378
  0
LINE
  8
0
  6
CONTINUOUS
 10
360.447968
 20
97.480003
 11
362.637390
 21
97.480003
  0
LINE
  8
0
  6
CONTINUOUS
 10
362.637390
 20
98.964378
 11
362.637390
 21
97.480003
  0
LINE
  8
0
  6
CONTINUOUS
 10
360.447968
 20
98.964378
 11
360.447968
 21
97.480003
  0
LINE
  8
0
  6
CONTINUOUS
 10
356.124786
 20
98.964378
 11
356.124786
 21
97.480003
  0
LINE
  8
0
  6
CONTINUOUS
 10
353.137390
 20
98.964378
 11
353.137390
 21
97.480003
  0
LINE
  8
0
  6
CONTINUOUS
 10
340.452179
 20
109.985863
 11
339.941986
 21
108.761238
  0
LINE
  8
0
  6
CONTINUOUS
 10
346.966187
 20
109.985863
 11
347.396393
 21
108.761238
  0
LINE
  8
0
  6
CONTINUOUS
 10
344.490967
 20
109.985863
 11
346.966187
 21
109.985863
  0
LINE
  8
0
  6
CONTINUOUS
 10
342.709595
 20
109.985863
 11
340.452179
 21
109.985863
  0
LINE
  8
0
  6
CONTINUOUS
 10
355.475372
 20
104.141144
 11
358.515991
 21
104.141144
  0
LINE
  8
0
  6
CONTINUOUS
 10
353.137390
 20
109.985863
 11
353.842590
 21
109.985863
  0
LINE
  8
0
  6
CONTINUOUS
 10
355.475372
 20
109.985863
 11
359.908386
 21
109.982979
  0
LINE
  8
0
  6
CONTINUOUS
 10
332.764374
 20
108.985863
 11
332.764374
 21
108.761238
  0
ARC
  8
0
  6
CONTINUOUS
 10
463.318970
 20
130.479996
 40
215.181595
 50
167.017899
 51
192.982101
  0
LINE
  8
0
  6
CONTINUOUS
 10
54.137383
 20
168.479996
 11
184.137375
 21
168.479996
  0
LINE
  8
0
  6
CONTINUOUS
 10
54.137383
 20
62.480000
 11
184.137375
 21
62.480000
  0
LINE
  8
0
  6
CONTINUOUS
 10
54.137383
 20
158.103333
 11
172.799149
 21
158.103333
  0
LINE
  8
0
  6
CONTINUOUS
 10
54.137383
 20
72.856644
 11
172.799149
 21
72.856644
  0
LINE
  8
0
  6
CONTINUOUS
 10
174.137375
 20
166.479996
 11
174.137375
 21
64.479980
  0
ARC
  8
0
  6
CONTINUOUS
 10
176.137375
 20
166.480026
 40
2.000000
 50
90.000000
 51
180.000000
  0
ARC
  8
0
  6
CONTINUOUS
 10
176.137375
 20
64.480003
 40
2.000000
 50
180.000000
 51
270.000000
  0
LINE
  8
0
  6
CENTER
 10
699.781616
 20
2.470000
 11
699.781616
 21
274.625000
  0
LINE
  8
0
  6
CENTER
 10
598.979248
 20
130.479996
 11
795.689209
 21
130.479996
  0
LINE
  8
0
  6
CENTER
 10
543.969971
 20
183.979996
 11
790.949219
 21
183.979996
  0
LINE
  8
0
  6
CENTER
 10
629.781616
 20
50.660000
 11
629.781616
 21
11.950000
  0
LINE
  8
0
  6
CENTER
 10
769.781616
 20
47.895000
 11
769.781616
 21
11.160000
  0
LINE
  8
0
  6
DASHED
 10
762.281616
 20
38.980000
 11
762.281616
 21
18.980000
  0
LINE
  8
0
  6
DASHED
 10
777.281616
 20
38.980000
 11
777.281616
 21
18.980000
  0
LINE
  8
0
  6
DASHED
 10
637.281616
 20
38.980000
 11
637.281616
 21
18.980000
  0
LINE
  8
0
  6
DASHED
 10
622.281616
 20
38.980000
 11
622.281616
 21
18.980000
  0
LINE
  8
0
  6
CONTINUOUS
 10
609.781616
 20
18.980000
 11
664.781616
 21
18.980000
  0
LINE
  8
0
  6
CONTINUOUS
 10
734.781616
 20
18.980000
 11
789.781616
 21
18.980000
  0
LINE
  8
0
  6
CONTINUOUS
 10
756.781616
 20
38.980000
 11
786.781616
 21
38.980000
  0
LINE
  8
0
  6
CONTINUOUS
 10
612.781616
 20
38.980000
 11
642.781616
 21
38.980000
  0
LINE
  8
0
  6
CONTINUOUS
 10
609.781616
 20
36.348881
 11
609.781616
 21
18.980021
  0
LINE
  8
0
  6
CONTINUOUS
 10
789.781616
 20
36.348881
 11
789.781616
 21
18.980000
  0
LINE
  8
0
  6
CONTINUOUS
 10
751.781616
 20
241.260101
 11
751.781616
 21
256.641754
  0
LINE
  8
0
  6
CONTINUOUS
 10
647.781616
 20
256.641388
 11
647.781616
 21
18.980000
  0
LINE
  8
0
  6
CONTINUOUS
 10
666.281616
 20
20.480000
 11
733.281616
 21
20.480000
  0
LINE
  8
0
  6
CONTINUOUS
 10
652.226196
 20
222.479996
 11
748.013428
 21
222.479996
  0
LINE
  8
0
  6
CONTINUOUS
 10
747.851379
 20
260.641144
 11
699.781616
 21
261.480011
  0
LINE
  8
0
  6
CONTINUOUS
 10
651.711792
 20
260.640778
 11
699.781616
 21
261.480011
  0
LINE
  8
0
  6
CONTINUOUS
 10
626.781616
 20
143.260117
 11
626.781616
 21
224.699875
  0
LINE
  8
0
  6
CONTINUOUS
 10
772.781616
 20
143.260101
 11
772.781616
 21
224.699875
  0
LINE
  8
0
  6
CONTINUOUS
 10
633.781616
 20
84.760101
 11
633.781616
 21
188.120285
  0
LINE
  8
0
  6
CONTINUOUS
 10
765.781616
 20
84.760117
 11
765.781616
 21
188.120285
  0
ARC
  8
0
  6
CONTINUOUS
 10
651.781616
 20
256.641388
 40
4.000000
 50
91.000580
 51
180.000000
  0
ARC
  8
0
  6
CONTINUOUS
 10
747.781616
 20
256.641754
 40
4.000000
 50
0.000000
 51
89.000359
  0
LINE
  8
0
  6
CONTINUOUS
 10
631.858582
 20
231.430557
 11
642.704590
 21
234.529434
  0
LINE
  8
0
  6
CONTINUOUS
 10
756.858582
 20
234.529434
 11
767.704590
 21
231.430557
  0
LINE
  8
0
  6
CONTINUOUS
 10
638.858582
 20
78.029442
 11
642.704590
 21
76.930557
  0
LINE
  8
0
  6
CONTINUOUS
 10
760.704590
 20
78.029442
 11
756.858582
 21
76.930557
  0
LINE
  8
0
  6
CONTINUOUS
 10
787.172974
 20
39.323238
 11
754.390198
 21
43.636761
  0
LINE
  8
0
  6
CONTINUOUS
 10
612.390198
 20
39.323238
 11
645.172974
 21
43.636780
  0
ARC
  8
0
  6
CONTINUOUS
 10
633.781616
 20
224.699921
 40
7.000000
 50
105.945801
 51
180.000000
  0
ARC
  8
0
  6
CONTINUOUS
 10
633.781616
 20
143.260162
 40
7.000000
 50
180.000000
 51
240.000198
  0
ARC
  8
0
  6
CONTINUOUS
 10
765.781616
 20
224.699860
 40
7.000000
 50
0.000000
 51
74.054764
  0
ARC
  8
0
  6
CONTINUOUS
 10
765.781616
 20
143.260101
 40
7.000000
 50
-59.999882
 51
0.000000
  0
ARC
  8
0
  6
CONTINUOUS
 10
640.781616
 20
84.760162
 40
7.000000
 50
180.000000
 51
254.054901
  0
ARC
  8
0
  6
CONTINUOUS
 10
758.781616
 20
84.760101
 40
7.000000
 50
-74.054497
 51
0.000000
  0
LINE
  8
0
  6
CONTINUOUS
 10
751.781616
 20
43.980000
 11
751.781616
 21
241.260101
  0
ARC
  8
0
  6
CONTINUOUS
 10
758.781616
 20
241.260162
 40
7.000000
 50
180.000000
 51
254.054901
  0
ARC
  8
0
  6
CONTINUOUS
 10
758.781616
 20
70.199944
 40
7.000000
 50
105.945801
 51
180.000000
  0
ARC
  8
0
  6
CONTINUOUS
 10
772.781616
 20
131.135742
 40
7.000000
 50
120.000099
 51
180.000000
  0
ARC
  8
0
  6
CONTINUOUS
 10
754.781616
 20
46.611141
 40
3.000000
 50
180.000000
 51
262.504395
  0
ARC
  8
0
  6
CONTINUOUS
 10
786.781616
 20
35.980000
 40
3.000000
 50
0.000000
 51
90.000000
  0
ARC
  8
0
  6
CONTINUOUS
 10
786.781616
 20
36.348862
 40
3.000000
 50
0.000000
 51
82.504204
  0
LINE
  8
0
  6
CONTINUOUS
 10
751.781616
 20
43.980000
 11
751.781616
 21
18.980000
  0
ARC
  8
0
  6
CONTINUOUS
 10
756.781616
 20
43.980019
 40
5.000000
 50
180.000000
 51
270.000000
  0
ARC
  8
0
  6
CONTINUOUS
 10
644.781616
 20
46.611141
 40
3.000000
 50
-82.503883
 51
0.000000
  0
ARC
  8
0
  6
CONTINUOUS
 10
642.781616
 20
43.980000
 40
5.000000
 50
-90.000000
 51
0.000000
  0
ARC
  8
0
  6
CONTINUOUS
 10
612.781616
 20
35.980019
 40
3.000000
 50
90.000000
 51
180.000000
  0
ARC
  8
0
  6
CONTINUOUS
 10
612.781616
 20
36.348900
 40
3.000000
 50
97.496292
 51
180.000000
  0
LINE
  8
0
  6
CONTINUOUS
 10
664.781616
 20
18.980000
 11
666.281616
 21
20.480000
  0
LINE
  8
0
  6
CONTINUOUS
 10
734.781616
 20
18.980000
 11
733.281616
 21
20.480000
  0
ARC
  8
0
  6
CONTINUOUS
 10
640.781616
 20
70.199860
 40
7.000000
 50
0.000000
 51
74.054688
  0
ARC
  8
0
  6
CONTINUOUS
 10
626.781616
 20
131.135773
 40
7.000000
 50
0.000000
 51
60.000092
  0
ARC
  8
0
  6
CONTINUOUS
 10
640.781616
 20
241.260101
 40
7.000000
 50
-74.054443
 51
0.000000
  0
ARC
  8
0
  6
CONTINUOUS
 10
699.781616
 20
130.479996
 40
71.000000
 50
-21.630920
 51
6.068256
  0
ARC
  8
0
  6
CONTINUOUS
 10
699.781616
 20
130.479996
 40
71.000000
 50
173.931793
 51
201.630905
  0
LINE
  8
0
  6
CONTINUOUS
 10
752.781616
 20
73.805481
 11
752.781616
 21
67.480003
  0
LINE
  8
0
  6
CONTINUOUS
 10
646.781616
 20
67.480003
 11
646.781616
 21
73.668999
  0
ARC
  8
0
  6
CONTINUOUS
 10
747.781616
 20
67.480003
 40
5.000000
 50
-36.869869
 51
0.000000
  0
ARC
  8
0
  6
CONTINUOUS
 10
651.781616
 20
67.480003
 40
5.000000
 50
180.000000
 51
216.865204
  0
LINE
  8
0
  6
CONTINUOUS
 10
358.637390
 20
177.980057
 11
358.637390
 21
189.980057
  0
LINE
  8
0
  6
CONTINUOUS
 10
366.637390
 20
177.980087
 11
366.637390
 21
189.980087
  0
LINE
  8
0
  6
CONTINUOUS
 10
366.637390
 20
177.980087
 11
358.637390
 21
177.980057
  0
LINE
  8
0
  6
CONTINUOUS
 10
366.637390
 20
189.980087
 11
358.637390
 21
189.980057
  0
ARC
  8
0
  6
CONTINUOUS
 10
343.637390
 20
183.979996
 40
20.000000
 50
17.457600
 51
342.542389
  0
LINE
  8
0
  6
CONTINUOUS
 10
559.781616
 20
163.979996
 11
559.781616
 21
203.979996
  0
LINE
  8
0
  6
CONTINUOUS
 10
624.781616
 20
203.979996
 11
559.781616
 21
203.979996
  0
LINE
  8
0
  6
CONTINUOUS
 10
624.781616
 20
163.979996
 11
559.781616
 21
163.979996
  0
LINE
  8
0
  6
CONTINUOUS
 10
624.781616
 20
206.479996
 11
624.781616
 21
161.479996
  0
LINE
  8
0
  6
CONTINUOUS
 10
626.781616
 20
206.479996
 11
624.781616
 21
206.479996
  0
LINE
  8
0
  6
CONTINUOUS
 10
626.781616
 20
161.479996
 11
624.781616
 21
161.479996
  0
ARC
  8
0
  6
CONTINUOUS
 10
613.781616
 20
183.979996
 40
6.000000
 50
-90.000000
 51
90.000000
  0
LINE
  8
0
  6
CONTINUOUS
 10
613.781616
 20
189.979996
 11
559.781616
 21
189.979996
  0
LINE
  8
0
  6
CONTINUOUS
 10
613.781616
 20
177.979996
 11
559.781616
 21
177.979996
  0
LINE
  8
0
  6
CONTINUOUS
 10
231.637375
 20
85.236000
 11
231.637375
 21
199.479996
  0
LINE
  8
0
  6
CENTER
 10
-19.660000
 20
115.480003
 11
287.127380
 21
115.480003
  0
LINE
  8
0
  6
CONTINUOUS
 10
233.637375
 20
201.479996
 11
240.637375
 21
201.479996
  0
LINE
  8
0
  6
CONTINUOUS
 10
233.637375
 20
59.480019
 11
240.637375
 21
59.480019
  0
LINE
  8
0
  6
CONTINUOUS
 10
212.637375
 20
62.480000
 11
184.137375
 21
62.480000
  0
LINE
  8
0
  6
CONTINUOUS
 10
184.137375
 20
168.479996
 11
228.637360
 21
168.479996
  0
LINE
  8
0
  6
CONTINUOUS
 10
230.137375
 20
179.613983
 11
211.549118
 21
168.881927
  0
ARC
  8
0
  6
CONTINUOUS
 10
233.637405
 20
199.479996
 40
2.000000
 50
90.000000
 51
180.000000
  0
ARC
  8
0
  6
CONTINUOUS
 10
233.637375
 20
61.480000
 40
2.000000
 50
194.477707
 51
270.000000
  0
LINE
  8
0
  6
CONTINUOUS
 10
212.637375
 20
64.480003
 11
212.637375
 21
81.236000
  0
LINE
  8
0
  6
CONTINUOUS
 10
229.637375
 20
83.236000
 11
214.637375
 21
83.236000
  0
ARC
  8
0
  6
CONTINUOUS
 10
214.637375
 20
81.236023
 40
2.000000
 50
90.000000
 51
180.000000
  0
ARC
  8
0
  6
CONTINUOUS
 10
229.764404
 20
60.480000
 40
2.000000
 50
14.477280
 51
90.000000
  0
ARC
  8
0
  6
CONTINUOUS
 10
229.637375
 20
85.236000
 40
2.000000
 50
-90.000000
 51
0.000000
  0
LINE
  8
0
  6
CONTINUOUS
 10
212.637375
 20
62.480000
 11
229.764404
 21
62.480000
  0
ARC
  8
0
  6
CONTINUOUS
 10
210.637375
 20
64.480003
 40
2.000000
 50
-90.000000
 51
0.000000
  0
ARC
  8
0
  6
CONTINUOUS
 10
228.637375
 20
171.479996
 40
3.000000
 50
-90.000000
 51
0.000000
  0
ARC
  8
0
  6
CONTINUOUS
 10
228.637375
 20
182.212036
 40
3.000000
 50
-59.999660
 51
0.000000
  0
ARC
  8
0
  6
CONTINUOUS
 10
210.049103
 20
171.479996
 40
3.000000
 50
270.000000
 51
300.000305
  0
LINE
  8
0
  6
CONTINUOUS
 10
184.137375
 20
168.479996
 11
184.137375
 21
62.480000
  0
LINE
  8
0
  6
CONTINUOUS
 10
412.506500
 20
598.664185
 11
343.638031
 21
598.664185
  0
LINE
  8
0
  6
CONTINUOUS
 10
412.505890
 20
418.664154
 11
366.637390
 21
418.664246
  0
LINE
  8
0
  6
CENTER
 10
343.637390
 20
354.275360
 11
343.637939
 21
624.510010
  0
LINE
  8
0
  6
CENTER
 10
418.491211
 20
578.665039
 11
390.123138
 21
578.665039
  0
LINE
  8
0
  6
CONTINUOUS
 10
433.637695
 20
508.664246
 11
432.729706
 21
456.664215
  0
LINE
  8
0
  6
CONTINUOUS
 10
421.960510
 20
425.406769
 11
432.729706
 21
456.664215
  0
ARC
  8
0
  6
CONTINUOUS
 10
412.506104
 20
428.664215
 40
10.000000
 50
-90.000000
 51
-19.010900
  0
ARC
  8
0
  6
CONTINUOUS
 10
403.637695
 20
578.665039
 40
7.500000
 50
-46.074883
 51
212.226791
  0
LINE
  8
0
  6
CONTINUOUS
 10
433.637695
 20
508.664246
 11
432.729889
 21
560.664185
  0
LINE
  8
0
  6
CONTINUOUS
 10
421.960907
 20
591.921570
 11
432.729889
 21
560.664185
  0
ARC
  8
0
  6
CONTINUOUS
 10
412.506500
 20
588.664185
 40
10.000000
 50
19.010900
 51
90.000000
  0
LINE
  8
0
  6
CONTINUOUS
 10
253.637695
 20
508.664429
 11
254.545502
 21
456.664490
  0
LINE
  8
0
  6
CONTINUOUS
 10
265.314484
 20
425.407013
 11
254.545502
 21
456.664490
  0
ARC
  8
0
  6
CONTINUOUS
 10
274.769104
 20
428.664459
 40
10.000000
 50
199.010895
 51
270.000000
  0
LINE
  8
0
  6
CONTINUOUS
 10
253.637695
 20
508.664429
 11
254.494232
 21
557.717041
  0
LINE
  8
0
  6
CONTINUOUS
 10
265.314911
 20
591.921814
 11
254.892517
 21
561.671021
  0
LINE
  8
0
  6
CONTINUOUS
 10
242.675491
 20
579.664368
 11
240.637894
 21
579.664368
  0
LINE
  8
0
  6
CONTINUOUS
 10
240.637894
 20
579.664368
 11
240.637497
 21
437.664490
  0
LINE
  8
0
  6
CONTINUOUS
 10
251.747498
 20
565.852600
 11
249.436890
 21
574.476196
  0
ARC
  8
0
  6
CONTINUOUS
 10
242.675491
 20
572.664368
 40
7.000000
 50
14.999900
 51
90.000000
  0
ARC
  8
0
  6
CONTINUOUS
 10
258.509094
 20
567.664368
 40
7.000000
 50
-165.000305
 51
-90.000000
  0
LINE
  8
0
  6
CONTINUOUS
 10
242.675095
 20
437.664490
 11
240.637497
 21
437.664490
  0
LINE
  8
0
  6
CONTINUOUS
 10
251.747299
 20
451.476318
 11
249.436691
 21
442.852722
  0
ARC
  8
0
  6
CONTINUOUS
 10
242.675095
 20
444.664520
 40
7.000000
 50
-90.000000
 51
-14.999900
  0
ARC
  8
0
  6
CONTINUOUS
 10
258.508911
 20
449.664490
 40
7.000000
 50
121.109207
 51
165.000336
  0
ARC
  8
0
  6
CONTINUOUS
 10
274.769104
 20
588.664856
 40
10.000000
 50
90.000000
 51
160.989105
  0
ARC
  8
0
  6
CONTINUOUS
 10
283.637482
 20
578.665710
 40
7.500000
 50
-32.232941
 51
238.076355
  0
LINE
  8
0
  6
CENTER
 10
403.637421
 20
566.863403
 11
403.637909
 21
590.739807
  0
LINE
  8
0
  6
CENTER
 10
296.648102
 20
578.665100
 11
271.070343
 21
578.665100
  0
LINE
  8
0
  6
CENTER
 10
283.637695
 20
566.863403
 11
283.637909
 21
590.740051
  0
LINE
  8
0
  6
CONTINUOUS
 10
429.781799
 20
560.664673
 11
257.493774
 21
560.664673
  0
LINE
  8
0
  6
CONTINUOUS
 10
300.856934
 20
581.664673
 11
386.417847
 21
581.664673
  0
ARC
  8
0
  6
CONTINUOUS
 10
429.781799
 20
557.664673
 40
3.000000
 50
1.000152
 51
90.000000
  0
ARC
  8
0
  6
CONTINUOUS
 10
257.493774
 20
557.664673
 40
3.000000
 50
90.000000
 51
178.999634
  0
LINE
  8
0
  6
CONTINUOUS
 10
429.781799
 20
456.664642
 11
257.493774
 21
456.664642
  0
ARC
  8
0
  6
CONTINUOUS
 10
429.781799
 20
459.664642
 40
3.000000
 50
270.000000
 51
358.999847
  0
ARC
  8
0
  6
CONTINUOUS
 10
257.493774
 20
459.664642
 40
3.000000
 50
181.000366
 51
270.000000
  0
LINE
  8
0
  6
CONTINUOUS
 10
378.637604
 20
461.664642
 11
378.637604
 21
555.664673
  0
LINE
  8
0
  6
CONTINUOUS
 10
308.637604
 20
461.664642
 11
308.637604
 21
555.664673
  0
LINE
  8
0
  6
CONTINUOUS
 10
284.917603
 20
574.664673
 11
291.637390
 21
574.664673
  0
LINE
  8
0
  6
CONTINUOUS
 10
404.637482
 20
574.664673
 11
395.637390
 21
574.664673
  0
ARC
  8
0
  6
CONTINUOUS
 10
404.637482
 20
567.664673
 40
7.000000
 50
0.000000
 51
90.000000
  0
ARC
  8
0
  6
CONTINUOUS
 10
418.637482
 20
567.664673
 40
7.000000
 50
180.000000
 51
270.000000
  0
LINE
  8
0
  6
CENTER
 10
418.491211
 20
438.665100
 11
390.123138
 21
438.665100
  0
ARC
  8
0
  6
CONTINUOUS
 10
403.637695
 20
438.665100
 40
7.500000
 50
-212.226791
 51
46.074883
  0
ARC
  8
0
  6
CONTINUOUS
 10
283.637482
 20
438.664429
 40
7.500000
 50
-226.078156
 51
32.232941
  0
LINE
  8
0
  6
CENTER
 10
403.637421
 20
450.466705
 11
403.637909
 21
426.590302
  0
LINE
  8
0
  6
CENTER
 10
296.648102
 20
438.665009
 11
271.070343
 21
438.665009
  0
LINE
  8
0
  6
CENTER
 10
283.637695
 20
450.466705
 11
283.637909
 21
426.590118
  0
LINE
  8
0
  6
CONTINUOUS
 10
300.856934
 20
435.664642
 11
386.417847
 21
435.664642
  0
LINE
  8
0
  6
CONTINUOUS
 10
282.637482
 20
442.664642
 11
291.637390
 21
442.664581
  0
ARC
  8
0
  6
CONTINUOUS
 10
282.637482
 20
449.664642
 40
7.000000
 50
180.000000
 51
270.000000
  0
ARC
  8
0
  6
CONTINUOUS
 10
268.637482
 20
449.664642
 40
7.000000
 50
0.000000
 51
90.000000
  0
LINE
  8
0
  6
CONTINUOUS
 10
404.637482
 20
442.664642
 11
395.637390
 21
442.664581
  0
ARC
  8
0
  6
CONTINUOUS
 10
404.637482
 20
449.664642
 40
7.000000
 50
-90.000000
 51
0.000000
  0
ARC
  8
0
  6
CONTINUOUS
 10
418.637482
 20
449.664642
 40
7.000000
 50
90.000000
 51
180.000000
  0
LINE
  8
0
  6
CONTINUOUS
 10
278.186951
 20
569.587708
 11
277.088043
 21
565.741577
  0
ARC
  8
0
  6
CONTINUOUS
 10
284.917603
 20
567.664673
 40
7.000000
 50
90.000000
 51
164.054611
  0
ARC
  8
0
  6
CONTINUOUS
 10
270.357391
 20
567.664673
 40
7.000000
 50
-90.000000
 51
-15.945396
  0
LINE
  8
0
  6
CONTINUOUS
 10
323.637695
 20
368.664429
 11
366.637390
 21
368.664429
  0
LINE
  8
0
  6
CONTINUOUS
 10
363.637695
 20
433.664429
 11
363.637695
 21
428.664856
  0
LINE
  8
0
  6
CONTINUOUS
 10
323.637695
 20
433.664429
 11
323.637695
 21
368.664429
  0
LINE
  8
0
  6
CONTINUOUS
 10
366.137695
 20
433.664429
 11
321.137695
 21
433.664429
  0
LINE
  8
0
  6
CONTINUOUS
 10
366.137695
 20
435.664429
 11
366.137695
 21
433.664429
  0
LINE
  8
0
  6
CONTINUOUS
 10
321.137695
 20
435.664429
 11
321.137695
 21
433.664429
  0
LINE
  8
0
  6
CONTINUOUS
 10
343.638031
 20
598.664307
 11
274.769501
 21
598.664368
  0
LINE
  8
0
  6
CONTINUOUS
 10
323.637695
 20
418.664337
 11
274.769104
 21
418.664429
  0
LINE
  8
0
  6
CONTINUOUS
 10
366.637390
 20
368.664856
 11
366.637390
 21
428.664856
  0
LINE
  8
0
  6
CONTINUOUS
 10
362.716370
 20
428.664856
 11
366.637390
 21
428.664856
  0
LINE
  8
0
  6
CONTINUOUS
 10
295.542145
 20
579.220215
 11
291.637390
 21
574.664673
  0
ARC
  8
0
  6
CONTINUOUS
 10
300.856934
 20
574.664673
 40
7.000000
 50
90.000000
 51
139.398712
  0
LINE
  8
0
  6
CONTINUOUS
 10
391.732635
 20
579.220215
 11
395.637390
 21
574.664673
  0
ARC
  8
0
  6
CONTINUOUS
 10
386.417847
 20
574.664673
 40
7.000000
 50
40.601295
 51
90.000000
  0
LINE
  8
0
  6
CONTINUOUS
 10
391.732635
 20
438.109039
 11
395.637390
 21
442.664581
  0
ARC
  8
0
  6
CONTINUOUS
 10
386.417847
 20
442.664581
 40
7.000000
 50
-90.000000
 51
-40.601295
  0
LINE
  8
0
  6
CONTINUOUS
 10
295.542145
 20
438.109039
 11
291.637390
 21
442.664581
  0
ARC
  8
0
  6
CONTINUOUS
 10
300.856934
 20
442.664581
 40
7.000000
 50
-139.398712
 51
-90.000000
  0
LINE
  8
0
  6
CONTINUOUS
 10
362.716370
 20
428.664856
 11
362.716370
 21
368.664429
  0
LINE
  8
0
  6
CENTER
 10
456.838623
 20
508.664429
 11
-20.167500
 21
508.664429
  0
LINE
  8
0
  6
CONTINUOUS
 10
233.637894
 20
579.664429
 11
240.637894
 21
579.664429
  0
LINE
  8
0
  6
CONTINUOUS
 10
231.637894
 20
439.664429
 11
231.637894
 21
577.664429
  0
LINE
  8
0
  6
CONTINUOUS
 10
233.637894
 20
437.664429
 11
240.637497
 21
437.664429
  0
LINE
  8
0
  6
CONTINUOUS
 10
184.137894
 20
561.664429
 11
231.637894
 21
561.664429
  0
LINE
  8
0
  6
CONTINUOUS
 10
184.137894
 20
455.664429
 11
231.637894
 21
455.664429
  0
LINE
  8
0
  6
CONTINUOUS
 10
184.137894
 20
561.664429
 11
184.137894
 21
455.664429
  0
ARC
  8
0
  6
CONTINUOUS
 10
233.637894
 20
577.664429
 40
2.000000
 50
90.000000
 51
180.000000
  0
ARC
  8
0
  6
CONTINUOUS
 10
233.637894
 20
439.664429
 40
2.000000
 50
180.000000
 51
270.000000
  0
ARC
  8
0
  6
CONTINUOUS
 10
230.852966
 20
508.664429
 40
20.000000
 50
141.561295
 51
180.000000
  0
LINE
  8
0
  6
CONTINUOUS
 10
231.637894
 20
541.824402
 11
215.187500
 21
521.097961
  0
ARC
  8
0
  6
CONTINUOUS
 10
230.852966
 20
508.664429
 40
20.000000
 50
-180.000000
 51
-141.561295
  0
LINE
  8
0
  6
CONTINUOUS
 10
231.637894
 20
475.504425
 11
215.187500
 21
496.230896
  0
LINE
  8
0
  6
CONTINUOUS
 10
54.137383
 20
561.664429
 11
184.137375
 21
561.664429
  0
LINE
  8
0
  6
CONTINUOUS
 10
54.137383
 20
455.664429
 11
184.137375
 21
455.664429
  0
LINE
  8
0
  6
CONTINUOUS
 10
54.137383
 20
540.164429
 11
174.137375
 21
540.164429
  0
LINE
  8
0
  6
CONTINUOUS
 10
54.137383
 20
477.164429
 11
174.137375
 21
477.164429
  0
LINE
  8
0
  6
CONTINUOUS
 10
174.137375
 20
559.664429
 11
174.137375
 21
540.164429
  0
ARC
  8
0
  6
CONTINUOUS
 10
176.137375
 20
559.664429
 40
2.000000
 50
90.000000
 51
180.000000
  0
ARC
  8
0
  6
CONTINUOUS
 10
176.137375
 20
457.664429
 40
2.000000
 50
180.000000
 51
270.000000
  0
LINE
  8
0
  6
CONTINUOUS
 10
45.637341
 20
561.664429
 11
54.137383
 21
561.664429
  0
LINE
  8
0
  6
CONTINUOUS
 10
45.637341
 20
455.664429
 11
54.137383
 21
455.664429
  0
LINE
  8
0
  6
CONTINUOUS
 10
54.137383
 20
540.164429
 11
45.637341
 21
540.164429
  0
LINE
  8
0
  6
CONTINUOUS
 10
54.137383
 20
477.164429
 11
45.637341
 21
477.164429
  0
LINE
  8
0
  6
CONTINUOUS
 10
54.137383
 20
455.664429
 11
54.137383
 21
483.664398
  0
LINE
  8
0
  6
CONTINUOUS
 10
54.137383
 20
533.664429
 11
54.137383
 21
561.664429
  0
LINE
  8
0
  6
CONTINUOUS
 10
45.637341
 20
563.664429
 11
45.637341
 21
532.164368
  0
LINE
  8
0
  6
CONTINUOUS
 10
6.637340
 20
563.664429
 11
45.637341
 21
563.664429
  0
LINE
  8
0
  6
CONTINUOUS
 10
6.637340
 20
453.664429
 11
45.637341
 21
453.664429
  0
LINE
  8
0
  6
CONTINUOUS
 10
-3.362660
 20
463.664429
 11
-3.362660
 21
553.664429
  0
LINE
  8
0
  6
CONTINUOUS
 10
1.637340
 20
539.164429
 11
45.637341
 21
539.164429
  0
LINE
  8
0
  6
CONTINUOUS
 10
1.637340
 20
478.164429
 11
45.637341
 21
478.164429
  0
ARC
  8
0
  6
CONTINUOUS
 10
6.637430
 20
553.664429
 40
10.000000
 50
90.000000
 51
180.000000
  0
ARC
  8
0
  6
CONTINUOUS
 10
6.637340
 20
463.664429
 40
10.000000
 50
180.000000
 51
270.000000
  0
LINE
  8
0
  6
CONTINUOUS
 10
45.637383
 20
170.479996
 11
45.637383
 21
60.480000
  0
LINE
  8
0
  6
CONTINUOUS
 10
45.637383
 20
168.479996
 11
54.137383
 21
168.479996
  0
LINE
  8
0
  6
CONTINUOUS
 10
45.637383
 20
62.480000
 11
54.137383
 21
62.480000
  0
LINE
  8
0
  6
CONTINUOUS
 10
45.637383
 20
158.042603
 11
54.137383
 21
158.042603
  0
LINE
  8
0
  6
CONTINUOUS
 10
45.637383
 20
72.795868
 11
54.137383
 21
72.795868
  0
LINE
  8
0
  6
CONTINUOUS
 10
6.637382
 20
170.479996
 11
45.637383
 21
170.479996
  0
LINE
  8
0
  6
CONTINUOUS
 10
6.637382
 20
60.480000
 11
45.637383
 21
60.480000
  0
LINE
  8
0
  6
CONTINUOUS
 10
-3.362618
 20
70.480003
 11
-3.362618
 21
160.479996
  0
LINE
  8
0
  6
CONTINUOUS
 10
1.637382
 20
145.979996
 11
45.637383
 21
145.979996
  0
LINE
  8
0
  6
CONTINUOUS
 10
1.637382
 20
84.980003
 11
45.637383
 21
84.980003
  0
ARC
  8
0
  6
CONTINUOUS
 10
6.637472
 20
160.479996
 40
10.000000
 50
90.000000
 51
180.000000
  0
ARC
  8
0
  6
CONTINUOUS
 10
6.637382
 20
70.480003
 40
10.000000
 50
180.000000
 51
270.000000
  0
LINE
  8
0
  6
CONTINUOUS
 10
54.137383
 20
62.480000
 11
54.137383
 21
168.479996
  0
LINE
  8
0
  6
CONTINUOUS
 10
45.637341
 20
485.164459
 11
45.637341
 21
453.664429
  0
LINE
  8
0
  6
CONTINUOUS
 10
45.137383
 20
485.664398
 11
45.137383
 21
531.664429
  0
LINE
  8
0
  6
CONTINUOUS
 10
47.137383
 20
533.664429
 11
45.137383
 21
531.664429
  0
LINE
  8
0
  6
CONTINUOUS
 10
47.137383
 20
533.664429
 11
93.137375
 21
533.664429
  0
LINE
  8
0
  6
CONTINUOUS
 10
87.637383
 20
529.164429
 11
87.637383
 21
533.664429
  0
ARC
  8
0
  6
CONTINUOUS
 10
90.637383
 20
529.164429
 40
3.000000
 50
180.000000
 51
270.000000
  0
LINE
  8
0
  6
CONTINUOUS
 10
90.637383
 20
526.164429
 11
95.137375
 21
526.164429
  0
CIRCLE
  8
0
  6
CONTINUOUS
 10
91.637383
 20
530.164429
 40
2.250000
  0
LINE
  8
0
  6
CONTINUOUS
 10
95.137375
 20
485.664398
 11
95.137375
 21
531.664429
  0
LINE
  8
0
  6
CONTINUOUS
 10
93.137375
 20
533.664429
 11
95.137375
 21
531.664429
  0
LINE
  8
0
  6
CONTINUOUS
 10
93.137375
 20
483.664398
 11
95.137375
 21
485.664398
  0
LINE
  8
0
  6
CONTINUOUS
 10
93.137375
 20
483.664398
 11
47.137383
 21
483.664398
  0
LINE
  8
0
  6
CONTINUOUS
 10
45.137383
 20
485.664398
 11
47.137383
 21
483.664398
  0
LINE
  8
0
  6
CONTINUOUS
 10
49.637383
 20
491.164398
 11
45.137390
 21
491.164398
  0
CIRCLE
  8
0
  6
CONTINUOUS
 10
48.637383
 20
487.164398
 40
2.250000
  0
ARC
  8
0
  6
CONTINUOUS
 10
49.637383
 20
488.164398
 40
3.000000
 50
0.000000
 51
90.000000
  0
LINE
  8
0
  6
CONTINUOUS
 10
52.637383
 20
488.164398
 11
52.637383
 21
483.664398
  0
LINE
  8
0
  6
CENTER
 10
70.137383
 20
476.198639
 11
70.137383
 21
540.330627
  0
LINE
  8
0
  6
CONTINUOUS
 10
46.137386
 20
491.164429
 11
46.137386
 21
526.164429
  0
LINE
  8
0
  6
CONTINUOUS
 10
87.637383
 20
532.664429
 11
52.637402
 21
532.664429
  0
LINE
  8
0
  6
CONTINUOUS
 10
94.137375
 20
526.164429
 11
94.137375
 21
491.164429
  0
LINE
  8
0
  6
CONTINUOUS
 10
52.637383
 20
484.664429
 11
87.637405
 21
484.664429
  0
ARC
  8
0
  6
CONTINUOUS
 10
49.637402
 20
529.164429
 40
3.000000
 50
-90.000000
 51
0.000000
  0
LINE
  8
0
  6
CONTINUOUS
 10
52.637402
 20
529.164429
 11
52.637402
 21
533.664429
  0
CIRCLE
  8
0
  6
CONTINUOUS
 10
48.637402
 20
530.164429
 40
2.250000
  0
LINE
  8
0
  6
CONTINUOUS
 10
49.637402
 20
526.164429
 11
45.137402
 21
526.164429
  0
CIRCLE
  8
0
  6
CONTINUOUS
 10
91.637405
 20
487.164429
 40
2.250000
  0
LINE
  8
0
  6
CONTINUOUS
 10
87.637405
 20
488.164429
 11
87.637405
 21
483.664429
  0
ARC
  8
0
  6
CONTINUOUS
 10
90.637405
 20
488.164429
 40
3.000000
 50
90.000000
 51
180.000000
  0
LINE
  8
0
  6
CONTINUOUS
 10
90.637405
 20
491.164429
 11
95.137405
 21
491.164429
  0
LINE
  8
0
  6
CONTINUOUS
 10
46.637383
 20
169.979996
 11
93.137383
 21
169.979996
  0
LINE
  8
0
  6
CONTINUOUS
 10
95.137360
 20
213.979996
 11
95.137383
 21
171.979996
  0
LINE
  8
0
  6
CONTINUOUS
 10
45.137383
 20
213.979996
 11
45.137383
 21
171.979996
  0
LINE
  8
0
  6
CONTINUOUS
 10
45.137383
 20
181.979996
 11
95.137383
 21
181.979996
  0
LINE
  8
0
  6
CONTINUOUS
 10
93.137383
 20
169.979996
 11
95.137383
 21
171.979996
  0
LINE
  8
0
  6
CONTINUOUS
 10
45.137383
 20
171.979996
 11
47.137383
 21
169.979996
  0
LINE
  8
0
  6
CONTINUOUS
 10
45.137383
 20
171.979996
 11
95.137383
 21
171.979996
  0
LINE
  8
0
  6
CONTINUOUS
 10
45.137383
 20
182.979996
 11
95.137375
 21
182.979996
  0
LINE
  8
0
  6
CONTINUOUS
 10
46.137383
 20
214.979996
 11
94.137360
 21
214.979996
  0
LINE
  8
0
  6
CONTINUOUS
 10
94.137360
 20
214.979996
 11
95.137360
 21
213.979996
  0
LINE
  8
0
  6
CONTINUOUS
 10
46.137383
 20
214.979996
 11
45.137383
 21
213.979996
  0
LINE
  8
0
  6
CONTINUOUS
 10
45.137383
 20
213.979996
 11
95.137360
 21
213.979996
  0
LINE
  8
0
  6
CENTER
 10
42.762383
 20
197.979996
 11
47.387383
 21
197.979996
  0
LINE
  8
0
  6
CONTINUOUS
 10
46.637383
 20
169.979996
 11
46.637383
 21
168.479996
  0
LINE
  8
0
  6
CONTINUOUS
 10
92.637383
 20
169.979996
 11
92.637383
 21
168.479996
  0
LINE
  8
0
  6
CONTINUOUS
 10
44.262383
 20
208.479996
 11
46.262383
 21
208.479996
  0
LINE
  8
0
  6
CONTINUOUS
 10
44.262383
 20
187.479996
 11
46.262383
 21
187.479996
  0
LINE
  8
0
  6
CENTER
 10
70.137383
 20
160.564377
 11
70.137383
 21
221.899368
  0
LINE
  8
0
  6
CONTINUOUS
 10
174.137375
 20
477.164429
 11
174.137375
 21
457.664398
  0
TEXT
  8
0
 10
-20.000000
 20
2.000000
 40
4.000000
 41
1.000000
  1
HLM-40R-1200~1800-S90K
 50
0.000000
  0
ENDSEC
  0
EOF
