  0
SECTION
  2
HEADER
  9
$CLAYER
  8
1
  9
$LTSCALE
 40
3.0
  0
ENDSEC
  0
SECTION
  2
TABLES
  0
TABLE
  2
LTYPE
 70
     4
  0
LTYPE
  2
CONTINUOUS
  3
solid line
 70
    64
 72
    65
 73
     0
 40
0.0
  0
LTYPE
  2
DASHED
  3
__ __ __ __ __ __ __ __ __ __ __ __ __ __ __
 70
    64
 72
    65
 73
     2
 40
0.75
 49
0.5
 49
-0.25
  0
LTYPE
  2
CENTER
  3
____ _ ____ _ ____ _ ____ _ ____ _ ____ _ ____
 70
    64
 72
    65
 73
     4
 40
2.0
 49
1.25
 49
-0.25
 49
0.25
 49
-0.25
  0
LTYPE
  2
PHANTOM
  3
_____ _ _ _____ _ _ _____ _ _ _____ _ _ ____
 70
    64
 72
    65
 73
     6
 40
2.5
 49
1.25
 49
-0.25
 49
0.25
 49
-0.25
 49
0.25
 49
-0.25
  0
ENDTAB
  0
TABLE
  2
LAYER
 70
     1
  0
LAYER
  2
0
 70
    64
 62
     7
  6
CONTINUOUS
  0
ENDTAB
  0
TABLE
  2
STYLE
 70
     1
  0
STYLE
  2
STANDARD
 70
     0
 40
0.000000
 41
1.000000
 50
0.000000
 71
     0
 42
3.000000
  3
txt
  4
BIGFONT
  0
ENDTAB
  0
ENDSEC
  0
SECTION
  2
BLOCKS
  0
ENDSEC
  0
SECTION
  2
ENTITIES
  0
LINE
  8
0
  6
CONTINUOUS
 10
246.542389
 20
41.922501
 11
246.542389
 21
183.922501
  0
LINE
  8
0
  6
CENTER
 10
149.152496
 20
112.922501
 11
293.032379
 21
112.922501
  0
LINE
  8
0
  6
CENTER
 10
349.542389
 20
256.277496
 11
349.542389
 21
-12.717500
  0
LINE
  8
0
  6
CENTER
 10
274.850006
 20
166.422501
 11
424.554993
 21
166.422501
  0
LINE
  8
0
  6
CONTINUOUS
 10
259.542389
 20
1.422500
 11
439.542389
 21
1.422500
  0
LINE
  8
0
  6
CONTINUOUS
 10
259.542389
 20
21.422501
 11
439.542389
 21
21.422501
  0
LINE
  8
0
  6
CONTINUOUS
 10
317.727997
 20
243.922501
 11
381.356781
 21
243.922501
  0
LINE
  8
0
  6
CONTINUOUS
 10
439.542389
 20
199.754501
 11
439.542389
 21
1.422500
  0
LINE
  8
0
  6
CONTINUOUS
 10
259.542389
 20
199.754501
 11
259.542389
 21
1.422500
  0
LINE
  8
0
  6
CONTINUOUS
 10
246.542389
 20
183.922501
 11
254.542389
 21
183.922501
  0
LINE
  8
0
  6
CONTINUOUS
 10
246.542389
 20
41.922501
 11
254.542389
 21
41.922501
  0
LINE
  8
0
  6
CONTINUOUS
 10
387.140991
 20
242.079834
 11
435.326782
 21
207.911819
  0
LINE
  8
0
  6
CONTINUOUS
 10
263.758179
 20
207.911819
 11
311.943787
 21
242.079834
  0
ARC
  8
0
  6
CONTINUOUS
 10
429.542389
 20
199.754456
 40
10.000000
 50
0.000000
 51
54.660099
  0
ARC
  8
0
  6
CONTINUOUS
 10
381.356781
 20
233.922501
 40
10.000000
 50
54.659950
 51
90.000000
  0
ARC
  8
0
  6
CONTINUOUS
 10
317.727997
 20
233.922501
 40
10.000000
 50
90.000000
 51
125.340302
  0
ARC
  8
0
  6
CONTINUOUS
 10
269.542389
 20
199.754547
 40
10.000000
 50
125.340500
 51
180.000000
  0
ARC
  8
0
  6
CONTINUOUS
 10
254.542389
 20
188.922501
 40
5.000000
 50
-90.000000
 51
0.000000
  0
ARC
  8
0
  6
CONTINUOUS
 10
254.542389
 20
36.922482
 40
5.000000
 50
0.000000
 51
90.000000
  0
LINE
  8
0
  6
CENTER
 10
409.542389
 20
27.177500
 11
409.542389
 21
-6.792500
  0
LINE
  8
0
  6
CENTER
 10
289.542389
 20
28.362499
 11
289.542389
 21
-6.397500
  0
LINE
  8
0
  6
DASHED
 10
402.042389
 20
21.422501
 11
402.042389
 21
1.422500
  0
LINE
  8
0
  6
DASHED
 10
417.042389
 20
21.422501
 11
417.042389
 21
1.422500
  0
LINE
  8
0
  6
DASHED
 10
297.042389
 20
21.422501
 11
297.042389
 21
1.422500
  0
LINE
  8
0
  6
DASHED
 10
282.042389
 20
21.422501
 11
282.042389
 21
1.422500
  0
LINE
  8
0
  6
CONTINUOUS
 10
425.542389
 20
18.737181
 11
425.542389
 21
1.422500
  0
LINE
  8
0
  6
CONTINUOUS
 10
273.542389
 20
18.737181
 11
273.542389
 21
1.422500
  0
LINE
  8
0
  6
CONTINUOUS
 10
383.299774
 20
26.422501
 11
315.784973
 21
26.422501
  0
LINE
  8
0
  6
CONTINUOUS
 10
314.542389
 20
25.285620
 11
314.542389
 21
22.422501
  0
LINE
  8
0
  6
CONTINUOUS
 10
384.542389
 20
25.285620
 11
384.542389
 21
22.422501
  0
LINE
  8
0
  6
CONTINUOUS
 10
385.420990
 20
25.543819
 11
388.077972
 21
22.886940
  0
LINE
  8
0
  6
CONTINUOUS
 10
313.663788
 20
25.543819
 11
311.006775
 21
22.886999
  0
ARC
  8
0
  6
CONTINUOUS
 10
307.471375
 20
26.422501
 40
5.000000
 50
270.000000
 51
315.000092
  0
ARC
  8
0
  6
CONTINUOUS
 10
391.613373
 20
26.422501
 40
5.000000
 50
225.000107
 51
270.000000
  0
ARC
  8
0
  6
CONTINUOUS
 10
315.784973
 20
23.422501
 40
3.000000
 50
90.000000
 51
135.000397
  0
ARC
  8
0
  6
CONTINUOUS
 10
383.299774
 20
23.422501
 40
3.000000
 50
45.000259
 51
90.000000
  0
ARC
  8
0
  6
CONTINUOUS
 10
313.542389
 20
22.422501
 40
1.000000
 50
-90.000000
 51
0.000000
  0
ARC
  8
0
  6
CONTINUOUS
 10
385.542389
 20
22.422501
 40
1.000000
 50
180.000000
 51
270.000000
  0
CIRCLE
  8
0
  6
CONTINUOUS
 10
349.542389
 20
166.422501
 40
46.000000
  0
ARC
  8
0
  6
CONTINUOUS
 10
349.542389
 20
166.422501
 40
52.000000
 50
12.522720
 51
167.477402
  0
ARC
  8
0
  6
CONTINUOUS
 10
349.542389
 20
166.422501
 40
48.000000
 50
-192.522598
 51
12.522720
  0
ARC
  8
0
  6
CONTINUOUS
 10
319.542389
 20
95.922501
 40
34.000000
 50
167.477402
 51
270.000000
  0
ARC
  8
0
  6
CONTINUOUS
 10
319.542389
 20
95.922501
 40
38.000000
 50
167.477402
 51
270.000000
  0
ARC
  8
0
  6
CONTINUOUS
 10
379.542389
 20
95.922501
 40
34.000000
 50
-90.000000
 51
12.522730
  0
ARC
  8
0
  6
CONTINUOUS
 10
379.542389
 20
95.922501
 40
38.000000
 50
-90.000000
 51
12.522720
  0
LINE
  8
0
  6
CONTINUOUS
 10
282.446381
 20
104.161865
 11
298.779388
 21
177.697403
  0
LINE
  8
0
  6
CONTINUOUS
 10
400.305389
 20
177.697495
 11
416.638397
 21
104.161926
  0
LINE
  8
0
  6
CONTINUOUS
 10
396.400391
 20
176.830185
 11
412.733582
 21
103.294617
  0
LINE
  8
0
  6
CONTINUOUS
 10
286.351196
 20
103.294563
 11
302.684387
 21
176.830124
  0
LINE
  8
0
  6
CONTINUOUS
 10
319.542389
 20
61.922501
 11
379.542389
 21
61.922501
  0
LINE
  8
0
  6
CONTINUOUS
 10
319.542389
 20
57.922501
 11
379.542389
 21
57.922501
  0
LINE
  8
0
  6
CONTINUOUS
 10
337.315369
 20
79.922501
 11
332.374969
 21
79.922501
  0
LINE
  8
0
  6
CONTINUOUS
 10
340.042389
 20
88.197899
 11
340.042389
 21
79.922501
  0
LINE
  8
0
  6
CONTINUOUS
 10
344.792389
 20
91.203743
 11
344.792389
 21
94.172501
  0
LINE
  8
0
  6
CONTINUOUS
 10
354.292389
 20
91.203743
 11
354.292389
 21
94.172501
  0
LINE
  8
0
  6
CONTINUOUS
 10
348.614594
 20
92.428360
 11
348.614594
 21
81.481102
  0
LINE
  8
0
  6
CONTINUOUS
 10
350.395996
 20
92.428360
 11
350.395996
 21
81.481102
  0
LINE
  8
0
  6
CONTINUOUS
 10
359.747589
 20
92.428360
 11
359.747589
 21
81.406883
  0
LINE
  8
0
  6
CONTINUOUS
 10
361.380371
 20
86.583641
 11
361.380371
 21
81.406883
  0
LINE
  8
0
  6
CONTINUOUS
 10
337.788391
 20
92.279922
 11
333.210785
 21
92.279922
  0
LINE
  8
0
  6
CONTINUOUS
 10
333.210785
 20
92.279922
 11
332.138184
 21
90.949921
  0
LINE
  8
0
  6
CONTINUOUS
 10
332.267181
 20
94.172501
 11
330.542389
 21
91.964043
  0
LINE
  8
0
  6
CONTINUOUS
 10
332.138184
 20
82.740341
 11
333.227997
 21
81.592422
  0
LINE
  8
0
  6
CONTINUOUS
 10
330.542389
 20
81.771622
 11
332.374969
 21
79.922501
  0
LINE
  8
0
  6
CONTINUOUS
 10
330.542389
 20
91.964043
 11
330.542389
 21
81.771622
  0
LINE
  8
0
  6
CONTINUOUS
 10
332.138184
 20
90.949921
 11
332.138184
 21
82.740341
  0
LINE
  8
0
  6
CONTINUOUS
 10
338.669373
 20
91.428360
 11
337.770386
 21
92.279922
  0
LINE
  8
0
  6
CONTINUOUS
 10
338.654968
 20
94.172501
 11
340.042389
 21
92.632919
  0
LINE
  8
0
  6
CONTINUOUS
 10
338.669373
 20
91.203743
 11
340.042389
 21
91.203743
  0
LINE
  8
0
  6
CONTINUOUS
 10
332.267181
 20
94.172501
 11
338.654968
 21
94.172501
  0
LINE
  8
0
  6
CONTINUOUS
 10
336.182983
 20
88.197899
 11
340.042389
 21
88.197899
  0
LINE
  8
0
  6
CONTINUOUS
 10
338.669373
 20
86.639297
 11
336.182983
 21
86.639297
  0
LINE
  8
0
  6
CONTINUOUS
 10
335.700592
 20
81.592422
 11
333.227997
 21
81.592422
  0
LINE
  8
0
  6
CONTINUOUS
 10
338.669373
 20
85.154922
 11
338.669373
 21
86.342422
  0
ARC
  8
0
  6
CONTINUOUS
 10
335.700592
 20
84.561157
 40
2.968750
 50
-89.999786
 51
0.000109
  0
LINE
  8
0
  6
CONTINUOUS
 10
338.669373
 20
81.058418
 11
338.669373
 21
79.922501
  0
LINE
  8
0
  6
CONTINUOUS
 10
340.042389
 20
92.632919
 11
340.042389
 21
91.203743
  0
LINE
  8
0
  6
CONTINUOUS
 10
338.669373
 20
86.639297
 11
338.669373
 21
84.561157
  0
LINE
  8
0
  6
CONTINUOUS
 10
336.182983
 20
88.197899
 11
336.182983
 21
86.639297
  0
LINE
  8
0
  6
CONTINUOUS
 10
338.669373
 20
79.922501
 11
340.042389
 21
79.922501
  0
LINE
  8
0
  6
CONTINUOUS
 10
338.669373
 20
81.058418
 11
337.315369
 21
79.922501
  0
LINE
  8
0
  6
CONTINUOUS
 10
350.395996
 20
81.481102
 11
350.989594
 21
81.481102
  0
LINE
  8
0
  6
CONTINUOUS
 10
347.909576
 20
81.481102
 11
347.909576
 21
79.922501
  0
LINE
  8
0
  6
CONTINUOUS
 10
350.989594
 20
81.481102
 11
350.989594
 21
79.922501
  0
LINE
  8
0
  6
CONTINUOUS
 10
353.301392
 20
91.203743
 11
354.292389
 21
91.203743
  0
LINE
  8
0
  6
CONTINUOUS
 10
344.792389
 20
91.203743
 11
345.846985
 21
91.203743
  0
LINE
  8
0
  6
CONTINUOUS
 10
344.792389
 20
94.172501
 11
354.292389
 21
94.172501
  0
LINE
  8
0
  6
CONTINUOUS
 10
347.909576
 20
79.922501
 11
350.989594
 21
79.922501
  0
LINE
  8
0
  6
CONTINUOUS
 10
347.909576
 20
81.481102
 11
348.614594
 21
81.481102
  0
ARC
  8
0
  6
CONTINUOUS
 10
364.738586
 20
90.368782
 40
3.803712
 50
-73.981873
 51
90.003510
  0
ARC
  8
0
  6
CONTINUOUS
 10
364.738586
 20
90.368782
 40
2.320524
 50
-82.585274
 51
62.411850
  0
LINE
  8
0
  6
CONTINUOUS
 10
359.042389
 20
94.172501
 11
364.738586
 21
94.172501
  0
LINE
  8
0
  6
CONTINUOUS
 10
365.038177
 20
88.067657
 11
361.380371
 21
88.067657
  0
LINE
  8
0
  6
CONTINUOUS
 10
359.042389
 20
94.172501
 11
359.042389
 21
92.428360
  0
LINE
  8
0
  6
CONTINUOUS
 10
361.380371
 20
92.428360
 11
361.380371
 21
88.067657
  0
LINE
  8
0
  6
CONTINUOUS
 10
365.788177
 20
86.712761
 11
368.142578
 21
81.406883
  0
LINE
  8
0
  6
CONTINUOUS
 10
364.420990
 20
86.583641
 11
366.648773
 21
81.406883
  0
LINE
  8
0
  6
CONTINUOUS
 10
359.042389
 20
81.406883
 11
359.747589
 21
81.406883
  0
LINE
  8
0
  6
CONTINUOUS
 10
361.380371
 20
81.406883
 11
362.029785
 21
81.406883
  0
LINE
  8
0
  6
CONTINUOUS
 10
362.029785
 20
79.922501
 11
359.042389
 21
79.922501
  0
LINE
  8
0
  6
CONTINUOUS
 10
366.352997
 20
81.406883
 11
366.648773
 21
81.406883
  0
LINE
  8
0
  6
CONTINUOUS
 10
368.142578
 20
81.406883
 11
368.542389
 21
81.406883
  0
LINE
  8
0
  6
CONTINUOUS
 10
366.352997
 20
79.922501
 11
368.542389
 21
79.922501
  0
LINE
  8
0
  6
CONTINUOUS
 10
368.542389
 20
81.406883
 11
368.542389
 21
79.922501
  0
LINE
  8
0
  6
CONTINUOUS
 10
366.352997
 20
81.406883
 11
366.352997
 21
79.922501
  0
LINE
  8
0
  6
CONTINUOUS
 10
362.029785
 20
81.406883
 11
362.029785
 21
79.922501
  0
LINE
  8
0
  6
CONTINUOUS
 10
359.042389
 20
81.406883
 11
359.042389
 21
79.922501
  0
LINE
  8
0
  6
CONTINUOUS
 10
346.357178
 20
92.428360
 11
345.846985
 21
91.203743
  0
LINE
  8
0
  6
CONTINUOUS
 10
352.871185
 20
92.428360
 11
353.301392
 21
91.203743
  0
LINE
  8
0
  6
CONTINUOUS
 10
350.395996
 20
92.428360
 11
352.871185
 21
92.428360
  0
LINE
  8
0
  6
CONTINUOUS
 10
348.614594
 20
92.428360
 11
346.357178
 21
92.428360
  0
LINE
  8
0
  6
CONTINUOUS
 10
361.380371
 20
86.583641
 11
364.420990
 21
86.583641
  0
LINE
  8
0
  6
CONTINUOUS
 10
359.042389
 20
92.428360
 11
359.747589
 21
92.428360
  0
LINE
  8
0
  6
CONTINUOUS
 10
361.380371
 20
92.428360
 11
365.813385
 21
92.425484
  0
LINE
  8
0
  6
CONTINUOUS
 10
338.669373
 20
91.428360
 11
338.669373
 21
91.203743
  0
ARC
  8
0
  6
CONTINUOUS
 10
469.223969
 20
112.922501
 40
215.181595
 50
167.017899
 51
192.982101
  0
LINE
  8
0
  6
CONTINUOUS
 10
60.042381
 20
150.922501
 11
190.042389
 21
150.922501
  0
LINE
  8
0
  6
CONTINUOUS
 10
60.042381
 20
44.922501
 11
190.042389
 21
44.922501
  0
LINE
  8
0
  6
CONTINUOUS
 10
60.042381
 20
140.545837
 11
178.704147
 21
140.545837
  0
LINE
  8
0
  6
CONTINUOUS
 10
60.042381
 20
55.299141
 11
178.704147
 21
55.299141
  0
LINE
  8
0
  6
CONTINUOUS
 10
180.042389
 20
148.922501
 11
180.042389
 21
46.922482
  0
ARC
  8
0
  6
CONTINUOUS
 10
182.042389
 20
148.922516
 40
2.000000
 50
90.000000
 51
180.000000
  0
ARC
  8
0
  6
CONTINUOUS
 10
182.042389
 20
46.922501
 40
2.000000
 50
180.000000
 51
270.000000
  0
LINE
  8
0
  6
CENTER
 10
692.391602
 20
-15.087500
 11
692.391602
 21
257.067505
  0
LINE
  8
0
  6
CENTER
 10
591.589233
 20
112.922501
 11
788.299194
 21
112.922501
  0
LINE
  8
0
  6
CENTER
 10
536.580017
 20
166.422501
 11
783.559204
 21
166.422501
  0
LINE
  8
0
  6
CENTER
 10
622.391602
 20
33.102501
 11
622.391602
 21
-5.607500
  0
LINE
  8
0
  6
CENTER
 10
762.391602
 20
30.337500
 11
762.391602
 21
-6.397500
  0
LINE
  8
0
  6
DASHED
 10
754.891602
 20
21.422501
 11
754.891602
 21
1.422500
  0
LINE
  8
0
  6
DASHED
 10
769.891602
 20
21.422501
 11
769.891602
 21
1.422500
  0
LINE
  8
0
  6
DASHED
 10
629.891602
 20
21.422501
 11
629.891602
 21
1.422500
  0
LINE
  8
0
  6
DASHED
 10
614.891602
 20
21.422501
 11
614.891602
 21
1.422500
  0
LINE
  8
0
  6
CONTINUOUS
 10
602.391602
 20
1.422500
 11
657.391602
 21
1.422500
  0
LINE
  8
0
  6
CONTINUOUS
 10
727.391602
 20
1.422500
 11
782.391602
 21
1.422500
  0
LINE
  8
0
  6
CONTINUOUS
 10
749.391602
 20
21.422501
 11
779.391602
 21
21.422501
  0
LINE
  8
0
  6
CONTINUOUS
 10
605.391602
 20
21.422501
 11
635.391602
 21
21.422501
  0
LINE
  8
0
  6
CONTINUOUS
 10
602.391602
 20
18.791380
 11
602.391602
 21
1.422520
  0
LINE
  8
0
  6
CONTINUOUS
 10
782.391602
 20
18.791380
 11
782.391602
 21
1.422500
  0
LINE
  8
0
  6
CONTINUOUS
 10
744.391602
 20
223.702606
 11
744.391602
 21
239.084259
  0
LINE
  8
0
  6
CONTINUOUS
 10
640.391602
 20
239.083878
 11
640.391602
 21
1.422500
  0
LINE
  8
0
  6
CONTINUOUS
 10
658.891602
 20
2.922500
 11
725.891602
 21
2.922500
  0
LINE
  8
0
  6
CONTINUOUS
 10
644.836182
 20
204.922501
 11
740.623413
 21
204.922501
  0
LINE
  8
0
  6
CONTINUOUS
 10
740.461426
 20
243.083633
 11
692.391602
 21
243.922516
  0
LINE
  8
0
  6
CONTINUOUS
 10
644.321777
 20
243.083282
 11
692.391602
 21
243.922516
  0
LINE
  8
0
  6
CONTINUOUS
 10
619.391602
 20
125.702606
 11
619.391602
 21
207.142380
  0
LINE
  8
0
  6
CONTINUOUS
 10
765.391602
 20
125.702606
 11
765.391602
 21
207.142380
  0
LINE
  8
0
  6
CONTINUOUS
 10
626.391602
 20
67.202599
 11
626.391602
 21
170.562775
  0
LINE
  8
0
  6
CONTINUOUS
 10
758.391602
 20
67.202621
 11
758.391602
 21
170.562775
  0
ARC
  8
0
  6
CONTINUOUS
 10
644.391602
 20
239.083893
 40
4.000000
 50
91.000580
 51
180.000000
  0
ARC
  8
0
  6
CONTINUOUS
 10
740.391602
 20
239.084244
 40
4.000000
 50
0.000000
 51
89.000359
  0
LINE
  8
0
  6
CONTINUOUS
 10
624.468628
 20
213.873062
 11
635.314575
 21
216.971939
  0
LINE
  8
0
  6
CONTINUOUS
 10
749.468628
 20
216.971939
 11
760.314575
 21
213.873062
  0
LINE
  8
0
  6
CONTINUOUS
 10
631.468628
 20
60.471939
 11
635.314575
 21
59.373058
  0
LINE
  8
0
  6
CONTINUOUS
 10
753.314575
 20
60.471939
 11
749.468628
 21
59.373058
  0
LINE
  8
0
  6
CONTINUOUS
 10
779.783020
 20
21.765739
 11
747.000183
 21
26.079260
  0
LINE
  8
0
  6
CONTINUOUS
 10
605.000183
 20
21.765739
 11
637.783020
 21
26.079281
  0
ARC
  8
0
  6
CONTINUOUS
 10
626.391602
 20
207.142426
 40
7.000000
 50
105.945801
 51
180.000000
  0
ARC
  8
0
  6
CONTINUOUS
 10
626.391602
 20
125.702660
 40
7.000000
 50
180.000000
 51
240.000198
  0
ARC
  8
0
  6
CONTINUOUS
 10
758.391602
 20
207.142365
 40
7.000000
 50
0.000000
 51
74.054764
  0
ARC
  8
0
  6
CONTINUOUS
 10
758.391602
 20
125.702599
 40
7.000000
 50
-59.999882
 51
0.000000
  0
ARC
  8
0
  6
CONTINUOUS
 10
633.391602
 20
67.202660
 40
7.000000
 50
180.000000
 51
254.054901
  0
ARC
  8
0
  6
CONTINUOUS
 10
751.391602
 20
67.202599
 40
7.000000
 50
-74.054497
 51
0.000000
  0
LINE
  8
0
  6
CONTINUOUS
 10
744.391602
 20
26.422501
 11
744.391602
 21
223.702606
  0
ARC
  8
0
  6
CONTINUOUS
 10
751.391602
 20
223.702667
 40
7.000000
 50
180.000000
 51
254.054901
  0
ARC
  8
0
  6
CONTINUOUS
 10
751.391602
 20
52.642441
 40
7.000000
 50
105.945801
 51
180.000000
  0
ARC
  8
0
  6
CONTINUOUS
 10
765.391602
 20
113.578247
 40
7.000000
 50
120.000099
 51
180.000000
  0
ARC
  8
0
  6
CONTINUOUS
 10
747.391602
 20
29.053640
 40
3.000000
 50
180.000000
 51
262.504395
  0
ARC
  8
0
  6
CONTINUOUS
 10
779.391602
 20
18.422501
 40
3.000000
 50
0.000000
 51
90.000000
  0
ARC
  8
0
  6
CONTINUOUS
 10
779.391602
 20
18.791361
 40
3.000000
 50
0.000000
 51
82.504204
  0
LINE
  8
0
  6
CONTINUOUS
 10
744.391602
 20
26.422501
 11
744.391602
 21
1.422500
  0
ARC
  8
0
  6
CONTINUOUS
 10
749.391602
 20
26.422520
 40
5.000000
 50
180.000000
 51
270.000000
  0
ARC
  8
0
  6
CONTINUOUS
 10
637.391602
 20
29.053640
 40
3.000000
 50
-82.503883
 51
0.000000
  0
ARC
  8
0
  6
CONTINUOUS
 10
635.391602
 20
26.422501
 40
5.000000
 50
-90.000000
 51
0.000000
  0
ARC
  8
0
  6
CONTINUOUS
 10
605.391602
 20
18.422520
 40
3.000000
 50
90.000000
 51
180.000000
  0
ARC
  8
0
  6
CONTINUOUS
 10
605.391602
 20
18.791401
 40
3.000000
 50
97.496292
 51
180.000000
  0
LINE
  8
0
  6
CONTINUOUS
 10
657.391602
 20
1.422500
 11
658.891602
 21
2.922500
  0
LINE
  8
0
  6
CONTINUOUS
 10
727.391602
 20
1.422500
 11
725.891602
 21
2.922500
  0
ARC
  8
0
  6
CONTINUOUS
 10
633.391602
 20
52.642361
 40
7.000000
 50
0.000000
 51
74.054688
  0
ARC
  8
0
  6
CONTINUOUS
 10
619.391602
 20
113.578278
 40
7.000000
 50
0.000000
 51
60.000092
  0
ARC
  8
0
  6
CONTINUOUS
 10
633.391602
 20
223.702606
 40
7.000000
 50
-74.054443
 51
0.000000
  0
ARC
  8
0
  6
CONTINUOUS
 10
692.391602
 20
112.922501
 40
71.000000
 50
-21.630920
 51
6.068256
  0
ARC
  8
0
  6
CONTINUOUS
 10
692.391602
 20
112.922501
 40
71.000000
 50
173.931793
 51
201.630905
  0
LINE
  8
0
  6
CONTINUOUS
 10
745.391602
 20
56.247978
 11
745.391602
 21
49.922501
  0
LINE
  8
0
  6
CONTINUOUS
 10
639.391602
 20
49.922501
 11
639.391602
 21
56.111500
  0
ARC
  8
0
  6
CONTINUOUS
 10
740.391602
 20
49.922501
 40
5.000000
 50
-36.869869
 51
0.000000
  0
ARC
  8
0
  6
CONTINUOUS
 10
644.391602
 20
49.922501
 40
5.000000
 50
180.000000
 51
216.865204
  0
LINE
  8
0
  6
CONTINUOUS
 10
364.542389
 20
160.422562
 11
364.542389
 21
172.422562
  0
LINE
  8
0
  6
CONTINUOUS
 10
372.542389
 20
160.422577
 11
372.542389
 21
172.422577
  0
LINE
  8
0
  6
CONTINUOUS
 10
372.542389
 20
160.422577
 11
364.542389
 21
160.422562
  0
LINE
  8
0
  6
CONTINUOUS
 10
372.542389
 20
172.422577
 11
364.542389
 21
172.422562
  0
ARC
  8
0
  6
CONTINUOUS
 10
349.542389
 20
166.422501
 40
20.000000
 50
17.457600
 51
342.542389
  0
LINE
  8
0
  6
CONTINUOUS
 10
552.391602
 20
146.422501
 11
552.391602
 21
186.422501
  0
LINE
  8
0
  6
CONTINUOUS
 10
617.391602
 20
186.422501
 11
552.391602
 21
186.422501
  0
LINE
  8
0
  6
CONTINUOUS
 10
617.391602
 20
146.422501
 11
552.391602
 21
146.422501
  0
LINE
  8
0
  6
CONTINUOUS
 10
617.391602
 20
188.922501
 11
617.391602
 21
143.922501
  0
LINE
  8
0
  6
CONTINUOUS
 10
619.391602
 20
188.922501
 11
617.391602
 21
188.922501
  0
LINE
  8
0
  6
CONTINUOUS
 10
619.391602
 20
143.922501
 11
617.391602
 21
143.922501
  0
ARC
  8
0
  6
CONTINUOUS
 10
606.391602
 20
166.422501
 40
6.000000
 50
-90.000000
 51
90.000000
  0
LINE
  8
0
  6
CONTINUOUS
 10
606.391602
 20
172.422501
 11
552.391602
 21
172.422501
  0
LINE
  8
0
  6
CONTINUOUS
 10
606.391602
 20
160.422501
 11
552.391602
 21
160.422501
  0
LINE
  8
0
  6
CONTINUOUS
 10
237.542389
 20
67.678497
 11
237.542389
 21
181.922501
  0
LINE
  8
0
  6
CENTER
 10
-13.755000
 20
97.922501
 11
293.032379
 21
97.922501
  0
LINE
  8
0
  6
CONTINUOUS
 10
239.542389
 20
183.922501
 11
246.542389
 21
183.922501
  0
LINE
  8
0
  6
CONTINUOUS
 10
239.542389
 20
41.922520
 11
246.542389
 21
41.922520
  0
LINE
  8
0
  6
CONTINUOUS
 10
218.542389
 20
44.922501
 11
190.042389
 21
44.922501
  0
LINE
  8
0
  6
CONTINUOUS
 10
190.042389
 20
150.922501
 11
234.542358
 21
150.922501
  0
LINE
  8
0
  6
CONTINUOUS
 10
236.042389
 20
162.056473
 11
217.454117
 21
151.324432
  0
ARC
  8
0
  6
CONTINUOUS
 10
239.542404
 20
181.922501
 40
2.000000
 50
90.000000
 51
180.000000
  0
ARC
  8
0
  6
CONTINUOUS
 10
239.542389
 20
43.922501
 40
2.000000
 50
194.477707
 51
270.000000
  0
LINE
  8
0
  6
CONTINUOUS
 10
218.542389
 20
46.922501
 11
218.542389
 21
63.678501
  0
LINE
  8
0
  6
CONTINUOUS
 10
235.542389
 20
65.678497
 11
220.542389
 21
65.678497
  0
ARC
  8
0
  6
CONTINUOUS
 10
220.542389
 20
63.678520
 40
2.000000
 50
90.000000
 51
180.000000
  0
ARC
  8
0
  6
CONTINUOUS
 10
235.669403
 20
42.922501
 40
2.000000
 50
14.477280
 51
90.000000
  0
ARC
  8
0
  6
CONTINUOUS
 10
235.542389
 20
67.678497
 40
2.000000
 50
-90.000000
 51
0.000000
  0
LINE
  8
0
  6
CONTINUOUS
 10
218.542389
 20
44.922501
 11
235.669403
 21
44.922501
  0
ARC
  8
0
  6
CONTINUOUS
 10
216.542389
 20
46.922501
 40
2.000000
 50
-90.000000
 51
0.000000
  0
ARC
  8
0
  6
CONTINUOUS
 10
234.542389
 20
153.922501
 40
3.000000
 50
-90.000000
 51
0.000000
  0
ARC
  8
0
  6
CONTINUOUS
 10
234.542389
 20
164.654541
 40
3.000000
 50
-59.999660
 51
0.000000
  0
ARC
  8
0
  6
CONTINUOUS
 10
215.954102
 20
153.922501
 40
3.000000
 50
270.000000
 51
300.000305
  0
LINE
  8
0
  6
CONTINUOUS
 10
190.042389
 20
150.922501
 11
190.042389
 21
44.922501
  0
LINE
  8
0
  6
CONTINUOUS
 10
418.411499
 20
581.106689
 11
349.543030
 21
581.106689
  0
LINE
  8
0
  6
CONTINUOUS
 10
418.410889
 20
401.106659
 11
372.542389
 21
401.106750
  0
LINE
  8
0
  6
CENTER
 10
349.542389
 20
336.717865
 11
349.542938
 21
606.952515
  0
LINE
  8
0
  6
CENTER
 10
424.396210
 20
561.107544
 11
396.028137
 21
561.107544
  0
LINE
  8
0
  6
CONTINUOUS
 10
439.542694
 20
491.106750
 11
438.634705
 21
439.106720
  0
LINE
  8
0
  6
CONTINUOUS
 10
427.865509
 20
407.849274
 11
438.634705
 21
439.106720
  0
ARC
  8
0
  6
CONTINUOUS
 10
418.411102
 20
411.106720
 40
10.000000
 50
-90.000000
 51
-19.010900
  0
ARC
  8
0
  6
CONTINUOUS
 10
409.542694
 20
561.107544
 40
7.500000
 50
-46.074883
 51
212.226791
  0
LINE
  8
0
  6
CONTINUOUS
 10
439.542694
 20
491.106750
 11
438.634888
 21
543.106689
  0
LINE
  8
0
  6
CONTINUOUS
 10
427.865906
 20
574.364075
 11
438.634888
 21
543.106689
  0
ARC
  8
0
  6
CONTINUOUS
 10
418.411499
 20
571.106689
 40
10.000000
 50
19.010900
 51
90.000000
  0
LINE
  8
0
  6
CONTINUOUS
 10
259.542694
 20
491.106934
 11
260.450500
 21
439.106995
  0
LINE
  8
0
  6
CONTINUOUS
 10
271.219482
 20
407.849518
 11
260.450500
 21
439.106995
  0
ARC
  8
0
  6
CONTINUOUS
 10
280.674103
 20
411.106964
 40
10.000000
 50
199.010895
 51
270.000000
  0
LINE
  8
0
  6
CONTINUOUS
 10
259.542694
 20
491.106934
 11
260.399231
 21
540.159546
  0
LINE
  8
0
  6
CONTINUOUS
 10
271.219910
 20
574.364258
 11
260.797516
 21
544.113525
  0
LINE
  8
0
  6
CONTINUOUS
 10
248.580490
 20
562.106873
 11
246.542892
 21
562.106873
  0
LINE
  8
0
  6
CONTINUOUS
 10
246.542892
 20
562.106873
 11
246.542496
 21
420.106995
  0
LINE
  8
0
  6
CONTINUOUS
 10
257.652496
 20
548.295105
 11
255.341888
 21
556.918701
  0
ARC
  8
0
  6
CONTINUOUS
 10
248.580490
 20
555.106873
 40
7.000000
 50
14.999900
 51
90.000000
  0
ARC
  8
0
  6
CONTINUOUS
 10
264.414093
 20
550.106873
 40
7.000000
 50
-165.000305
 51
-90.000000
  0
LINE
  8
0
  6
CONTINUOUS
 10
248.580093
 20
420.106995
 11
246.542496
 21
420.106995
  0
LINE
  8
0
  6
CONTINUOUS
 10
257.652283
 20
433.918823
 11
255.341690
 21
425.295227
  0
ARC
  8
0
  6
CONTINUOUS
 10
248.580093
 20
427.107025
 40
7.000000
 50
-90.000000
 51
-14.999900
  0
ARC
  8
0
  6
CONTINUOUS
 10
264.413910
 20
432.106995
 40
7.000000
 50
121.109207
 51
165.000336
  0
ARC
  8
0
  6
CONTINUOUS
 10
280.674103
 20
571.107300
 40
10.000000
 50
90.000000
 51
160.989105
  0
ARC
  8
0
  6
CONTINUOUS
 10
289.542511
 20
561.108215
 40
7.500000
 50
-32.232941
 51
238.076355
  0
LINE
  8
0
  6
CENTER
 10
409.542419
 20
549.305908
 11
409.542908
 21
573.182312
  0
LINE
  8
0
  6
CENTER
 10
302.553101
 20
561.107605
 11
276.975342
 21
561.107605
  0
LINE
  8
0
  6
CENTER
 10
289.542694
 20
549.305908
 11
289.542908
 21
573.182495
  0
LINE
  8
0
  6
CONTINUOUS
 10
435.686798
 20
543.107178
 11
263.398773
 21
543.107178
  0
LINE
  8
0
  6
CONTINUOUS
 10
306.761932
 20
564.107178
 11
392.322845
 21
564.107178
  0
ARC
  8
0
  6
CONTINUOUS
 10
435.686798
 20
540.107178
 40
3.000000
 50
1.000152
 51
90.000000
  0
ARC
  8
0
  6
CONTINUOUS
 10
263.398773
 20
540.107178
 40
3.000000
 50
90.000000
 51
178.999634
  0
LINE
  8
0
  6
CONTINUOUS
 10
435.686798
 20
439.107147
 11
263.398773
 21
439.107147
  0
ARC
  8
0
  6
CONTINUOUS
 10
435.686798
 20
442.107147
 40
3.000000
 50
270.000000
 51
358.999847
  0
ARC
  8
0
  6
CONTINUOUS
 10
263.398773
 20
442.107147
 40
3.000000
 50
181.000366
 51
270.000000
  0
LINE
  8
0
  6
CONTINUOUS
 10
384.542603
 20
444.107147
 11
384.542603
 21
538.107178
  0
LINE
  8
0
  6
CONTINUOUS
 10
314.542603
 20
444.107147
 11
314.542603
 21
538.107178
  0
LINE
  8
0
  6
CONTINUOUS
 10
290.822601
 20
557.107178
 11
297.542389
 21
557.107178
  0
LINE
  8
0
  6
CONTINUOUS
 10
410.542511
 20
557.107178
 11
401.542389
 21
557.107178
  0
ARC
  8
0
  6
CONTINUOUS
 10
410.542511
 20
550.107178
 40
7.000000
 50
0.000000
 51
90.000000
  0
ARC
  8
0
  6
CONTINUOUS
 10
424.542511
 20
550.107178
 40
7.000000
 50
180.000000
 51
270.000000
  0
LINE
  8
0
  6
CENTER
 10
424.396210
 20
421.107605
 11
396.028137
 21
421.107605
  0
ARC
  8
0
  6
CONTINUOUS
 10
409.542694
 20
421.107605
 40
7.500000
 50
-212.226791
 51
46.074883
  0
ARC
  8
0
  6
CONTINUOUS
 10
289.542511
 20
421.106934
 40
7.500000
 50
-226.078156
 51
32.232941
  0
LINE
  8
0
  6
CENTER
 10
409.542419
 20
432.909210
 11
409.542908
 21
409.032806
  0
LINE
  8
0
  6
CENTER
 10
302.553101
 20
421.107513
 11
276.975342
 21
421.107513
  0
LINE
  8
0
  6
CENTER
 10
289.542694
 20
432.909210
 11
289.542908
 21
409.032593
  0
LINE
  8
0
  6
CONTINUOUS
 10
306.761932
 20
418.107147
 11
392.322845
 21
418.107147
  0
LINE
  8
0
  6
CONTINUOUS
 10
288.542511
 20
425.107147
 11
297.542389
 21
425.107086
  0
ARC
  8
0
  6
CONTINUOUS
 10
288.542511
 20
432.107147
 40
7.000000
 50
180.000000
 51
270.000000
  0
ARC
  8
0
  6
CONTINUOUS
 10
274.542511
 20
432.107147
 40
7.000000
 50
0.000000
 51
90.000000
  0
LINE
  8
0
  6
CONTINUOUS
 10
410.542511
 20
425.107147
 11
401.542389
 21
425.107086
  0
ARC
  8
0
  6
CONTINUOUS
 10
410.542511
 20
432.107147
 40
7.000000
 50
-90.000000
 51
0.000000
  0
ARC
  8
0
  6
CONTINUOUS
 10
424.542511
 20
432.107147
 40
7.000000
 50
90.000000
 51
180.000000
  0
LINE
  8
0
  6
CONTINUOUS
 10
284.091949
 20
552.030212
 11
282.993042
 21
548.184082
  0
ARC
  8
0
  6
CONTINUOUS
 10
290.822601
 20
550.107178
 40
7.000000
 50
90.000000
 51
164.054611
  0
ARC
  8
0
  6
CONTINUOUS
 10
276.262390
 20
550.107178
 40
7.000000
 50
-90.000000
 51
-15.945396
  0
LINE
  8
0
  6
CONTINUOUS
 10
329.542694
 20
351.106934
 11
372.542389
 21
351.106934
  0
LINE
  8
0
  6
CONTINUOUS
 10
369.542694
 20
416.106934
 11
369.542694
 21
411.107361
  0
LINE
  8
0
  6
CONTINUOUS
 10
329.542694
 20
416.106934
 11
329.542694
 21
351.106934
  0
LINE
  8
0
  6
CONTINUOUS
 10
372.042694
 20
416.106934
 11
327.042694
 21
416.106934
  0
LINE
  8
0
  6
CONTINUOUS
 10
372.042694
 20
418.106934
 11
372.042694
 21
416.106934
  0
LINE
  8
0
  6
CONTINUOUS
 10
327.042694
 20
418.106934
 11
327.042694
 21
416.106934
  0
LINE
  8
0
  6
CONTINUOUS
 10
349.543030
 20
581.106812
 11
280.674500
 21
581.106873
  0
LINE
  8
0
  6
CONTINUOUS
 10
329.542694
 20
401.106842
 11
280.674103
 21
401.106934
  0
LINE
  8
0
  6
CONTINUOUS
 10
372.542389
 20
351.107361
 11
372.542389
 21
411.107361
  0
LINE
  8
0
  6
CONTINUOUS
 10
368.621368
 20
411.107361
 11
372.542389
 21
411.107361
  0
LINE
  8
0
  6
CONTINUOUS
 10
301.447144
 20
561.662659
 11
297.542389
 21
557.107178
  0
ARC
  8
0
  6
CONTINUOUS
 10
306.761932
 20
557.107178
 40
7.000000
 50
90.000000
 51
139.398712
  0
LINE
  8
0
  6
CONTINUOUS
 10
397.637634
 20
561.662659
 11
401.542389
 21
557.107178
  0
ARC
  8
0
  6
CONTINUOUS
 10
392.322845
 20
557.107178
 40
7.000000
 50
40.601295
 51
90.000000
  0
LINE
  8
0
  6
CONTINUOUS
 10
397.637634
 20
420.551544
 11
401.542389
 21
425.107086
  0
ARC
  8
0
  6
CONTINUOUS
 10
392.322845
 20
425.107086
 40
7.000000
 50
-90.000000
 51
-40.601295
  0
LINE
  8
0
  6
CONTINUOUS
 10
301.447144
 20
420.551544
 11
297.542389
 21
425.107086
  0
ARC
  8
0
  6
CONTINUOUS
 10
306.761932
 20
425.107086
 40
7.000000
 50
-139.398712
 51
-90.000000
  0
LINE
  8
0
  6
CONTINUOUS
 10
368.621368
 20
411.107361
 11
368.621368
 21
351.106934
  0
LINE
  8
0
  6
CENTER
 10
462.743622
 20
491.106934
 11
-14.262500
 21
491.106934
  0
LINE
  8
0
  6
CONTINUOUS
 10
239.542892
 20
562.106934
 11
246.542892
 21
562.106934
  0
LINE
  8
0
  6
CONTINUOUS
 10
237.542892
 20
422.106934
 11
237.542892
 21
560.106934
  0
LINE
  8
0
  6
CONTINUOUS
 10
239.542892
 20
420.106934
 11
246.542496
 21
420.106934
  0
LINE
  8
0
  6
CONTINUOUS
 10
190.042892
 20
544.106934
 11
237.542892
 21
544.106934
  0
LINE
  8
0
  6
CONTINUOUS
 10
190.042892
 20
438.106934
 11
237.542892
 21
438.106934
  0
LINE
  8
0
  6
CONTINUOUS
 10
190.042892
 20
544.106934
 11
190.042892
 21
438.106934
  0
ARC
  8
0
  6
CONTINUOUS
 10
239.542892
 20
560.106934
 40
2.000000
 50
90.000000
 51
180.000000
  0
ARC
  8
0
  6
CONTINUOUS
 10
239.542892
 20
422.106934
 40
2.000000
 50
180.000000
 51
270.000000
  0
ARC
  8
0
  6
CONTINUOUS
 10
236.757965
 20
491.106934
 40
20.000000
 50
141.561295
 51
180.000000
  0
LINE
  8
0
  6
CONTINUOUS
 10
237.542892
 20
524.266907
 11
221.092499
 21
503.540466
  0
ARC
  8
0
  6
CONTINUOUS
 10
236.757965
 20
491.106934
 40
20.000000
 50
-180.000000
 51
-141.561295
  0
LINE
  8
0
  6
CONTINUOUS
 10
237.542892
 20
457.946930
 11
221.092499
 21
478.673370
  0
LINE
  8
0
  6
CONTINUOUS
 10
60.042381
 20
544.106934
 11
190.042389
 21
544.106934
  0
LINE
  8
0
  6
CONTINUOUS
 10
60.042381
 20
438.106934
 11
190.042389
 21
438.106934
  0
LINE
  8
0
  6
CONTINUOUS
 10
60.042381
 20
522.606934
 11
180.042389
 21
522.606934
  0
LINE
  8
0
  6
CONTINUOUS
 10
60.042381
 20
459.606934
 11
180.042389
 21
459.606934
  0
LINE
  8
0
  6
CONTINUOUS
 10
180.042389
 20
542.106934
 11
180.042389
 21
522.606934
  0
ARC
  8
0
  6
CONTINUOUS
 10
182.042389
 20
542.106934
 40
2.000000
 50
90.000000
 51
180.000000
  0
ARC
  8
0
  6
CONTINUOUS
 10
182.042389
 20
440.106934
 40
2.000000
 50
180.000000
 51
270.000000
  0
LINE
  8
0
  6
CONTINUOUS
 10
51.542339
 20
544.106934
 11
60.042381
 21
544.106934
  0
LINE
  8
0
  6
CONTINUOUS
 10
51.542339
 20
438.106934
 11
60.042381
 21
438.106934
  0
LINE
  8
0
  6
CONTINUOUS
 10
60.042381
 20
522.606934
 11
51.542339
 21
522.606934
  0
LINE
  8
0
  6
CONTINUOUS
 10
60.042381
 20
459.606934
 11
51.542339
 21
459.606934
  0
LINE
  8
0
  6
CONTINUOUS
 10
60.042381
 20
438.106934
 11
60.042381
 21
466.106903
  0
LINE
  8
0
  6
CONTINUOUS
 10
60.042381
 20
516.106934
 11
60.042381
 21
544.106934
  0
LINE
  8
0
  6
CONTINUOUS
 10
51.542339
 20
546.106934
 11
51.542339
 21
514.606873
  0
LINE
  8
0
  6
CONTINUOUS
 10
12.542340
 20
546.106934
 11
51.542339
 21
546.106934
  0
LINE
  8
0
  6
CONTINUOUS
 10
12.542340
 20
436.106934
 11
51.542339
 21
436.106934
  0
LINE
  8
0
  6
CONTINUOUS
 10
2.542340
 20
446.106934
 11
2.542340
 21
536.106934
  0
LINE
  8
0
  6
CONTINUOUS
 10
7.542340
 20
521.606934
 11
51.542339
 21
521.606934
  0
LINE
  8
0
  6
CONTINUOUS
 10
7.542340
 20
460.606934
 11
51.542339
 21
460.606934
  0
ARC
  8
0
  6
CONTINUOUS
 10
12.542430
 20
536.106934
 40
10.000000
 50
90.000000
 51
180.000000
  0
ARC
  8
0
  6
CONTINUOUS
 10
12.542340
 20
446.106934
 40
10.000000
 50
180.000000
 51
270.000000
  0
LINE
  8
0
  6
CONTINUOUS
 10
51.542381
 20
152.922501
 11
51.542381
 21
42.922501
  0
LINE
  8
0
  6
CONTINUOUS
 10
51.542381
 20
150.922501
 11
60.042381
 21
150.922501
  0
LINE
  8
0
  6
CONTINUOUS
 10
51.542381
 20
44.922501
 11
60.042381
 21
44.922501
  0
LINE
  8
0
  6
CONTINUOUS
 10
51.542381
 20
140.485107
 11
60.042381
 21
140.485107
  0
LINE
  8
0
  6
CONTINUOUS
 10
51.542381
 20
55.238369
 11
60.042381
 21
55.238369
  0
LINE
  8
0
  6
CONTINUOUS
 10
12.542382
 20
152.922501
 11
51.542381
 21
152.922501
  0
LINE
  8
0
  6
CONTINUOUS
 10
12.542382
 20
42.922501
 11
51.542381
 21
42.922501
  0
LINE
  8
0
  6
CONTINUOUS
 10
2.542382
 20
52.922501
 11
2.542382
 21
142.922501
  0
LINE
  8
0
  6
CONTINUOUS
 10
7.542382
 20
128.422501
 11
51.542381
 21
128.422501
  0
LINE
  8
0
  6
CONTINUOUS
 10
7.542382
 20
67.422501
 11
51.542381
 21
67.422501
  0
ARC
  8
0
  6
CONTINUOUS
 10
12.542472
 20
142.922501
 40
10.000000
 50
90.000000
 51
180.000000
  0
ARC
  8
0
  6
CONTINUOUS
 10
12.542382
 20
52.922501
 40
10.000000
 50
180.000000
 51
270.000000
  0
LINE
  8
0
  6
CONTINUOUS
 10
60.042381
 20
44.922501
 11
60.042381
 21
150.922501
  0
LINE
  8
0
  6
CONTINUOUS
 10
50.042381
 20
498.606903
 11
51.042381
 21
498.606903
  0
ARC
  8
0
  6
CONTINUOUS
 10
50.042400
 20
497.606903
 40
1.000000
 50
90.000000
 51
180.000000
  0
LINE
  8
0
  6
CONTINUOUS
 10
45.542397
 20
495.106903
 11
45.542397
 21
487.106903
  0
LINE
  8
0
  6
CONTINUOUS
 10
45.542397
 20
495.106903
 11
49.042397
 21
496.606903
  0
LINE
  8
0
  6
CONTINUOUS
 10
45.542381
 20
487.106903
 11
49.042381
 21
485.606903
  0
LINE
  8
0
  6
CONTINUOUS
 10
49.042397
 20
497.606903
 11
49.042397
 21
484.606903
  0
LINE
  8
0
  6
CONTINUOUS
 10
50.042381
 20
483.606903
 11
51.042381
 21
483.606903
  0
ARC
  8
0
  6
CONTINUOUS
 10
50.042400
 20
484.606903
 40
1.000000
 50
-180.000000
 51
-90.000000
  0
LINE
  8
0
  6
CONTINUOUS
 10
51.042381
 20
468.106903
 11
51.042381
 21
514.106934
  0
LINE
  8
0
  6
CONTINUOUS
 10
53.042381
 20
516.106934
 11
51.042381
 21
514.106934
  0
LINE
  8
0
  6
CONTINUOUS
 10
53.042381
 20
516.106934
 11
99.042374
 21
516.106934
  0
LINE
  8
0
  6
CONTINUOUS
 10
93.542381
 20
511.606903
 11
93.542381
 21
516.106934
  0
ARC
  8
0
  6
CONTINUOUS
 10
96.542381
 20
511.606903
 40
3.000000
 50
180.000000
 51
270.000000
  0
LINE
  8
0
  6
CONTINUOUS
 10
96.542381
 20
508.606903
 11
101.042374
 21
508.606903
  0
CIRCLE
  8
0
  6
CONTINUOUS
 10
97.542381
 20
512.606934
 40
2.250000
  0
LINE
  8
0
  6
CONTINUOUS
 10
101.042374
 20
468.106903
 11
101.042374
 21
514.106934
  0
LINE
  8
0
  6
CONTINUOUS
 10
99.042374
 20
516.106934
 11
101.042374
 21
514.106934
  0
LINE
  8
0
  6
CONTINUOUS
 10
99.042374
 20
466.106903
 11
101.042374
 21
468.106903
  0
LINE
  8
0
  6
CONTINUOUS
 10
99.042374
 20
466.106903
 11
53.042381
 21
466.106903
  0
LINE
  8
0
  6
CONTINUOUS
 10
51.042381
 20
468.106903
 11
53.042381
 21
466.106903
  0
LINE
  8
0
  6
CONTINUOUS
 10
55.542381
 20
473.606903
 11
51.042393
 21
473.606903
  0
CIRCLE
  8
0
  6
CONTINUOUS
 10
54.542381
 20
469.606903
 40
2.250000
  0
ARC
  8
0
  6
CONTINUOUS
 10
55.542381
 20
470.606903
 40
3.000000
 50
0.000000
 51
90.000000
  0
LINE
  8
0
  6
CONTINUOUS
 10
58.542381
 20
470.606903
 11
58.542381
 21
466.106903
  0
LINE
  8
0
  6
CENTER
 10
76.042381
 20
458.641113
 11
76.042381
 21
522.773132
  0
LINE
  8
0
  6
CONTINUOUS
 10
53.456600
 20
515.106934
 11
52.042389
 21
513.692688
  0
LINE
  8
0
  6
CONTINUOUS
 10
52.042389
 20
473.606934
 11
52.042389
 21
513.692688
  0
LINE
  8
0
  6
CONTINUOUS
 10
93.542381
 20
515.106934
 11
53.456600
 21
515.106934
  0
LINE
  8
0
  6
CONTINUOUS
 10
100.042374
 20
508.606934
 11
100.042374
 21
468.521149
  0
LINE
  8
0
  6
CONTINUOUS
 10
58.542381
 20
467.106934
 11
98.628166
 21
467.106934
  0
LINE
  8
0
  6
CONTINUOUS
 10
98.628166
 20
467.106934
 11
100.042374
 21
468.521149
  0
LINE
  8
0
  6
CONTINUOUS
 10
51.542339
 20
467.606964
 11
51.542339
 21
436.106934
  0
LINE
  8
0
  6
CONTINUOUS
 10
52.542381
 20
152.422516
 11
99.042381
 21
152.422516
  0
LINE
  8
0
  6
CONTINUOUS
 10
101.042374
 20
182.422516
 11
101.042381
 21
154.422516
  0
LINE
  8
0
  6
CONTINUOUS
 10
51.042381
 20
182.422516
 11
51.042381
 21
154.422516
  0
LINE
  8
0
  6
CONTINUOUS
 10
49.042381
 20
164.422516
 11
101.042381
 21
164.422516
  0
LINE
  8
0
  6
CONTINUOUS
 10
99.042381
 20
152.422516
 11
101.042381
 21
154.422516
  0
LINE
  8
0
  6
CONTINUOUS
 10
51.042381
 20
154.422516
 11
53.042381
 21
152.422516
  0
LINE
  8
0
  6
CONTINUOUS
 10
51.042381
 20
154.422516
 11
101.042381
 21
154.422516
  0
LINE
  8
0
  6
CONTINUOUS
 10
52.042381
 20
183.422516
 11
100.042374
 21
183.422516
  0
LINE
  8
0
  6
CONTINUOUS
 10
100.042374
 20
183.422516
 11
101.042374
 21
182.422516
  0
LINE
  8
0
  6
CONTINUOUS
 10
52.042381
 20
183.422516
 11
51.042381
 21
182.422516
  0
LINE
  8
0
  6
CONTINUOUS
 10
51.042381
 20
182.422516
 11
101.042374
 21
182.422516
  0
LINE
  8
0
  6
CENTER
 10
43.098625
 20
173.922516
 11
55.173634
 21
173.922516
  0
LINE
  8
0
  6
CONTINUOUS
 10
49.042397
 20
180.422516
 11
49.042381
 21
164.422516
  0
LINE
  8
0
  6
CONTINUOUS
 10
50.042381
 20
181.422516
 11
51.042381
 21
181.422516
  0
ARC
  8
0
  6
CONTINUOUS
 10
50.042400
 20
180.422516
 40
1.000000
 50
90.000000
 51
180.000000
  0
LINE
  8
0
  6
CONTINUOUS
 10
45.542397
 20
177.922516
 11
45.542397
 21
169.922516
  0
LINE
  8
0
  6
CONTINUOUS
 10
45.542397
 20
177.922516
 11
49.042397
 21
179.422516
  0
LINE
  8
0
  6
CONTINUOUS
 10
45.542381
 20
169.922516
 11
49.042381
 21
168.422516
  0
LINE
  8
0
  6
CENTER
 10
76.042381
 20
144.593140
 11
76.042381
 21
192.180634
  0
LINE
  8
0
  6
CONTINUOUS
 10
52.542381
 20
152.422516
 11
52.542381
 21
150.922516
  0
LINE
  8
0
  6
CONTINUOUS
 10
98.542381
 20
152.422516
 11
98.542381
 21
150.922516
  0
LINE
  8
0
  6
CONTINUOUS
 10
180.042389
 20
459.606934
 11
180.042389
 21
440.106903
  0
TEXT
  8
0
 10
-14.000000
 20
-15.000000
 40
4.000000
 41
1.000000
  1
HLM-40R-1200~1800-S90WT
 50
0.000000
  0
ENDSEC
  0
EOF
