  0
SECTION
  2
HEADER
  9
$CLAYER
  8
1
  9
$LTSCALE
 40
3.0
  0
ENDSEC
  0
SECTION
  2
TABLES
  0
TABLE
  2
LTYPE
 70
     4
  0
LTYPE
  2
CONTINUOUS
  3
solid line
 70
    64
 72
    65
 73
     0
 40
0.0
  0
LTYPE
  2
DASHED
  3
__ __ __ __ __ __ __ __ __ __ __ __ __ __ __
 70
    64
 72
    65
 73
     2
 40
0.75
 49
0.5
 49
-0.25
  0
LTYPE
  2
CENTER
  3
____ _ ____ _ ____ _ ____ _ ____ _ ____ _ ____
 70
    64
 72
    65
 73
     4
 40
2.0
 49
1.25
 49
-0.25
 49
0.25
 49
-0.25
  0
LTYPE
  2
PHANTOM
  3
_____ _ _ _____ _ _ _____ _ _ _____ _ _ ____
 70
    64
 72
    65
 73
     6
 40
2.5
 49
1.25
 49
-0.25
 49
0.25
 49
-0.25
 49
0.25
 49
-0.25
  0
ENDTAB
  0
TABLE
  2
LAYER
 70
     1
  0
LAYER
  2
0
 70
    64
 62
     7
  6
CONTINUOUS
  0
ENDTAB
  0
TABLE
  2
STYLE
 70
     1
  0
STYLE
  2
STANDARD
 70
     0
 40
0.000000
 41
1.000000
 50
0.000000
 71
     0
 42
3.000000
  3
txt
  4
BIGFONT
  0
ENDTAB
  0
ENDSEC
  0
SECTION
  2
BLOCKS
  0
ENDSEC
  0
SECTION
  2
ENTITIES
  0
LINE
  8
0
  6
CONTINUOUS
 10
200.349884
 20
41.904999
 11
200.349884
 21
183.904999
  0
LINE
  8
0
  6
CENTER
 10
150.500000
 20
112.904999
 11
246.839890
 21
112.904999
  0
LINE
  8
0
  6
CENTER
 10
303.349884
 20
256.260010
 11
303.349884
 21
-12.735000
  0
LINE
  8
0
  6
CENTER
 10
228.657501
 20
166.404999
 11
378.362488
 21
166.404999
  0
LINE
  8
0
  6
CONTINUOUS
 10
213.349884
 20
1.405000
 11
393.349884
 21
1.405000
  0
LINE
  8
0
  6
CONTINUOUS
 10
213.349884
 20
21.405001
 11
393.349884
 21
21.405001
  0
LINE
  8
0
  6
CONTINUOUS
 10
271.535492
 20
243.904999
 11
335.164276
 21
243.904999
  0
LINE
  8
0
  6
CONTINUOUS
 10
393.349884
 20
199.737000
 11
393.349884
 21
1.405000
  0
LINE
  8
0
  6
CONTINUOUS
 10
213.349884
 20
199.737000
 11
213.349884
 21
1.405000
  0
LINE
  8
0
  6
CONTINUOUS
 10
200.349884
 20
183.904999
 11
208.349884
 21
183.904999
  0
LINE
  8
0
  6
CONTINUOUS
 10
200.349884
 20
41.904999
 11
208.349884
 21
41.904999
  0
LINE
  8
0
  6
CONTINUOUS
 10
340.948486
 20
242.062347
 11
389.134277
 21
207.894318
  0
LINE
  8
0
  6
CONTINUOUS
 10
217.565689
 20
207.894318
 11
265.751282
 21
242.062347
  0
ARC
  8
0
  6
CONTINUOUS
 10
383.349884
 20
199.736954
 40
10.000000
 50
0.000000
 51
54.660099
  0
ARC
  8
0
  6
CONTINUOUS
 10
335.164276
 20
233.904999
 40
10.000000
 50
54.659950
 51
90.000000
  0
ARC
  8
0
  6
CONTINUOUS
 10
271.535492
 20
233.904999
 40
10.000000
 50
90.000000
 51
125.340302
  0
ARC
  8
0
  6
CONTINUOUS
 10
223.349884
 20
199.737045
 40
10.000000
 50
125.340500
 51
180.000000
  0
ARC
  8
0
  6
CONTINUOUS
 10
208.349884
 20
188.904999
 40
5.000000
 50
-90.000000
 51
0.000000
  0
ARC
  8
0
  6
CONTINUOUS
 10
208.349884
 20
36.904980
 40
5.000000
 50
0.000000
 51
90.000000
  0
LINE
  8
0
  6
CENTER
 10
363.349884
 20
27.160000
 11
363.349884
 21
-6.810000
  0
LINE
  8
0
  6
CENTER
 10
243.349884
 20
28.344999
 11
243.349884
 21
-6.415000
  0
LINE
  8
0
  6
DASHED
 10
355.849884
 20
21.405001
 11
355.849884
 21
1.405000
  0
LINE
  8
0
  6
DASHED
 10
370.849884
 20
21.405001
 11
370.849884
 21
1.405000
  0
LINE
  8
0
  6
DASHED
 10
250.849884
 20
21.405001
 11
250.849884
 21
1.405000
  0
LINE
  8
0
  6
DASHED
 10
235.849884
 20
21.405001
 11
235.849884
 21
1.405000
  0
LINE
  8
0
  6
CONTINUOUS
 10
379.349884
 20
18.719681
 11
379.349884
 21
1.405000
  0
LINE
  8
0
  6
CONTINUOUS
 10
227.349884
 20
18.719681
 11
227.349884
 21
1.405000
  0
LINE
  8
0
  6
CONTINUOUS
 10
337.107269
 20
26.405001
 11
269.592468
 21
26.405001
  0
LINE
  8
0
  6
CONTINUOUS
 10
268.349884
 20
25.268120
 11
268.349884
 21
22.405001
  0
LINE
  8
0
  6
CONTINUOUS
 10
338.349884
 20
25.268120
 11
338.349884
 21
22.405001
  0
LINE
  8
0
  6
CONTINUOUS
 10
339.228485
 20
25.526320
 11
341.885468
 21
22.869440
  0
LINE
  8
0
  6
CONTINUOUS
 10
267.471283
 20
25.526320
 11
264.814270
 21
22.869499
  0
ARC
  8
0
  6
CONTINUOUS
 10
261.278870
 20
26.405001
 40
5.000000
 50
270.000000
 51
315.000092
  0
ARC
  8
0
  6
CONTINUOUS
 10
345.420868
 20
26.405001
 40
5.000000
 50
225.000107
 51
270.000000
  0
ARC
  8
0
  6
CONTINUOUS
 10
269.592468
 20
23.405001
 40
3.000000
 50
90.000000
 51
135.000397
  0
ARC
  8
0
  6
CONTINUOUS
 10
337.107269
 20
23.405001
 40
3.000000
 50
45.000259
 51
90.000000
  0
ARC
  8
0
  6
CONTINUOUS
 10
267.349884
 20
22.405001
 40
1.000000
 50
-90.000000
 51
0.000000
  0
ARC
  8
0
  6
CONTINUOUS
 10
339.349884
 20
22.405001
 40
1.000000
 50
180.000000
 51
270.000000
  0
CIRCLE
  8
0
  6
CONTINUOUS
 10
303.349884
 20
166.404999
 40
46.000000
  0
ARC
  8
0
  6
CONTINUOUS
 10
303.349884
 20
166.404999
 40
52.000000
 50
12.522720
 51
167.477402
  0
ARC
  8
0
  6
CONTINUOUS
 10
303.349884
 20
166.404999
 40
48.000000
 50
-192.522598
 51
12.522720
  0
ARC
  8
0
  6
CONTINUOUS
 10
273.349884
 20
95.904999
 40
34.000000
 50
167.477402
 51
270.000000
  0
ARC
  8
0
  6
CONTINUOUS
 10
273.349884
 20
95.904999
 40
38.000000
 50
167.477402
 51
270.000000
  0
ARC
  8
0
  6
CONTINUOUS
 10
333.349884
 20
95.904999
 40
34.000000
 50
-90.000000
 51
12.522730
  0
ARC
  8
0
  6
CONTINUOUS
 10
333.349884
 20
95.904999
 40
38.000000
 50
-90.000000
 51
12.522720
  0
LINE
  8
0
  6
CONTINUOUS
 10
236.253876
 20
104.144363
 11
252.586884
 21
177.679901
  0
LINE
  8
0
  6
CONTINUOUS
 10
354.112885
 20
177.679993
 11
370.445892
 21
104.144424
  0
LINE
  8
0
  6
CONTINUOUS
 10
350.207886
 20
176.812683
 11
366.541077
 21
103.277115
  0
LINE
  8
0
  6
CONTINUOUS
 10
240.158676
 20
103.277061
 11
256.491882
 21
176.812622
  0
LINE
  8
0
  6
CONTINUOUS
 10
273.349884
 20
61.904999
 11
333.349884
 21
61.904999
  0
LINE
  8
0
  6
CONTINUOUS
 10
273.349884
 20
57.904999
 11
333.349884
 21
57.904999
  0
LINE
  8
0
  6
CONTINUOUS
 10
291.122894
 20
79.904999
 11
286.182495
 21
79.904999
  0
LINE
  8
0
  6
CONTINUOUS
 10
293.849884
 20
88.180397
 11
293.849884
 21
79.904999
  0
LINE
  8
0
  6
CONTINUOUS
 10
298.599884
 20
91.186241
 11
298.599884
 21
94.154999
  0
LINE
  8
0
  6
CONTINUOUS
 10
308.099884
 20
91.186241
 11
308.099884
 21
94.154999
  0
LINE
  8
0
  6
CONTINUOUS
 10
302.422089
 20
92.410858
 11
302.422089
 21
81.463600
  0
LINE
  8
0
  6
CONTINUOUS
 10
304.203491
 20
92.410858
 11
304.203491
 21
81.463600
  0
LINE
  8
0
  6
CONTINUOUS
 10
313.555084
 20
92.410858
 11
313.555084
 21
81.389381
  0
LINE
  8
0
  6
CONTINUOUS
 10
315.187897
 20
86.566139
 11
315.187897
 21
81.389381
  0
LINE
  8
0
  6
CONTINUOUS
 10
291.595886
 20
92.262421
 11
287.018280
 21
92.262421
  0
LINE
  8
0
  6
CONTINUOUS
 10
287.018280
 20
92.262421
 11
285.945679
 21
90.932419
  0
LINE
  8
0
  6
CONTINUOUS
 10
286.074677
 20
94.154999
 11
284.349884
 21
91.946541
  0
LINE
  8
0
  6
CONTINUOUS
 10
285.945679
 20
82.722839
 11
287.035492
 21
81.574921
  0
LINE
  8
0
  6
CONTINUOUS
 10
284.349884
 20
81.754120
 11
286.182495
 21
79.904999
  0
LINE
  8
0
  6
CONTINUOUS
 10
284.349884
 20
91.946541
 11
284.349884
 21
81.754120
  0
LINE
  8
0
  6
CONTINUOUS
 10
285.945679
 20
90.932419
 11
285.945679
 21
82.722839
  0
LINE
  8
0
  6
CONTINUOUS
 10
292.476868
 20
91.410858
 11
291.577881
 21
92.262421
  0
LINE
  8
0
  6
CONTINUOUS
 10
292.462494
 20
94.154999
 11
293.849884
 21
92.615417
  0
LINE
  8
0
  6
CONTINUOUS
 10
292.476868
 20
91.186241
 11
293.849884
 21
91.186241
  0
LINE
  8
0
  6
CONTINUOUS
 10
286.074677
 20
94.154999
 11
292.462494
 21
94.154999
  0
LINE
  8
0
  6
CONTINUOUS
 10
289.990479
 20
88.180397
 11
293.849884
 21
88.180397
  0
LINE
  8
0
  6
CONTINUOUS
 10
292.476868
 20
86.621803
 11
289.990479
 21
86.621803
  0
LINE
  8
0
  6
CONTINUOUS
 10
289.508087
 20
81.574921
 11
287.035492
 21
81.574921
  0
LINE
  8
0
  6
CONTINUOUS
 10
292.476868
 20
85.137421
 11
292.476868
 21
86.324921
  0
ARC
  8
0
  6
CONTINUOUS
 10
289.508087
 20
84.543663
 40
2.968750
 50
-89.999786
 51
0.000109
  0
LINE
  8
0
  6
CONTINUOUS
 10
292.476868
 20
81.040916
 11
292.476868
 21
79.904999
  0
LINE
  8
0
  6
CONTINUOUS
 10
293.849884
 20
92.615417
 11
293.849884
 21
91.186241
  0
LINE
  8
0
  6
CONTINUOUS
 10
292.476868
 20
86.621803
 11
292.476868
 21
84.543663
  0
LINE
  8
0
  6
CONTINUOUS
 10
289.990479
 20
88.180397
 11
289.990479
 21
86.621803
  0
LINE
  8
0
  6
CONTINUOUS
 10
292.476868
 20
79.904999
 11
293.849884
 21
79.904999
  0
LINE
  8
0
  6
CONTINUOUS
 10
292.476868
 20
81.040916
 11
291.122894
 21
79.904999
  0
LINE
  8
0
  6
CONTINUOUS
 10
304.203491
 20
81.463600
 11
304.797089
 21
81.463600
  0
LINE
  8
0
  6
CONTINUOUS
 10
301.717072
 20
81.463600
 11
301.717072
 21
79.904999
  0
LINE
  8
0
  6
CONTINUOUS
 10
304.797089
 20
81.463600
 11
304.797089
 21
79.904999
  0
LINE
  8
0
  6
CONTINUOUS
 10
307.108887
 20
91.186241
 11
308.099884
 21
91.186241
  0
LINE
  8
0
  6
CONTINUOUS
 10
298.599884
 20
91.186241
 11
299.654480
 21
91.186241
  0
LINE
  8
0
  6
CONTINUOUS
 10
298.599884
 20
94.154999
 11
308.099884
 21
94.154999
  0
LINE
  8
0
  6
CONTINUOUS
 10
301.717072
 20
79.904999
 11
304.797089
 21
79.904999
  0
LINE
  8
0
  6
CONTINUOUS
 10
301.717072
 20
81.463600
 11
302.422089
 21
81.463600
  0
ARC
  8
0
  6
CONTINUOUS
 10
318.546082
 20
90.351280
 40
3.803712
 50
-73.981873
 51
90.003510
  0
ARC
  8
0
  6
CONTINUOUS
 10
318.546082
 20
90.351280
 40
2.320524
 50
-82.585274
 51
62.411850
  0
LINE
  8
0
  6
CONTINUOUS
 10
312.849884
 20
94.154999
 11
318.546082
 21
94.154999
  0
LINE
  8
0
  6
CONTINUOUS
 10
318.845673
 20
88.050163
 11
315.187897
 21
88.050163
  0
LINE
  8
0
  6
CONTINUOUS
 10
312.849884
 20
94.154999
 11
312.849884
 21
92.410858
  0
LINE
  8
0
  6
CONTINUOUS
 10
315.187897
 20
92.410858
 11
315.187897
 21
88.050163
  0
LINE
  8
0
  6
CONTINUOUS
 10
319.595673
 20
86.695259
 11
321.950073
 21
81.389381
  0
LINE
  8
0
  6
CONTINUOUS
 10
318.228485
 20
86.566139
 11
320.456268
 21
81.389381
  0
LINE
  8
0
  6
CONTINUOUS
 10
312.849884
 20
81.389381
 11
313.555084
 21
81.389381
  0
LINE
  8
0
  6
CONTINUOUS
 10
315.187897
 20
81.389381
 11
315.837280
 21
81.389381
  0
LINE
  8
0
  6
CONTINUOUS
 10
315.837280
 20
79.904999
 11
312.849884
 21
79.904999
  0
LINE
  8
0
  6
CONTINUOUS
 10
320.160492
 20
81.389381
 11
320.456268
 21
81.389381
  0
LINE
  8
0
  6
CONTINUOUS
 10
321.950073
 20
81.389381
 11
322.349884
 21
81.389381
  0
LINE
  8
0
  6
CONTINUOUS
 10
320.160492
 20
79.904999
 11
322.349884
 21
79.904999
  0
LINE
  8
0
  6
CONTINUOUS
 10
322.349884
 20
81.389381
 11
322.349884
 21
79.904999
  0
LINE
  8
0
  6
CONTINUOUS
 10
320.160492
 20
81.389381
 11
320.160492
 21
79.904999
  0
LINE
  8
0
  6
CONTINUOUS
 10
315.837280
 20
81.389381
 11
315.837280
 21
79.904999
  0
LINE
  8
0
  6
CONTINUOUS
 10
312.849884
 20
81.389381
 11
312.849884
 21
79.904999
  0
LINE
  8
0
  6
CONTINUOUS
 10
300.164673
 20
92.410858
 11
299.654480
 21
91.186241
  0
LINE
  8
0
  6
CONTINUOUS
 10
306.678680
 20
92.410858
 11
307.108887
 21
91.186241
  0
LINE
  8
0
  6
CONTINUOUS
 10
304.203491
 20
92.410858
 11
306.678680
 21
92.410858
  0
LINE
  8
0
  6
CONTINUOUS
 10
302.422089
 20
92.410858
 11
300.164673
 21
92.410858
  0
LINE
  8
0
  6
CONTINUOUS
 10
315.187897
 20
86.566139
 11
318.228485
 21
86.566139
  0
LINE
  8
0
  6
CONTINUOUS
 10
312.849884
 20
92.410858
 11
313.555084
 21
92.410858
  0
LINE
  8
0
  6
CONTINUOUS
 10
315.187897
 20
92.410858
 11
319.620880
 21
92.407982
  0
LINE
  8
0
  6
CONTINUOUS
 10
292.476868
 20
91.410858
 11
292.476868
 21
91.186241
  0
ARC
  8
0
  6
CONTINUOUS
 10
423.031494
 20
112.904999
 40
215.181595
 50
167.017899
 51
192.982101
  0
LINE
  8
0
  6
CONTINUOUS
 10
13.849882
 20
44.904999
 11
13.849882
 21
150.904999
  0
LINE
  8
0
  6
CONTINUOUS
 10
13.849882
 20
150.904999
 11
143.849884
 21
150.904999
  0
LINE
  8
0
  6
CONTINUOUS
 10
13.849882
 20
44.904999
 11
143.849884
 21
44.904999
  0
LINE
  8
0
  6
CONTINUOUS
 10
13.849882
 20
140.528336
 11
132.511642
 21
140.528336
  0
LINE
  8
0
  6
CONTINUOUS
 10
13.849882
 20
55.281639
 11
132.511642
 21
55.281639
  0
LINE
  8
0
  6
CONTINUOUS
 10
133.849884
 20
148.904999
 11
133.849884
 21
46.904980
  0
ARC
  8
0
  6
CONTINUOUS
 10
135.849884
 20
148.905014
 40
2.000000
 50
90.000000
 51
180.000000
  0
ARC
  8
0
  6
CONTINUOUS
 10
135.849884
 20
46.904999
 40
2.000000
 50
180.000000
 51
270.000000
  0
LINE
  8
0
  6
CONTINUOUS
 10
-6.650118
 20
97.904999
 11
-6.650118
 21
142.904999
  0
LINE
  8
0
  6
CONTINUOUS
 10
-6.650118
 20
97.904999
 11
-6.650118
 21
52.904999
  0
LINE
  8
0
  6
CONTINUOUS
 10
-6.150118
 20
146.904999
 11
-6.150118
 21
52.904999
  0
LINE
  8
0
  6
CONTINUOUS
 10
-1.059939
 20
150.904999
 11
13.849882
 21
150.904999
  0
LINE
  8
0
  6
CONTINUOUS
 10
-1.059939
 20
44.904999
 11
13.849882
 21
44.904999
  0
LINE
  8
0
  6
CONTINUOUS
 10
-6.150118
 20
52.904999
 11
-6.150118
 21
48.904999
  0
LINE
  8
0
  6
CONTINUOUS
 10
-5.532076
 20
148.141068
 11
-6.150118
 21
146.904999
  0
ARC
  8
0
  6
CONTINUOUS
 10
-1.059939
 20
145.905014
 40
5.000000
 50
90.000000
 51
153.435196
  0
LINE
  8
0
  6
CONTINUOUS
 10
-5.532076
 20
47.668941
 11
-6.150118
 21
48.904999
  0
ARC
  8
0
  6
CONTINUOUS
 10
-1.059939
 20
49.904999
 40
5.000000
 50
206.565002
 51
270.000000
  0
LINE
  8
0
  6
CONTINUOUS
 10
-6.650118
 20
52.904999
 11
-6.150118
 21
52.404999
  0
LINE
  8
0
  6
CONTINUOUS
 10
-6.650118
 20
142.904999
 11
-6.150118
 21
143.404999
  0
LINE
  8
0
  6
CONTINUOUS
 10
13.849882
 20
140.528366
 11
-4.275118
 21
140.528366
  0
LINE
  8
0
  6
CONTINUOUS
 10
13.849882
 20
55.281639
 11
-4.275118
 21
55.281639
  0
LINE
  8
0
  6
CONTINUOUS
 10
14.349882
 20
152.404999
 11
14.349882
 21
150.904999
  0
LINE
  8
0
  6
CONTINUOUS
 10
7.349882
 20
152.404999
 11
7.349882
 21
150.904999
  0
LINE
  8
0
  6
CONTINUOUS
 10
7.349882
 20
152.404999
 11
14.349882
 21
152.404999
  0
LINE
  8
0
  6
CONTINUOUS
 10
11.749876
 20
165.404999
 11
11.749876
 21
152.404999
  0
LINE
  8
0
  6
CONTINUOUS
 10
9.949888
 20
166.029999
 11
9.949888
 21
152.404999
  0
LINE
  8
0
  6
CONTINUOUS
 10
8.149886
 20
163.967499
 11
8.149886
 21
152.404999
  0
LINE
  8
0
  6
CONTINUOUS
 10
13.549882
 20
164.779999
 11
13.549882
 21
152.404999
  0
LINE
  8
0
  6
CONTINUOUS
 10
9.949888
 20
166.029999
 11
11.749876
 21
165.404999
  0
LINE
  8
0
  6
CONTINUOUS
 10
8.149886
 20
163.967499
 11
9.949888
 21
164.592499
  0
LINE
  8
0
  6
CONTINUOUS
 10
13.549882
 20
164.779999
 11
11.750898
 21
164.332306
  0
LINE
  8
0
  6
CENTER
 10
655.617859
 20
-15.105000
 11
655.617859
 21
257.049988
  0
LINE
  8
0
  6
CENTER
 10
554.815491
 20
112.904999
 11
751.525452
 21
112.904999
  0
LINE
  8
0
  6
CENTER
 10
499.806244
 20
166.404999
 11
746.785461
 21
166.404999
  0
LINE
  8
0
  6
CENTER
 10
585.617859
 20
33.084999
 11
585.617859
 21
-5.625000
  0
LINE
  8
0
  6
CENTER
 10
725.617859
 20
30.320000
 11
725.617859
 21
-6.415000
  0
LINE
  8
0
  6
DASHED
 10
718.117859
 20
21.405001
 11
718.117859
 21
1.405000
  0
LINE
  8
0
  6
DASHED
 10
733.117859
 20
21.405001
 11
733.117859
 21
1.405000
  0
LINE
  8
0
  6
DASHED
 10
593.117859
 20
21.405001
 11
593.117859
 21
1.405000
  0
LINE
  8
0
  6
DASHED
 10
578.117859
 20
21.405001
 11
578.117859
 21
1.405000
  0
LINE
  8
0
  6
CONTINUOUS
 10
565.617859
 20
1.405000
 11
620.617859
 21
1.405000
  0
LINE
  8
0
  6
CONTINUOUS
 10
690.617859
 20
1.405000
 11
745.617859
 21
1.405000
  0
LINE
  8
0
  6
CONTINUOUS
 10
712.617859
 20
21.405001
 11
742.617859
 21
21.405001
  0
LINE
  8
0
  6
CONTINUOUS
 10
568.617859
 20
21.405001
 11
598.617859
 21
21.405001
  0
LINE
  8
0
  6
CONTINUOUS
 10
565.617859
 20
18.773880
 11
565.617859
 21
1.405020
  0
LINE
  8
0
  6
CONTINUOUS
 10
745.617859
 20
18.773880
 11
745.617859
 21
1.405000
  0
LINE
  8
0
  6
CONTINUOUS
 10
707.617859
 20
223.685104
 11
707.617859
 21
239.066757
  0
LINE
  8
0
  6
CONTINUOUS
 10
603.617859
 20
239.066376
 11
603.617859
 21
1.405000
  0
LINE
  8
0
  6
CONTINUOUS
 10
622.117859
 20
2.905000
 11
689.117859
 21
2.905000
  0
LINE
  8
0
  6
CONTINUOUS
 10
608.062439
 20
204.904999
 11
703.849670
 21
204.904999
  0
LINE
  8
0
  6
CONTINUOUS
 10
703.687622
 20
243.066147
 11
655.617859
 21
243.905014
  0
LINE
  8
0
  6
CONTINUOUS
 10
607.548035
 20
243.065781
 11
655.617859
 21
243.905014
  0
LINE
  8
0
  6
CONTINUOUS
 10
582.617859
 20
125.685112
 11
582.617859
 21
207.124878
  0
LINE
  8
0
  6
CONTINUOUS
 10
728.617859
 20
125.685104
 11
728.617859
 21
207.124878
  0
LINE
  8
0
  6
CONTINUOUS
 10
589.617859
 20
67.185097
 11
589.617859
 21
170.545273
  0
LINE
  8
0
  6
CONTINUOUS
 10
721.617859
 20
67.185120
 11
721.617859
 21
170.545273
  0
ARC
  8
0
  6
CONTINUOUS
 10
607.617859
 20
239.066406
 40
4.000000
 50
91.000580
 51
180.000000
  0
ARC
  8
0
  6
CONTINUOUS
 10
703.617859
 20
239.066742
 40
4.000000
 50
0.000000
 51
89.000359
  0
LINE
  8
0
  6
CONTINUOUS
 10
587.694824
 20
213.855560
 11
598.540833
 21
216.954437
  0
LINE
  8
0
  6
CONTINUOUS
 10
712.694824
 20
216.954437
 11
723.540833
 21
213.855560
  0
LINE
  8
0
  6
CONTINUOUS
 10
594.694824
 20
60.454441
 11
598.540833
 21
59.355560
  0
LINE
  8
0
  6
CONTINUOUS
 10
716.540833
 20
60.454441
 11
712.694824
 21
59.355560
  0
LINE
  8
0
  6
CONTINUOUS
 10
743.009277
 20
21.748240
 11
710.226440
 21
26.061760
  0
LINE
  8
0
  6
CONTINUOUS
 10
568.226440
 20
21.748240
 11
601.009277
 21
26.061781
  0
ARC
  8
0
  6
CONTINUOUS
 10
589.617859
 20
207.124924
 40
7.000000
 50
105.945801
 51
180.000000
  0
ARC
  8
0
  6
CONTINUOUS
 10
589.617859
 20
125.685158
 40
7.000000
 50
180.000000
 51
240.000198
  0
ARC
  8
0
  6
CONTINUOUS
 10
721.617859
 20
207.124863
 40
7.000000
 50
0.000000
 51
74.054764
  0
ARC
  8
0
  6
CONTINUOUS
 10
721.617859
 20
125.685097
 40
7.000000
 50
-59.999882
 51
0.000000
  0
ARC
  8
0
  6
CONTINUOUS
 10
596.617859
 20
67.185158
 40
7.000000
 50
180.000000
 51
254.054901
  0
ARC
  8
0
  6
CONTINUOUS
 10
714.617859
 20
67.185097
 40
7.000000
 50
-74.054497
 51
0.000000
  0
LINE
  8
0
  6
CONTINUOUS
 10
707.617859
 20
26.405001
 11
707.617859
 21
223.685104
  0
ARC
  8
0
  6
CONTINUOUS
 10
714.617859
 20
223.685165
 40
7.000000
 50
180.000000
 51
254.054901
  0
ARC
  8
0
  6
CONTINUOUS
 10
714.617859
 20
52.624939
 40
7.000000
 50
105.945801
 51
180.000000
  0
ARC
  8
0
  6
CONTINUOUS
 10
728.617859
 20
113.560745
 40
7.000000
 50
120.000099
 51
180.000000
  0
ARC
  8
0
  6
CONTINUOUS
 10
710.617859
 20
29.036140
 40
3.000000
 50
180.000000
 51
262.504395
  0
ARC
  8
0
  6
CONTINUOUS
 10
742.617859
 20
18.405001
 40
3.000000
 50
0.000000
 51
90.000000
  0
ARC
  8
0
  6
CONTINUOUS
 10
742.617859
 20
18.773861
 40
3.000000
 50
0.000000
 51
82.504204
  0
LINE
  8
0
  6
CONTINUOUS
 10
707.617859
 20
26.405001
 11
707.617859
 21
1.405000
  0
ARC
  8
0
  6
CONTINUOUS
 10
712.617859
 20
26.405020
 40
5.000000
 50
180.000000
 51
270.000000
  0
ARC
  8
0
  6
CONTINUOUS
 10
600.617859
 20
29.036140
 40
3.000000
 50
-82.503883
 51
0.000000
  0
ARC
  8
0
  6
CONTINUOUS
 10
598.617859
 20
26.405001
 40
5.000000
 50
-90.000000
 51
0.000000
  0
ARC
  8
0
  6
CONTINUOUS
 10
568.617859
 20
18.405020
 40
3.000000
 50
90.000000
 51
180.000000
  0
ARC
  8
0
  6
CONTINUOUS
 10
568.617859
 20
18.773899
 40
3.000000
 50
97.496292
 51
180.000000
  0
LINE
  8
0
  6
CONTINUOUS
 10
620.617859
 20
1.405000
 11
622.117859
 21
2.905000
  0
LINE
  8
0
  6
CONTINUOUS
 10
690.617859
 20
1.405000
 11
689.117859
 21
2.905000
  0
ARC
  8
0
  6
CONTINUOUS
 10
596.617859
 20
52.624859
 40
7.000000
 50
0.000000
 51
74.054688
  0
ARC
  8
0
  6
CONTINUOUS
 10
582.617859
 20
113.560783
 40
7.000000
 50
0.000000
 51
60.000092
  0
ARC
  8
0
  6
CONTINUOUS
 10
596.617859
 20
223.685104
 40
7.000000
 50
-74.054443
 51
0.000000
  0
ARC
  8
0
  6
CONTINUOUS
 10
655.617859
 20
112.904999
 40
71.000000
 50
-21.630920
 51
6.068256
  0
ARC
  8
0
  6
CONTINUOUS
 10
655.617859
 20
112.904999
 40
71.000000
 50
173.931793
 51
201.630905
  0
LINE
  8
0
  6
CONTINUOUS
 10
708.617859
 20
56.230480
 11
708.617859
 21
49.904999
  0
LINE
  8
0
  6
CONTINUOUS
 10
602.617859
 20
49.904999
 11
602.617859
 21
56.094002
  0
ARC
  8
0
  6
CONTINUOUS
 10
703.617859
 20
49.904999
 40
5.000000
 50
-36.869869
 51
0.000000
  0
ARC
  8
0
  6
CONTINUOUS
 10
607.617859
 20
49.904999
 40
5.000000
 50
180.000000
 51
216.865204
  0
LINE
  8
0
  6
CONTINUOUS
 10
318.349884
 20
160.405060
 11
318.349884
 21
172.405060
  0
LINE
  8
0
  6
CONTINUOUS
 10
326.349884
 20
160.405075
 11
326.349884
 21
172.405075
  0
LINE
  8
0
  6
CONTINUOUS
 10
326.349884
 20
160.405075
 11
318.349884
 21
160.405060
  0
LINE
  8
0
  6
CONTINUOUS
 10
326.349884
 20
172.405075
 11
318.349884
 21
172.405060
  0
ARC
  8
0
  6
CONTINUOUS
 10
303.349884
 20
166.404999
 40
20.000000
 50
17.457600
 51
342.542389
  0
LINE
  8
0
  6
CONTINUOUS
 10
515.617859
 20
146.404999
 11
515.617859
 21
186.404999
  0
LINE
  8
0
  6
CONTINUOUS
 10
580.617859
 20
186.404999
 11
515.617859
 21
186.404999
  0
LINE
  8
0
  6
CONTINUOUS
 10
580.617859
 20
146.404999
 11
515.617859
 21
146.404999
  0
LINE
  8
0
  6
CONTINUOUS
 10
580.617859
 20
188.904999
 11
580.617859
 21
143.904999
  0
LINE
  8
0
  6
CONTINUOUS
 10
582.617859
 20
188.904999
 11
580.617859
 21
188.904999
  0
LINE
  8
0
  6
CONTINUOUS
 10
582.617859
 20
143.904999
 11
580.617859
 21
143.904999
  0
ARC
  8
0
  6
CONTINUOUS
 10
569.617859
 20
166.404999
 40
6.000000
 50
-90.000000
 51
90.000000
  0
LINE
  8
0
  6
CONTINUOUS
 10
569.617859
 20
172.404999
 11
515.617859
 21
172.404999
  0
LINE
  8
0
  6
CONTINUOUS
 10
569.617859
 20
160.404999
 11
515.617859
 21
160.404999
  0
LINE
  8
0
  6
CONTINUOUS
 10
191.349884
 20
67.661003
 11
191.349884
 21
181.904999
  0
LINE
  8
0
  6
CENTER
 10
-25.079649
 20
97.904999
 11
246.839890
 21
97.904999
  0
LINE
  8
0
  6
CONTINUOUS
 10
193.349884
 20
183.904999
 11
200.349884
 21
183.904999
  0
LINE
  8
0
  6
CONTINUOUS
 10
193.349884
 20
41.905022
 11
200.349884
 21
41.905022
  0
LINE
  8
0
  6
CONTINUOUS
 10
172.349884
 20
44.904999
 11
143.849884
 21
44.904999
  0
LINE
  8
0
  6
CONTINUOUS
 10
143.849884
 20
150.904999
 11
188.349869
 21
150.904999
  0
LINE
  8
0
  6
CONTINUOUS
 10
189.849884
 20
162.038986
 11
171.261612
 21
151.306931
  0
ARC
  8
0
  6
CONTINUOUS
 10
193.349899
 20
181.904999
 40
2.000000
 50
90.000000
 51
180.000000
  0
ARC
  8
0
  6
CONTINUOUS
 10
193.349884
 20
43.904999
 40
2.000000
 50
194.477707
 51
270.000000
  0
LINE
  8
0
  6
CONTINUOUS
 10
172.349884
 20
46.904999
 11
172.349884
 21
63.660999
  0
LINE
  8
0
  6
CONTINUOUS
 10
189.349884
 20
65.661003
 11
174.349884
 21
65.661003
  0
ARC
  8
0
  6
CONTINUOUS
 10
174.349884
 20
63.661018
 40
2.000000
 50
90.000000
 51
180.000000
  0
ARC
  8
0
  6
CONTINUOUS
 10
189.476898
 20
42.904999
 40
2.000000
 50
14.477280
 51
90.000000
  0
ARC
  8
0
  6
CONTINUOUS
 10
189.349884
 20
67.661003
 40
2.000000
 50
-90.000000
 51
0.000000
  0
LINE
  8
0
  6
CONTINUOUS
 10
172.349884
 20
44.904999
 11
189.476898
 21
44.904999
  0
ARC
  8
0
  6
CONTINUOUS
 10
170.349884
 20
46.904999
 40
2.000000
 50
-90.000000
 51
0.000000
  0
ARC
  8
0
  6
CONTINUOUS
 10
188.349884
 20
153.904999
 40
3.000000
 50
-90.000000
 51
0.000000
  0
ARC
  8
0
  6
CONTINUOUS
 10
188.349884
 20
164.637039
 40
3.000000
 50
-59.999660
 51
0.000000
  0
ARC
  8
0
  6
CONTINUOUS
 10
169.761597
 20
153.904999
 40
3.000000
 50
270.000000
 51
300.000305
  0
LINE
  8
0
  6
CONTINUOUS
 10
143.849884
 20
150.904999
 11
143.849884
 21
44.904999
  0
LINE
  8
0
  6
CONTINUOUS
 10
372.218994
 20
581.089172
 11
303.350525
 21
581.089172
  0
LINE
  8
0
  6
CONTINUOUS
 10
372.218384
 20
401.089172
 11
326.349884
 21
401.089264
  0
LINE
  8
0
  6
CENTER
 10
303.349884
 20
336.700348
 11
303.350433
 21
606.934998
  0
LINE
  8
0
  6
CENTER
 10
378.203705
 20
561.090027
 11
349.835632
 21
561.090027
  0
LINE
  8
0
  6
CONTINUOUS
 10
393.350189
 20
491.089233
 11
392.442200
 21
439.089203
  0
LINE
  8
0
  6
CONTINUOUS
 10
381.673004
 20
407.831757
 11
392.442200
 21
439.089203
  0
ARC
  8
0
  6
CONTINUOUS
 10
372.218597
 20
411.089233
 40
10.000000
 50
-90.000000
 51
-19.010900
  0
ARC
  8
0
  6
CONTINUOUS
 10
363.350189
 20
561.090027
 40
7.500000
 50
-46.074883
 51
212.226791
  0
LINE
  8
0
  6
CONTINUOUS
 10
393.350189
 20
491.089233
 11
392.442383
 21
543.089172
  0
LINE
  8
0
  6
CONTINUOUS
 10
381.673401
 20
574.346558
 11
392.442383
 21
543.089172
  0
ARC
  8
0
  6
CONTINUOUS
 10
372.218994
 20
571.089172
 40
10.000000
 50
19.010900
 51
90.000000
  0
LINE
  8
0
  6
CONTINUOUS
 10
213.350189
 20
491.089417
 11
214.257996
 21
439.089478
  0
LINE
  8
0
  6
CONTINUOUS
 10
225.026993
 20
407.832031
 11
214.257996
 21
439.089478
  0
ARC
  8
0
  6
CONTINUOUS
 10
234.481598
 20
411.089478
 40
10.000000
 50
199.010895
 51
270.000000
  0
LINE
  8
0
  6
CONTINUOUS
 10
213.350189
 20
491.089417
 11
214.206726
 21
540.142029
  0
LINE
  8
0
  6
CONTINUOUS
 10
225.027390
 20
574.346802
 11
214.605011
 21
544.096008
  0
LINE
  8
0
  6
CONTINUOUS
 10
202.388000
 20
562.089417
 11
200.350403
 21
562.089417
  0
LINE
  8
0
  6
CONTINUOUS
 10
200.350403
 20
562.089417
 11
200.349991
 21
420.089478
  0
LINE
  8
0
  6
CONTINUOUS
 10
211.459991
 20
548.277588
 11
209.149399
 21
556.901184
  0
ARC
  8
0
  6
CONTINUOUS
 10
202.388000
 20
555.089417
 40
7.000000
 50
14.999900
 51
90.000000
  0
ARC
  8
0
  6
CONTINUOUS
 10
218.221603
 20
550.089417
 40
7.000000
 50
-165.000305
 51
-90.000000
  0
LINE
  8
0
  6
CONTINUOUS
 10
202.387589
 20
420.089478
 11
200.349991
 21
420.089478
  0
LINE
  8
0
  6
CONTINUOUS
 10
211.459793
 20
433.901306
 11
209.149200
 21
425.277740
  0
ARC
  8
0
  6
CONTINUOUS
 10
202.387589
 20
427.089539
 40
7.000000
 50
-90.000000
 51
-14.999900
  0
ARC
  8
0
  6
CONTINUOUS
 10
218.221390
 20
432.089478
 40
7.000000
 50
121.109207
 51
165.000336
  0
ARC
  8
0
  6
CONTINUOUS
 10
234.481598
 20
571.089844
 40
10.000000
 50
90.000000
 51
160.989105
  0
ARC
  8
0
  6
CONTINUOUS
 10
243.349991
 20
561.090698
 40
7.500000
 50
-32.232941
 51
238.076355
  0
LINE
  8
0
  6
CENTER
 10
363.349915
 20
549.288391
 11
363.350403
 21
573.164795
  0
LINE
  8
0
  6
CENTER
 10
256.360596
 20
561.090149
 11
230.782852
 21
561.090149
  0
LINE
  8
0
  6
CENTER
 10
243.350204
 20
549.288391
 11
243.350403
 21
573.165039
  0
LINE
  8
0
  6
CONTINUOUS
 10
389.494293
 20
543.089661
 11
217.206268
 21
543.089661
  0
LINE
  8
0
  6
CONTINUOUS
 10
260.569427
 20
564.089661
 11
346.130341
 21
564.089661
  0
ARC
  8
0
  6
CONTINUOUS
 10
389.494293
 20
540.089661
 40
3.000000
 50
1.000152
 51
90.000000
  0
ARC
  8
0
  6
CONTINUOUS
 10
217.206268
 20
540.089661
 40
3.000000
 50
90.000000
 51
178.999634
  0
LINE
  8
0
  6
CONTINUOUS
 10
389.494293
 20
439.089661
 11
217.206268
 21
439.089661
  0
ARC
  8
0
  6
CONTINUOUS
 10
389.494293
 20
442.089661
 40
3.000000
 50
270.000000
 51
358.999847
  0
ARC
  8
0
  6
CONTINUOUS
 10
217.206268
 20
442.089661
 40
3.000000
 50
181.000366
 51
270.000000
  0
LINE
  8
0
  6
CONTINUOUS
 10
338.350098
 20
444.089661
 11
338.350098
 21
538.089661
  0
LINE
  8
0
  6
CONTINUOUS
 10
268.350098
 20
444.089661
 11
268.350098
 21
538.089661
  0
LINE
  8
0
  6
CONTINUOUS
 10
244.630112
 20
557.089661
 11
251.349884
 21
557.089661
  0
LINE
  8
0
  6
CONTINUOUS
 10
364.350006
 20
557.089661
 11
355.349884
 21
557.089661
  0
ARC
  8
0
  6
CONTINUOUS
 10
364.350006
 20
550.089661
 40
7.000000
 50
0.000000
 51
90.000000
  0
ARC
  8
0
  6
CONTINUOUS
 10
378.350006
 20
550.089661
 40
7.000000
 50
180.000000
 51
270.000000
  0
LINE
  8
0
  6
CENTER
 10
378.203705
 20
421.090118
 11
349.835632
 21
421.090118
  0
ARC
  8
0
  6
CONTINUOUS
 10
363.350189
 20
421.090118
 40
7.500000
 50
-212.226791
 51
46.074883
  0
ARC
  8
0
  6
CONTINUOUS
 10
243.349991
 20
421.089417
 40
7.500000
 50
-226.078156
 51
32.232941
  0
LINE
  8
0
  6
CENTER
 10
363.349915
 20
432.891724
 11
363.350403
 21
409.015320
  0
LINE
  8
0
  6
CENTER
 10
256.360596
 20
421.089996
 11
230.782852
 21
421.089996
  0
LINE
  8
0
  6
CENTER
 10
243.350204
 20
432.891724
 11
243.350403
 21
409.015106
  0
LINE
  8
0
  6
CONTINUOUS
 10
260.569427
 20
418.089661
 11
346.130341
 21
418.089661
  0
LINE
  8
0
  6
CONTINUOUS
 10
242.349991
 20
425.089661
 11
251.349884
 21
425.089569
  0
ARC
  8
0
  6
CONTINUOUS
 10
242.349991
 20
432.089661
 40
7.000000
 50
180.000000
 51
270.000000
  0
ARC
  8
0
  6
CONTINUOUS
 10
228.349991
 20
432.089661
 40
7.000000
 50
0.000000
 51
90.000000
  0
LINE
  8
0
  6
CONTINUOUS
 10
364.350006
 20
425.089661
 11
355.349884
 21
425.089569
  0
ARC
  8
0
  6
CONTINUOUS
 10
364.350006
 20
432.089661
 40
7.000000
 50
-90.000000
 51
0.000000
  0
ARC
  8
0
  6
CONTINUOUS
 10
378.350006
 20
432.089661
 40
7.000000
 50
90.000000
 51
180.000000
  0
LINE
  8
0
  6
CONTINUOUS
 10
237.899445
 20
552.012695
 11
236.800552
 21
548.166626
  0
ARC
  8
0
  6
CONTINUOUS
 10
244.630112
 20
550.089661
 40
7.000000
 50
90.000000
 51
164.054611
  0
ARC
  8
0
  6
CONTINUOUS
 10
230.069885
 20
550.089661
 40
7.000000
 50
-90.000000
 51
-15.945396
  0
LINE
  8
0
  6
CONTINUOUS
 10
283.350189
 20
351.089417
 11
326.349884
 21
351.089417
  0
LINE
  8
0
  6
CONTINUOUS
 10
323.350189
 20
416.089417
 11
323.350189
 21
411.089874
  0
LINE
  8
0
  6
CONTINUOUS
 10
283.350189
 20
416.089417
 11
283.350189
 21
351.089417
  0
LINE
  8
0
  6
CONTINUOUS
 10
325.850189
 20
416.089417
 11
280.850189
 21
416.089417
  0
LINE
  8
0
  6
CONTINUOUS
 10
325.850189
 20
418.089417
 11
325.850189
 21
416.089417
  0
LINE
  8
0
  6
CONTINUOUS
 10
280.850189
 20
418.089417
 11
280.850189
 21
416.089417
  0
LINE
  8
0
  6
CONTINUOUS
 10
303.350525
 20
581.089294
 11
234.481995
 21
581.089417
  0
LINE
  8
0
  6
CONTINUOUS
 10
283.350189
 20
401.089325
 11
234.481598
 21
401.089417
  0
LINE
  8
0
  6
CONTINUOUS
 10
326.349884
 20
351.089874
 11
326.349884
 21
411.089874
  0
LINE
  8
0
  6
CONTINUOUS
 10
322.428894
 20
411.089874
 11
326.349884
 21
411.089874
  0
LINE
  8
0
  6
CONTINUOUS
 10
255.254623
 20
561.645203
 11
251.349884
 21
557.089661
  0
ARC
  8
0
  6
CONTINUOUS
 10
260.569427
 20
557.089661
 40
7.000000
 50
90.000000
 51
139.398712
  0
LINE
  8
0
  6
CONTINUOUS
 10
351.445129
 20
561.645203
 11
355.349884
 21
557.089661
  0
ARC
  8
0
  6
CONTINUOUS
 10
346.130341
 20
557.089661
 40
7.000000
 50
40.601295
 51
90.000000
  0
LINE
  8
0
  6
CONTINUOUS
 10
351.445129
 20
420.534027
 11
355.349884
 21
425.089569
  0
ARC
  8
0
  6
CONTINUOUS
 10
346.130341
 20
425.089569
 40
7.000000
 50
-90.000000
 51
-40.601295
  0
LINE
  8
0
  6
CONTINUOUS
 10
255.254623
 20
420.534027
 11
251.349884
 21
425.089569
  0
ARC
  8
0
  6
CONTINUOUS
 10
260.569427
 20
425.089569
 40
7.000000
 50
-139.398712
 51
-90.000000
  0
LINE
  8
0
  6
CONTINUOUS
 10
322.428894
 20
411.089874
 11
322.428894
 21
351.089417
  0
LINE
  8
0
  6
CENTER
 10
416.551117
 20
491.089417
 11
-27.895273
 21
491.089417
  0
LINE
  8
0
  6
CONTINUOUS
 10
193.350403
 20
562.089417
 11
200.350403
 21
562.089417
  0
LINE
  8
0
  6
CONTINUOUS
 10
191.350403
 20
422.089417
 11
191.350403
 21
560.089417
  0
LINE
  8
0
  6
CONTINUOUS
 10
193.350403
 20
420.089417
 11
200.349991
 21
420.089417
  0
LINE
  8
0
  6
CONTINUOUS
 10
143.850403
 20
544.089417
 11
191.350403
 21
544.089417
  0
LINE
  8
0
  6
CONTINUOUS
 10
143.850403
 20
438.089417
 11
191.350403
 21
438.089417
  0
LINE
  8
0
  6
CONTINUOUS
 10
143.850403
 20
544.089417
 11
143.850403
 21
438.089417
  0
ARC
  8
0
  6
CONTINUOUS
 10
193.350403
 20
560.089417
 40
2.000000
 50
90.000000
 51
180.000000
  0
ARC
  8
0
  6
CONTINUOUS
 10
193.350403
 20
422.089417
 40
2.000000
 50
180.000000
 51
270.000000
  0
ARC
  8
0
  6
CONTINUOUS
 10
190.565475
 20
491.089417
 40
20.000000
 50
141.561295
 51
180.000000
  0
LINE
  8
0
  6
CONTINUOUS
 10
191.350403
 20
524.249451
 11
174.899994
 21
503.522980
  0
ARC
  8
0
  6
CONTINUOUS
 10
190.565475
 20
491.089417
 40
20.000000
 50
-180.000000
 51
-141.561295
  0
LINE
  8
0
  6
CONTINUOUS
 10
191.350403
 20
457.929413
 11
174.899994
 21
478.655884
  0
LINE
  8
0
  6
CONTINUOUS
 10
13.849882
 20
438.089417
 11
13.849882
 21
484.223389
  0
LINE
  8
0
  6
CONTINUOUS
 10
13.849882
 20
544.089417
 11
143.849884
 21
544.089417
  0
LINE
  8
0
  6
CONTINUOUS
 10
13.849882
 20
438.089417
 11
143.849884
 21
438.089417
  0
LINE
  8
0
  6
CONTINUOUS
 10
13.849882
 20
522.589417
 11
133.849884
 21
522.589417
  0
LINE
  8
0
  6
CONTINUOUS
 10
13.849882
 20
459.589417
 11
133.849884
 21
459.589417
  0
LINE
  8
0
  6
CONTINUOUS
 10
133.849884
 20
542.089417
 11
133.849884
 21
522.589417
  0
ARC
  8
0
  6
CONTINUOUS
 10
135.849884
 20
542.089417
 40
2.000000
 50
90.000000
 51
180.000000
  0
ARC
  8
0
  6
CONTINUOUS
 10
135.849884
 20
440.089417
 40
2.000000
 50
180.000000
 51
270.000000
  0
LINE
  8
0
  6
CONTINUOUS
 10
-6.650118
 20
491.089417
 11
-6.650118
 21
536.089417
  0
LINE
  8
0
  6
CONTINUOUS
 10
-6.650118
 20
491.089417
 11
-6.650118
 21
446.089417
  0
LINE
  8
0
  6
CONTINUOUS
 10
-6.150118
 20
540.089417
 11
-6.150118
 21
446.089417
  0
LINE
  8
0
  6
CONTINUOUS
 10
-1.059939
 20
544.089417
 11
13.849882
 21
544.089417
  0
LINE
  8
0
  6
CONTINUOUS
 10
-1.059939
 20
438.089417
 11
13.849882
 21
438.089417
  0
LINE
  8
0
  6
CONTINUOUS
 10
-6.150118
 20
446.089417
 11
-6.150118
 21
442.089417
  0
LINE
  8
0
  6
CONTINUOUS
 10
-5.532076
 20
541.325500
 11
-6.150118
 21
540.089417
  0
ARC
  8
0
  6
CONTINUOUS
 10
-1.059939
 20
539.089417
 40
5.000000
 50
90.000000
 51
153.435196
  0
LINE
  8
0
  6
CONTINUOUS
 10
-5.532076
 20
440.853363
 11
-6.150118
 21
442.089417
  0
ARC
  8
0
  6
CONTINUOUS
 10
-1.059939
 20
443.089417
 40
5.000000
 50
206.565002
 51
270.000000
  0
LINE
  8
0
  6
CONTINUOUS
 10
-6.650118
 20
446.089417
 11
-6.150118
 21
445.589417
  0
LINE
  8
0
  6
CONTINUOUS
 10
-6.650118
 20
536.089417
 11
-6.150118
 21
536.589417
  0
LINE
  8
0
  6
CONTINUOUS
 10
13.849882
 20
522.589417
 11
-4.275118
 21
522.589417
  0
LINE
  8
0
  6
CONTINUOUS
 10
13.849882
 20
459.589417
 11
-4.275118
 21
459.589417
  0
LINE
  8
0
  6
CONTINUOUS
 10
7.349882
 20
485.089417
 11
7.349882
 21
497.089417
  0
LINE
  8
0
  6
CONTINUOUS
 10
14.349882
 20
485.089417
 11
14.349882
 21
497.089417
  0
LINE
  8
0
  6
CONTINUOUS
 10
8.349882
 20
498.089417
 11
13.349882
 21
498.089417
  0
LINE
  8
0
  6
CONTINUOUS
 10
13.349882
 20
484.089417
 11
8.349882
 21
484.089417
  0
ARC
  8
0
  6
CONTINUOUS
 10
13.349882
 20
497.089417
 40
1.000000
 50
0.000000
 51
90.000000
  0
ARC
  8
0
  6
CONTINUOUS
 10
8.349882
 20
497.089417
 40
1.000000
 50
90.000000
 51
180.000000
  0
ARC
  8
0
  6
CONTINUOUS
 10
8.349882
 20
485.089417
 40
1.000000
 50
180.000000
 51
270.000000
  0
ARC
  8
0
  6
CONTINUOUS
 10
13.349882
 20
485.089417
 40
1.000000
 50
-90.000000
 51
0.000000
  0
LINE
  8
0
  6
CONTINUOUS
 10
11.849882
 20
487.589417
 11
11.849882
 21
494.589417
  0
LINE
  8
0
  6
CONTINUOUS
 10
9.849882
 20
487.589417
 11
9.849882
 21
494.589417
  0
ARC
  8
0
  6
CONTINUOUS
 10
10.849882
 20
494.589417
 40
1.000000
 50
90.000000
 51
180.000000
  0
ARC
  8
0
  6
CONTINUOUS
 10
10.849882
 20
494.589417
 40
1.000000
 50
0.000000
 51
90.000000
  0
ARC
  8
0
  6
CONTINUOUS
 10
10.849882
 20
487.589417
 40
1.000000
 50
180.000000
 51
270.000000
  0
ARC
  8
0
  6
CONTINUOUS
 10
10.849882
 20
487.589417
 40
1.000000
 50
-90.000000
 51
0.000000
  0
LINE
  8
0
  6
CONTINUOUS
 10
13.849882
 20
497.955444
 11
13.849882
 21
544.089417
  0
LINE
  8
0
  6
CONTINUOUS
 10
133.849884
 20
459.589417
 11
133.849884
 21
440.089417
  0
TEXT
  8
0
 10
-27.000000
 20
-15.000000
 40
4.000000
 41
1.000000
  1
HLM-40R-1200~1800-T90W
 50
0.000000
  0
ENDSEC
  0
EOF
