  0
SECTION
  2
HEADER
  9
$CLAYER
  8
1
  9
$LTSCALE
 40
3.0
  0
ENDSEC
  0
SECTION
  2
TABLES
  0
TABLE
  2
LTYPE
 70
     4
  0
LTYPE
  2
CONTINUOUS
  3
solid line
 70
    64
 72
    65
 73
     0
 40
0.0
  0
LTYPE
  2
DASHED
  3
__ __ __ __ __ __ __ __ __ __ __ __ __ __ __
 70
    64
 72
    65
 73
     2
 40
0.75
 49
0.5
 49
-0.25
  0
LTYPE
  2
CENTER
  3
____ _ ____ _ ____ _ ____ _ ____ _ ____ _ ____
 70
    64
 72
    65
 73
     4
 40
2.0
 49
1.25
 49
-0.25
 49
0.25
 49
-0.25
  0
LTYPE
  2
PHANTOM
  3
_____ _ _ _____ _ _ _____ _ _ _____ _ _ ____
 70
    64
 72
    65
 73
     6
 40
2.5
 49
1.25
 49
-0.25
 49
0.25
 49
-0.25
 49
0.25
 49
-0.25
  0
ENDTAB
  0
TABLE
  2
LAYER
 70
     1
  0
LAYER
  2
0
 70
    64
 62
     7
  6
CONTINUOUS
  0
ENDTAB
  0
TABLE
  2
STYLE
 70
     1
  0
STYLE
  2
STANDARD
 70
     0
 40
0.000000
 41
1.000000
 50
0.000000
 71
     0
 42
3.000000
  3
txt
  4
BIGFONT
  0
ENDTAB
  0
ENDSEC
  0
SECTION
  2
BLOCKS
  0
ENDSEC
  0
SECTION
  2
ENTITIES
  0
LINE
  8
0
  6
CONTINUOUS
 10
203.827377
 20
45.185001
 11
203.827377
 21
187.184998
  0
LINE
  8
0
  6
CENTER
 10
106.437500
 20
116.184998
 11
250.317383
 21
116.184998
  0
LINE
  8
0
  6
CENTER
 10
306.827393
 20
259.540009
 11
306.827393
 21
-9.455000
  0
LINE
  8
0
  6
CENTER
 10
232.134995
 20
169.684998
 11
381.839996
 21
169.684998
  0
LINE
  8
0
  6
CONTINUOUS
 10
216.827377
 20
4.685000
 11
396.827393
 21
4.685000
  0
LINE
  8
0
  6
CONTINUOUS
 10
216.827377
 20
24.684999
 11
396.827393
 21
24.684999
  0
LINE
  8
0
  6
CONTINUOUS
 10
275.012970
 20
247.184998
 11
338.641785
 21
247.184998
  0
LINE
  8
0
  6
CONTINUOUS
 10
396.827393
 20
203.016998
 11
396.827393
 21
4.685000
  0
LINE
  8
0
  6
CONTINUOUS
 10
216.827377
 20
203.016998
 11
216.827377
 21
4.685000
  0
LINE
  8
0
  6
CONTINUOUS
 10
203.827377
 20
187.184998
 11
211.827377
 21
187.184998
  0
LINE
  8
0
  6
CONTINUOUS
 10
203.827377
 20
45.185001
 11
211.827377
 21
45.185001
  0
LINE
  8
0
  6
CONTINUOUS
 10
344.425995
 20
245.342346
 11
392.611786
 21
211.174316
  0
LINE
  8
0
  6
CONTINUOUS
 10
221.043182
 20
211.174316
 11
269.228790
 21
245.342346
  0
ARC
  8
0
  6
CONTINUOUS
 10
386.827393
 20
203.016953
 40
10.000000
 50
0.000000
 51
54.660099
  0
ARC
  8
0
  6
CONTINUOUS
 10
338.641785
 20
237.184998
 40
10.000000
 50
54.659950
 51
90.000000
  0
ARC
  8
0
  6
CONTINUOUS
 10
275.012970
 20
237.184998
 40
10.000000
 50
90.000000
 51
125.340302
  0
ARC
  8
0
  6
CONTINUOUS
 10
226.827377
 20
203.017044
 40
10.000000
 50
125.340500
 51
180.000000
  0
ARC
  8
0
  6
CONTINUOUS
 10
211.827377
 20
192.184998
 40
5.000000
 50
-90.000000
 51
0.000000
  0
ARC
  8
0
  6
CONTINUOUS
 10
211.827377
 20
40.184978
 40
5.000000
 50
0.000000
 51
90.000000
  0
LINE
  8
0
  6
CENTER
 10
366.827393
 20
30.440001
 11
366.827393
 21
-3.530000
  0
LINE
  8
0
  6
CENTER
 10
246.827377
 20
31.625000
 11
246.827377
 21
-3.135000
  0
LINE
  8
0
  6
DASHED
 10
359.327393
 20
24.684999
 11
359.327393
 21
4.685000
  0
LINE
  8
0
  6
DASHED
 10
374.327393
 20
24.684999
 11
374.327393
 21
4.685000
  0
LINE
  8
0
  6
DASHED
 10
254.327377
 20
24.684999
 11
254.327377
 21
4.685000
  0
LINE
  8
0
  6
DASHED
 10
239.327377
 20
24.684999
 11
239.327377
 21
4.685000
  0
LINE
  8
0
  6
CONTINUOUS
 10
382.827393
 20
21.999680
 11
382.827393
 21
4.685000
  0
LINE
  8
0
  6
CONTINUOUS
 10
230.827377
 20
21.999680
 11
230.827377
 21
4.685000
  0
LINE
  8
0
  6
CONTINUOUS
 10
340.584778
 20
29.684999
 11
273.069977
 21
29.684999
  0
LINE
  8
0
  6
CONTINUOUS
 10
271.827393
 20
28.548120
 11
271.827393
 21
25.684999
  0
LINE
  8
0
  6
CONTINUOUS
 10
341.827393
 20
28.548120
 11
341.827393
 21
25.684999
  0
LINE
  8
0
  6
CONTINUOUS
 10
342.705994
 20
28.806320
 11
345.362976
 21
26.149441
  0
LINE
  8
0
  6
CONTINUOUS
 10
270.948792
 20
28.806320
 11
268.291779
 21
26.149500
  0
ARC
  8
0
  6
CONTINUOUS
 10
264.756378
 20
29.684999
 40
5.000000
 50
270.000000
 51
315.000092
  0
ARC
  8
0
  6
CONTINUOUS
 10
348.898376
 20
29.684999
 40
5.000000
 50
225.000107
 51
270.000000
  0
ARC
  8
0
  6
CONTINUOUS
 10
273.069977
 20
26.684999
 40
3.000000
 50
90.000000
 51
135.000397
  0
ARC
  8
0
  6
CONTINUOUS
 10
340.584778
 20
26.684999
 40
3.000000
 50
45.000259
 51
90.000000
  0
ARC
  8
0
  6
CONTINUOUS
 10
270.827393
 20
25.684999
 40
1.000000
 50
-90.000000
 51
0.000000
  0
ARC
  8
0
  6
CONTINUOUS
 10
342.827393
 20
25.684999
 40
1.000000
 50
180.000000
 51
270.000000
  0
CIRCLE
  8
0
  6
CONTINUOUS
 10
306.827393
 20
169.684998
 40
46.000000
  0
ARC
  8
0
  6
CONTINUOUS
 10
306.827393
 20
169.684998
 40
52.000000
 50
12.522720
 51
167.477402
  0
ARC
  8
0
  6
CONTINUOUS
 10
306.827393
 20
169.684998
 40
48.000000
 50
-192.522598
 51
12.522720
  0
ARC
  8
0
  6
CONTINUOUS
 10
276.827393
 20
99.184998
 40
34.000000
 50
167.477402
 51
270.000000
  0
ARC
  8
0
  6
CONTINUOUS
 10
276.827393
 20
99.184998
 40
38.000000
 50
167.477402
 51
270.000000
  0
ARC
  8
0
  6
CONTINUOUS
 10
336.827393
 20
99.184998
 40
34.000000
 50
-90.000000
 51
12.522730
  0
ARC
  8
0
  6
CONTINUOUS
 10
336.827393
 20
99.184998
 40
38.000000
 50
-90.000000
 51
12.522720
  0
LINE
  8
0
  6
CONTINUOUS
 10
239.731384
 20
107.424362
 11
256.064392
 21
180.959900
  0
LINE
  8
0
  6
CONTINUOUS
 10
357.590393
 20
180.960007
 11
373.923370
 21
107.424423
  0
LINE
  8
0
  6
CONTINUOUS
 10
353.685394
 20
180.092682
 11
370.018585
 21
106.557121
  0
LINE
  8
0
  6
CONTINUOUS
 10
243.636185
 20
106.557060
 11
259.969391
 21
180.092621
  0
LINE
  8
0
  6
CONTINUOUS
 10
276.827393
 20
65.184998
 11
336.827393
 21
65.184998
  0
LINE
  8
0
  6
CONTINUOUS
 10
276.827393
 20
61.185001
 11
336.827393
 21
61.185001
  0
LINE
  8
0
  6
CONTINUOUS
 10
294.600372
 20
83.184998
 11
289.659973
 21
83.184998
  0
LINE
  8
0
  6
CONTINUOUS
 10
297.327393
 20
91.460403
 11
297.327393
 21
83.184998
  0
LINE
  8
0
  6
CONTINUOUS
 10
302.077393
 20
94.466240
 11
302.077393
 21
97.434998
  0
LINE
  8
0
  6
CONTINUOUS
 10
311.577393
 20
94.466240
 11
311.577393
 21
97.434998
  0
LINE
  8
0
  6
CONTINUOUS
 10
305.899597
 20
95.690857
 11
305.899597
 21
84.743599
  0
LINE
  8
0
  6
CONTINUOUS
 10
307.680969
 20
95.690857
 11
307.680969
 21
84.743599
  0
LINE
  8
0
  6
CONTINUOUS
 10
317.032593
 20
95.690857
 11
317.032593
 21
84.669380
  0
LINE
  8
0
  6
CONTINUOUS
 10
318.665375
 20
89.846138
 11
318.665375
 21
84.669380
  0
LINE
  8
0
  6
CONTINUOUS
 10
295.073395
 20
95.542419
 11
290.495789
 21
95.542419
  0
LINE
  8
0
  6
CONTINUOUS
 10
290.495789
 20
95.542419
 11
289.423187
 21
94.212418
  0
LINE
  8
0
  6
CONTINUOUS
 10
289.552185
 20
97.434998
 11
287.827393
 21
95.226540
  0
LINE
  8
0
  6
CONTINUOUS
 10
289.423187
 20
86.002838
 11
290.512970
 21
84.854919
  0
LINE
  8
0
  6
CONTINUOUS
 10
287.827393
 20
85.034119
 11
289.659973
 21
83.184998
  0
LINE
  8
0
  6
CONTINUOUS
 10
287.827393
 20
95.226540
 11
287.827393
 21
85.034119
  0
LINE
  8
0
  6
CONTINUOUS
 10
289.423187
 20
94.212418
 11
289.423187
 21
86.002838
  0
LINE
  8
0
  6
CONTINUOUS
 10
295.954376
 20
94.690857
 11
295.055389
 21
95.542419
  0
LINE
  8
0
  6
CONTINUOUS
 10
295.939972
 20
97.434998
 11
297.327393
 21
95.895416
  0
LINE
  8
0
  6
CONTINUOUS
 10
295.954376
 20
94.466240
 11
297.327393
 21
94.466240
  0
LINE
  8
0
  6
CONTINUOUS
 10
289.552185
 20
97.434998
 11
295.939972
 21
97.434998
  0
LINE
  8
0
  6
CONTINUOUS
 10
293.467987
 20
91.460403
 11
297.327393
 21
91.460403
  0
LINE
  8
0
  6
CONTINUOUS
 10
295.954376
 20
89.901802
 11
293.467987
 21
89.901802
  0
LINE
  8
0
  6
CONTINUOUS
 10
292.985596
 20
84.854919
 11
290.512970
 21
84.854919
  0
LINE
  8
0
  6
CONTINUOUS
 10
295.954376
 20
88.417419
 11
295.954376
 21
89.604919
  0
ARC
  8
0
  6
CONTINUOUS
 10
292.985596
 20
87.823662
 40
2.968750
 50
-89.999786
 51
0.000109
  0
LINE
  8
0
  6
CONTINUOUS
 10
295.954376
 20
84.320923
 11
295.954376
 21
83.184998
  0
LINE
  8
0
  6
CONTINUOUS
 10
297.327393
 20
95.895416
 11
297.327393
 21
94.466240
  0
LINE
  8
0
  6
CONTINUOUS
 10
295.954376
 20
89.901802
 11
295.954376
 21
87.823662
  0
LINE
  8
0
  6
CONTINUOUS
 10
293.467987
 20
91.460403
 11
293.467987
 21
89.901802
  0
LINE
  8
0
  6
CONTINUOUS
 10
295.954376
 20
83.184998
 11
297.327393
 21
83.184998
  0
LINE
  8
0
  6
CONTINUOUS
 10
295.954376
 20
84.320923
 11
294.600372
 21
83.184998
  0
LINE
  8
0
  6
CONTINUOUS
 10
307.680969
 20
84.743599
 11
308.274597
 21
84.743599
  0
LINE
  8
0
  6
CONTINUOUS
 10
305.194580
 20
84.743599
 11
305.194580
 21
83.184998
  0
LINE
  8
0
  6
CONTINUOUS
 10
308.274597
 20
84.743599
 11
308.274597
 21
83.184998
  0
LINE
  8
0
  6
CONTINUOUS
 10
310.586395
 20
94.466240
 11
311.577393
 21
94.466240
  0
LINE
  8
0
  6
CONTINUOUS
 10
302.077393
 20
94.466240
 11
303.131989
 21
94.466240
  0
LINE
  8
0
  6
CONTINUOUS
 10
302.077393
 20
97.434998
 11
311.577393
 21
97.434998
  0
LINE
  8
0
  6
CONTINUOUS
 10
305.194580
 20
83.184998
 11
308.274597
 21
83.184998
  0
LINE
  8
0
  6
CONTINUOUS
 10
305.194580
 20
84.743599
 11
305.899597
 21
84.743599
  0
ARC
  8
0
  6
CONTINUOUS
 10
322.023590
 20
93.631279
 40
3.803712
 50
-73.981873
 51
90.003510
  0
ARC
  8
0
  6
CONTINUOUS
 10
322.023590
 20
93.631279
 40
2.320524
 50
-82.585274
 51
62.411850
  0
LINE
  8
0
  6
CONTINUOUS
 10
316.327393
 20
97.434998
 11
322.023590
 21
97.434998
  0
LINE
  8
0
  6
CONTINUOUS
 10
322.323181
 20
91.330162
 11
318.665375
 21
91.330162
  0
LINE
  8
0
  6
CONTINUOUS
 10
316.327393
 20
97.434998
 11
316.327393
 21
95.690857
  0
LINE
  8
0
  6
CONTINUOUS
 10
318.665375
 20
95.690857
 11
318.665375
 21
91.330162
  0
LINE
  8
0
  6
CONTINUOUS
 10
323.073181
 20
89.975258
 11
325.427582
 21
84.669380
  0
LINE
  8
0
  6
CONTINUOUS
 10
321.705994
 20
89.846138
 11
323.933777
 21
84.669380
  0
LINE
  8
0
  6
CONTINUOUS
 10
316.327393
 20
84.669380
 11
317.032593
 21
84.669380
  0
LINE
  8
0
  6
CONTINUOUS
 10
318.665375
 20
84.669380
 11
319.314789
 21
84.669380
  0
LINE
  8
0
  6
CONTINUOUS
 10
319.314789
 20
83.184998
 11
316.327393
 21
83.184998
  0
LINE
  8
0
  6
CONTINUOUS
 10
323.637970
 20
84.669380
 11
323.933777
 21
84.669380
  0
LINE
  8
0
  6
CONTINUOUS
 10
325.427582
 20
84.669380
 11
325.827393
 21
84.669380
  0
LINE
  8
0
  6
CONTINUOUS
 10
323.637970
 20
83.184998
 11
325.827393
 21
83.184998
  0
LINE
  8
0
  6
CONTINUOUS
 10
325.827393
 20
84.669380
 11
325.827393
 21
83.184998
  0
LINE
  8
0
  6
CONTINUOUS
 10
323.637970
 20
84.669380
 11
323.637970
 21
83.184998
  0
LINE
  8
0
  6
CONTINUOUS
 10
319.314789
 20
84.669380
 11
319.314789
 21
83.184998
  0
LINE
  8
0
  6
CONTINUOUS
 10
316.327393
 20
84.669380
 11
316.327393
 21
83.184998
  0
LINE
  8
0
  6
CONTINUOUS
 10
303.642181
 20
95.690857
 11
303.131989
 21
94.466240
  0
LINE
  8
0
  6
CONTINUOUS
 10
310.156189
 20
95.690857
 11
310.586395
 21
94.466240
  0
LINE
  8
0
  6
CONTINUOUS
 10
307.680969
 20
95.690857
 11
310.156189
 21
95.690857
  0
LINE
  8
0
  6
CONTINUOUS
 10
305.899597
 20
95.690857
 11
303.642181
 21
95.690857
  0
LINE
  8
0
  6
CONTINUOUS
 10
318.665375
 20
89.846138
 11
321.705994
 21
89.846138
  0
LINE
  8
0
  6
CONTINUOUS
 10
316.327393
 20
95.690857
 11
317.032593
 21
95.690857
  0
LINE
  8
0
  6
CONTINUOUS
 10
318.665375
 20
95.690857
 11
323.098389
 21
95.687981
  0
LINE
  8
0
  6
CONTINUOUS
 10
295.954376
 20
94.690857
 11
295.954376
 21
94.466240
  0
ARC
  8
0
  6
CONTINUOUS
 10
426.508972
 20
116.184998
 40
215.181595
 50
167.017899
 51
192.982101
  0
LINE
  8
0
  6
CONTINUOUS
 10
17.327381
 20
48.185001
 11
17.327381
 21
154.184998
  0
LINE
  8
0
  6
CONTINUOUS
 10
17.327381
 20
154.184998
 11
147.327377
 21
154.184998
  0
LINE
  8
0
  6
CONTINUOUS
 10
17.327381
 20
48.185001
 11
147.327377
 21
48.185001
  0
LINE
  8
0
  6
CONTINUOUS
 10
17.327381
 20
143.808334
 11
135.989136
 21
143.808334
  0
LINE
  8
0
  6
CONTINUOUS
 10
17.327381
 20
58.561642
 11
135.989136
 21
58.561642
  0
LINE
  8
0
  6
CONTINUOUS
 10
137.327377
 20
152.184998
 11
137.327377
 21
50.184978
  0
ARC
  8
0
  6
CONTINUOUS
 10
139.327377
 20
152.185013
 40
2.000000
 50
90.000000
 51
180.000000
  0
ARC
  8
0
  6
CONTINUOUS
 10
139.327377
 20
50.185001
 40
2.000000
 50
180.000000
 51
270.000000
  0
LINE
  8
0
  6
CONTINUOUS
 10
-3.172618
 20
101.184998
 11
-3.172618
 21
146.184998
  0
LINE
  8
0
  6
CONTINUOUS
 10
-3.172618
 20
101.184998
 11
-3.172618
 21
56.185001
  0
LINE
  8
0
  6
CONTINUOUS
 10
-2.672618
 20
150.184998
 11
-2.672618
 21
56.185001
  0
LINE
  8
0
  6
CONTINUOUS
 10
2.417561
 20
154.184998
 11
17.327381
 21
154.184998
  0
LINE
  8
0
  6
CONTINUOUS
 10
2.417561
 20
48.185001
 11
17.327381
 21
48.185001
  0
LINE
  8
0
  6
CONTINUOUS
 10
-2.672618
 20
56.185001
 11
-2.672618
 21
52.185001
  0
LINE
  8
0
  6
CONTINUOUS
 10
-2.054576
 20
151.421066
 11
-2.672618
 21
150.184998
  0
ARC
  8
0
  6
CONTINUOUS
 10
2.417561
 20
149.185013
 40
5.000000
 50
90.000000
 51
153.435196
  0
LINE
  8
0
  6
CONTINUOUS
 10
-2.054576
 20
50.948940
 11
-2.672618
 21
52.185001
  0
ARC
  8
0
  6
CONTINUOUS
 10
2.417561
 20
53.185001
 40
5.000000
 50
206.565002
 51
270.000000
  0
LINE
  8
0
  6
CONTINUOUS
 10
-3.172618
 20
56.185001
 11
-2.672618
 21
55.685001
  0
LINE
  8
0
  6
CONTINUOUS
 10
-3.172618
 20
146.184998
 11
-2.672618
 21
146.684998
  0
LINE
  8
0
  6
CONTINUOUS
 10
17.327381
 20
143.808365
 11
-0.797618
 21
143.808365
  0
LINE
  8
0
  6
CONTINUOUS
 10
17.327381
 20
58.561642
 11
-0.797618
 21
58.561642
  0
LINE
  8
0
  6
CENTER
 10
681.327393
 20
-11.825000
 11
681.327393
 21
260.329987
  0
LINE
  8
0
  6
CENTER
 10
580.525024
 20
116.184998
 11
777.234985
 21
116.184998
  0
LINE
  8
0
  6
CENTER
 10
525.515808
 20
169.684998
 11
772.494995
 21
169.684998
  0
LINE
  8
0
  6
CENTER
 10
611.327393
 20
36.365002
 11
611.327393
 21
-2.345000
  0
LINE
  8
0
  6
CENTER
 10
751.327393
 20
33.599998
 11
751.327393
 21
-3.135000
  0
LINE
  8
0
  6
DASHED
 10
743.827393
 20
24.684999
 11
743.827393
 21
4.685000
  0
LINE
  8
0
  6
DASHED
 10
758.827393
 20
24.684999
 11
758.827393
 21
4.685000
  0
LINE
  8
0
  6
DASHED
 10
618.827393
 20
24.684999
 11
618.827393
 21
4.685000
  0
LINE
  8
0
  6
DASHED
 10
603.827393
 20
24.684999
 11
603.827393
 21
4.685000
  0
LINE
  8
0
  6
CONTINUOUS
 10
591.327393
 20
4.685000
 11
646.327393
 21
4.685000
  0
LINE
  8
0
  6
CONTINUOUS
 10
716.327393
 20
4.685000
 11
771.327393
 21
4.685000
  0
LINE
  8
0
  6
CONTINUOUS
 10
738.327393
 20
24.684999
 11
768.327393
 21
24.684999
  0
LINE
  8
0
  6
CONTINUOUS
 10
594.327393
 20
24.684999
 11
624.327393
 21
24.684999
  0
LINE
  8
0
  6
CONTINUOUS
 10
591.327393
 20
22.053881
 11
591.327393
 21
4.685020
  0
LINE
  8
0
  6
CONTINUOUS
 10
771.327393
 20
22.053881
 11
771.327393
 21
4.685000
  0
LINE
  8
0
  6
CONTINUOUS
 10
733.327393
 20
226.965103
 11
733.327393
 21
242.346756
  0
LINE
  8
0
  6
CONTINUOUS
 10
629.327393
 20
242.346375
 11
629.327393
 21
4.685000
  0
LINE
  8
0
  6
CONTINUOUS
 10
647.827393
 20
6.185000
 11
714.827393
 21
6.185000
  0
LINE
  8
0
  6
CONTINUOUS
 10
633.771973
 20
208.184998
 11
729.559204
 21
208.184998
  0
LINE
  8
0
  6
CONTINUOUS
 10
729.397156
 20
246.346146
 11
681.327393
 21
247.185013
  0
LINE
  8
0
  6
CONTINUOUS
 10
633.257568
 20
246.345779
 11
681.327393
 21
247.185013
  0
LINE
  8
0
  6
CONTINUOUS
 10
608.327393
 20
128.965103
 11
608.327393
 21
210.404877
  0
LINE
  8
0
  6
CONTINUOUS
 10
754.327393
 20
128.965103
 11
754.327393
 21
210.404877
  0
LINE
  8
0
  6
CONTINUOUS
 10
615.327393
 20
70.465103
 11
615.327393
 21
173.825287
  0
LINE
  8
0
  6
CONTINUOUS
 10
747.327393
 20
70.465118
 11
747.327393
 21
173.825287
  0
ARC
  8
0
  6
CONTINUOUS
 10
633.327393
 20
242.346405
 40
4.000000
 50
91.000580
 51
180.000000
  0
ARC
  8
0
  6
CONTINUOUS
 10
729.327393
 20
242.346741
 40
4.000000
 50
0.000000
 51
89.000359
  0
LINE
  8
0
  6
CONTINUOUS
 10
613.404358
 20
217.135559
 11
624.250366
 21
220.234436
  0
LINE
  8
0
  6
CONTINUOUS
 10
738.404358
 20
220.234436
 11
749.250366
 21
217.135559
  0
LINE
  8
0
  6
CONTINUOUS
 10
620.404358
 20
63.734440
 11
624.250366
 21
62.635559
  0
LINE
  8
0
  6
CONTINUOUS
 10
742.250366
 20
63.734440
 11
738.404358
 21
62.635559
  0
LINE
  8
0
  6
CONTINUOUS
 10
768.718811
 20
25.028240
 11
735.935974
 21
29.341761
  0
LINE
  8
0
  6
CONTINUOUS
 10
593.935974
 20
25.028240
 11
626.718811
 21
29.341780
  0
ARC
  8
0
  6
CONTINUOUS
 10
615.327393
 20
210.404922
 40
7.000000
 50
105.945801
 51
180.000000
  0
ARC
  8
0
  6
CONTINUOUS
 10
615.327393
 20
128.965149
 40
7.000000
 50
180.000000
 51
240.000198
  0
ARC
  8
0
  6
CONTINUOUS
 10
747.327393
 20
210.404861
 40
7.000000
 50
0.000000
 51
74.054764
  0
ARC
  8
0
  6
CONTINUOUS
 10
747.327393
 20
128.965103
 40
7.000000
 50
-59.999882
 51
0.000000
  0
ARC
  8
0
  6
CONTINUOUS
 10
622.327393
 20
70.465157
 40
7.000000
 50
180.000000
 51
254.054901
  0
ARC
  8
0
  6
CONTINUOUS
 10
740.327393
 20
70.465103
 40
7.000000
 50
-74.054497
 51
0.000000
  0
LINE
  8
0
  6
CONTINUOUS
 10
733.327393
 20
29.684999
 11
733.327393
 21
226.965103
  0
ARC
  8
0
  6
CONTINUOUS
 10
740.327393
 20
226.965164
 40
7.000000
 50
180.000000
 51
254.054901
  0
ARC
  8
0
  6
CONTINUOUS
 10
740.327393
 20
55.904942
 40
7.000000
 50
105.945801
 51
180.000000
  0
ARC
  8
0
  6
CONTINUOUS
 10
754.327393
 20
116.840744
 40
7.000000
 50
120.000099
 51
180.000000
  0
ARC
  8
0
  6
CONTINUOUS
 10
736.327393
 20
32.316139
 40
3.000000
 50
180.000000
 51
262.504395
  0
ARC
  8
0
  6
CONTINUOUS
 10
768.327393
 20
21.684999
 40
3.000000
 50
0.000000
 51
90.000000
  0
ARC
  8
0
  6
CONTINUOUS
 10
768.327393
 20
22.053860
 40
3.000000
 50
0.000000
 51
82.504204
  0
LINE
  8
0
  6
CONTINUOUS
 10
733.327393
 20
29.684999
 11
733.327393
 21
4.685000
  0
ARC
  8
0
  6
CONTINUOUS
 10
738.327393
 20
29.685020
 40
5.000000
 50
180.000000
 51
270.000000
  0
ARC
  8
0
  6
CONTINUOUS
 10
626.327393
 20
32.316139
 40
3.000000
 50
-82.503883
 51
0.000000
  0
ARC
  8
0
  6
CONTINUOUS
 10
624.327393
 20
29.684999
 40
5.000000
 50
-90.000000
 51
0.000000
  0
ARC
  8
0
  6
CONTINUOUS
 10
594.327393
 20
21.685020
 40
3.000000
 50
90.000000
 51
180.000000
  0
ARC
  8
0
  6
CONTINUOUS
 10
594.327393
 20
22.053900
 40
3.000000
 50
97.496292
 51
180.000000
  0
LINE
  8
0
  6
CONTINUOUS
 10
646.327393
 20
4.685000
 11
647.827393
 21
6.185000
  0
LINE
  8
0
  6
CONTINUOUS
 10
716.327393
 20
4.685000
 11
714.827393
 21
6.185000
  0
ARC
  8
0
  6
CONTINUOUS
 10
622.327393
 20
55.904861
 40
7.000000
 50
0.000000
 51
74.054688
  0
ARC
  8
0
  6
CONTINUOUS
 10
608.327393
 20
116.840782
 40
7.000000
 50
0.000000
 51
60.000092
  0
ARC
  8
0
  6
CONTINUOUS
 10
622.327393
 20
226.965103
 40
7.000000
 50
-74.054443
 51
0.000000
  0
ARC
  8
0
  6
CONTINUOUS
 10
681.327393
 20
116.184998
 40
71.000000
 50
-21.630920
 51
6.068256
  0
ARC
  8
0
  6
CONTINUOUS
 10
681.327393
 20
116.184998
 40
71.000000
 50
173.931793
 51
201.630905
  0
LINE
  8
0
  6
CONTINUOUS
 10
734.327393
 20
59.510479
 11
734.327393
 21
53.185001
  0
LINE
  8
0
  6
CONTINUOUS
 10
628.327393
 20
53.185001
 11
628.327393
 21
59.374001
  0
ARC
  8
0
  6
CONTINUOUS
 10
729.327393
 20
53.185001
 40
5.000000
 50
-36.869869
 51
0.000000
  0
ARC
  8
0
  6
CONTINUOUS
 10
633.327393
 20
53.185001
 40
5.000000
 50
180.000000
 51
216.865204
  0
LINE
  8
0
  6
CONTINUOUS
 10
321.827393
 20
163.685059
 11
321.827393
 21
175.685059
  0
LINE
  8
0
  6
CONTINUOUS
 10
329.827393
 20
163.685074
 11
329.827393
 21
175.685074
  0
LINE
  8
0
  6
CONTINUOUS
 10
329.827393
 20
163.685074
 11
321.827393
 21
163.685059
  0
LINE
  8
0
  6
CONTINUOUS
 10
329.827393
 20
175.685074
 11
321.827393
 21
175.685059
  0
ARC
  8
0
  6
CONTINUOUS
 10
306.827393
 20
169.684998
 40
20.000000
 50
17.457600
 51
342.542389
  0
LINE
  8
0
  6
CONTINUOUS
 10
541.327393
 20
149.684998
 11
541.327393
 21
189.684998
  0
LINE
  8
0
  6
CONTINUOUS
 10
606.327393
 20
189.684998
 11
541.327393
 21
189.684998
  0
LINE
  8
0
  6
CONTINUOUS
 10
606.327393
 20
149.684998
 11
541.327393
 21
149.684998
  0
LINE
  8
0
  6
CONTINUOUS
 10
606.327393
 20
192.184998
 11
606.327393
 21
147.184998
  0
LINE
  8
0
  6
CONTINUOUS
 10
608.327393
 20
192.184998
 11
606.327393
 21
192.184998
  0
LINE
  8
0
  6
CONTINUOUS
 10
608.327393
 20
147.184998
 11
606.327393
 21
147.184998
  0
ARC
  8
0
  6
CONTINUOUS
 10
595.327393
 20
169.684998
 40
6.000000
 50
-90.000000
 51
90.000000
  0
LINE
  8
0
  6
CONTINUOUS
 10
595.327393
 20
175.684998
 11
541.327393
 21
175.684998
  0
LINE
  8
0
  6
CONTINUOUS
 10
595.327393
 20
163.684998
 11
541.327393
 21
163.684998
  0
LINE
  8
0
  6
CONTINUOUS
 10
194.827377
 20
70.941002
 11
194.827377
 21
185.184998
  0
LINE
  8
0
  6
CENTER
 10
-21.602148
 20
101.184998
 11
250.317383
 21
101.184998
  0
LINE
  8
0
  6
CONTINUOUS
 10
196.827377
 20
187.184998
 11
203.827377
 21
187.184998
  0
LINE
  8
0
  6
CONTINUOUS
 10
196.827377
 20
45.185020
 11
203.827377
 21
45.185020
  0
LINE
  8
0
  6
CONTINUOUS
 10
175.827377
 20
48.185001
 11
147.327377
 21
48.185001
  0
LINE
  8
0
  6
CONTINUOUS
 10
147.327377
 20
154.184998
 11
191.827362
 21
154.184998
  0
LINE
  8
0
  6
CONTINUOUS
 10
193.327377
 20
165.318985
 11
174.739120
 21
154.586929
  0
ARC
  8
0
  6
CONTINUOUS
 10
196.827408
 20
185.184998
 40
2.000000
 50
90.000000
 51
180.000000
  0
ARC
  8
0
  6
CONTINUOUS
 10
196.827377
 20
47.185001
 40
2.000000
 50
194.477707
 51
270.000000
  0
LINE
  8
0
  6
CONTINUOUS
 10
175.827377
 20
50.185001
 11
175.827377
 21
66.941002
  0
LINE
  8
0
  6
CONTINUOUS
 10
192.827377
 20
68.941002
 11
177.827377
 21
68.941002
  0
ARC
  8
0
  6
CONTINUOUS
 10
177.827377
 20
66.941017
 40
2.000000
 50
90.000000
 51
180.000000
  0
ARC
  8
0
  6
CONTINUOUS
 10
192.954407
 20
46.185001
 40
2.000000
 50
14.477280
 51
90.000000
  0
ARC
  8
0
  6
CONTINUOUS
 10
192.827377
 20
70.941002
 40
2.000000
 50
-90.000000
 51
0.000000
  0
LINE
  8
0
  6
CONTINUOUS
 10
175.827377
 20
48.185001
 11
192.954407
 21
48.185001
  0
ARC
  8
0
  6
CONTINUOUS
 10
173.827377
 20
50.185001
 40
2.000000
 50
-90.000000
 51
0.000000
  0
ARC
  8
0
  6
CONTINUOUS
 10
191.827377
 20
157.184998
 40
3.000000
 50
-90.000000
 51
0.000000
  0
ARC
  8
0
  6
CONTINUOUS
 10
191.827377
 20
167.917038
 40
3.000000
 50
-59.999660
 51
0.000000
  0
ARC
  8
0
  6
CONTINUOUS
 10
173.239105
 20
157.184998
 40
3.000000
 50
270.000000
 51
300.000305
  0
LINE
  8
0
  6
CONTINUOUS
 10
147.327377
 20
154.184998
 11
147.327377
 21
48.185001
  0
LINE
  8
0
  6
CONTINUOUS
 10
375.696503
 20
584.369202
 11
306.828033
 21
584.369202
  0
LINE
  8
0
  6
CONTINUOUS
 10
375.695892
 20
404.369171
 11
329.827393
 21
404.369263
  0
LINE
  8
0
  6
CENTER
 10
306.827393
 20
339.980347
 11
306.827942
 21
610.215027
  0
LINE
  8
0
  6
CENTER
 10
381.681183
 20
564.369995
 11
353.313141
 21
564.369995
  0
LINE
  8
0
  6
CONTINUOUS
 10
396.827698
 20
494.369263
 11
395.919708
 21
442.369202
  0
LINE
  8
0
  6
CONTINUOUS
 10
385.150482
 20
411.111755
 11
395.919708
 21
442.369202
  0
ARC
  8
0
  6
CONTINUOUS
 10
375.696106
 20
414.369232
 40
10.000000
 50
-90.000000
 51
-19.010900
  0
ARC
  8
0
  6
CONTINUOUS
 10
366.827698
 20
564.369995
 40
7.500000
 50
-46.074883
 51
212.226791
  0
LINE
  8
0
  6
CONTINUOUS
 10
396.827698
 20
494.369263
 11
395.919891
 21
546.369202
  0
LINE
  8
0
  6
CONTINUOUS
 10
385.150909
 20
577.626587
 11
395.919891
 21
546.369202
  0
ARC
  8
0
  6
CONTINUOUS
 10
375.696503
 20
574.369202
 40
10.000000
 50
19.010900
 51
90.000000
  0
LINE
  8
0
  6
CONTINUOUS
 10
216.827698
 20
494.369415
 11
217.735489
 21
442.369476
  0
LINE
  8
0
  6
CONTINUOUS
 10
228.504501
 20
411.112030
 11
217.735489
 21
442.369476
  0
ARC
  8
0
  6
CONTINUOUS
 10
237.959091
 20
414.369476
 40
10.000000
 50
199.010895
 51
270.000000
  0
LINE
  8
0
  6
CONTINUOUS
 10
216.827698
 20
494.369415
 11
217.684235
 21
543.421997
  0
LINE
  8
0
  6
CONTINUOUS
 10
228.504898
 20
577.626770
 11
218.082520
 21
547.376038
  0
LINE
  8
0
  6
CONTINUOUS
 10
205.865494
 20
565.369385
 11
203.827896
 21
565.369385
  0
LINE
  8
0
  6
CONTINUOUS
 10
203.827896
 20
565.369385
 11
203.827499
 21
423.369476
  0
LINE
  8
0
  6
CONTINUOUS
 10
214.937500
 20
551.557617
 11
212.626892
 21
560.181213
  0
ARC
  8
0
  6
CONTINUOUS
 10
205.865494
 20
558.369385
 40
7.000000
 50
14.999900
 51
90.000000
  0
ARC
  8
0
  6
CONTINUOUS
 10
221.699097
 20
553.369385
 40
7.000000
 50
-165.000305
 51
-90.000000
  0
LINE
  8
0
  6
CONTINUOUS
 10
205.865097
 20
423.369476
 11
203.827499
 21
423.369476
  0
LINE
  8
0
  6
CONTINUOUS
 10
214.937302
 20
437.181305
 11
212.626694
 21
428.557739
  0
ARC
  8
0
  6
CONTINUOUS
 10
205.865097
 20
430.369537
 40
7.000000
 50
-90.000000
 51
-14.999900
  0
ARC
  8
0
  6
CONTINUOUS
 10
221.698898
 20
435.369476
 40
7.000000
 50
121.109207
 51
165.000336
  0
ARC
  8
0
  6
CONTINUOUS
 10
237.959091
 20
574.369812
 40
10.000000
 50
90.000000
 51
160.989105
  0
ARC
  8
0
  6
CONTINUOUS
 10
246.827499
 20
564.370728
 40
7.500000
 50
-32.232941
 51
238.076355
  0
LINE
  8
0
  6
CENTER
 10
366.827423
 20
552.568420
 11
366.827881
 21
576.444824
  0
LINE
  8
0
  6
CENTER
 10
259.838104
 20
564.370117
 11
234.260345
 21
564.370117
  0
LINE
  8
0
  6
CENTER
 10
246.827698
 20
552.568420
 11
246.827896
 21
576.445007
  0
LINE
  8
0
  6
CONTINUOUS
 10
392.971802
 20
546.369629
 11
220.683777
 21
546.369629
  0
LINE
  8
0
  6
CONTINUOUS
 10
264.046936
 20
567.369629
 11
349.607849
 21
567.369629
  0
ARC
  8
0
  6
CONTINUOUS
 10
392.971802
 20
543.369629
 40
3.000000
 50
1.000152
 51
90.000000
  0
ARC
  8
0
  6
CONTINUOUS
 10
220.683777
 20
543.369629
 40
3.000000
 50
90.000000
 51
178.999634
  0
LINE
  8
0
  6
CONTINUOUS
 10
392.971802
 20
442.369659
 11
220.683777
 21
442.369659
  0
ARC
  8
0
  6
CONTINUOUS
 10
392.971802
 20
445.369659
 40
3.000000
 50
270.000000
 51
358.999847
  0
ARC
  8
0
  6
CONTINUOUS
 10
220.683777
 20
445.369659
 40
3.000000
 50
181.000366
 51
270.000000
  0
LINE
  8
0
  6
CONTINUOUS
 10
341.827606
 20
447.369659
 11
341.827606
 21
541.369629
  0
LINE
  8
0
  6
CONTINUOUS
 10
271.827606
 20
447.369659
 11
271.827606
 21
541.369629
  0
LINE
  8
0
  6
CONTINUOUS
 10
248.107605
 20
560.369629
 11
254.827377
 21
560.369629
  0
LINE
  8
0
  6
CONTINUOUS
 10
367.827484
 20
560.369629
 11
358.827393
 21
560.369629
  0
ARC
  8
0
  6
CONTINUOUS
 10
367.827484
 20
553.369629
 40
7.000000
 50
0.000000
 51
90.000000
  0
ARC
  8
0
  6
CONTINUOUS
 10
381.827484
 20
553.369629
 40
7.000000
 50
180.000000
 51
270.000000
  0
LINE
  8
0
  6
CENTER
 10
381.681183
 20
424.370117
 11
353.313141
 21
424.370117
  0
ARC
  8
0
  6
CONTINUOUS
 10
366.827698
 20
424.370117
 40
7.500000
 50
-212.226791
 51
46.074883
  0
ARC
  8
0
  6
CONTINUOUS
 10
246.827499
 20
424.369415
 40
7.500000
 50
-226.078156
 51
32.232941
  0
LINE
  8
0
  6
CENTER
 10
366.827423
 20
436.171722
 11
366.827881
 21
412.295319
  0
LINE
  8
0
  6
CENTER
 10
259.838104
 20
424.369995
 11
234.260345
 21
424.369995
  0
LINE
  8
0
  6
CENTER
 10
246.827698
 20
436.171722
 11
246.827896
 21
412.295105
  0
LINE
  8
0
  6
CONTINUOUS
 10
264.046936
 20
421.369659
 11
349.607849
 21
421.369659
  0
LINE
  8
0
  6
CONTINUOUS
 10
245.827499
 20
428.369659
 11
254.827377
 21
428.369568
  0
ARC
  8
0
  6
CONTINUOUS
 10
245.827499
 20
435.369659
 40
7.000000
 50
180.000000
 51
270.000000
  0
ARC
  8
0
  6
CONTINUOUS
 10
231.827499
 20
435.369659
 40
7.000000
 50
0.000000
 51
90.000000
  0
LINE
  8
0
  6
CONTINUOUS
 10
367.827484
 20
428.369659
 11
358.827393
 21
428.369568
  0
ARC
  8
0
  6
CONTINUOUS
 10
367.827484
 20
435.369659
 40
7.000000
 50
-90.000000
 51
0.000000
  0
ARC
  8
0
  6
CONTINUOUS
 10
381.827484
 20
435.369659
 40
7.000000
 50
90.000000
 51
180.000000
  0
LINE
  8
0
  6
CONTINUOUS
 10
241.376938
 20
555.292725
 11
240.278061
 21
551.446594
  0
ARC
  8
0
  6
CONTINUOUS
 10
248.107605
 20
553.369629
 40
7.000000
 50
90.000000
 51
164.054611
  0
ARC
  8
0
  6
CONTINUOUS
 10
233.547379
 20
553.369629
 40
7.000000
 50
-90.000000
 51
-15.945396
  0
LINE
  8
0
  6
CONTINUOUS
 10
286.827698
 20
354.369415
 11
329.827393
 21
354.369415
  0
LINE
  8
0
  6
CONTINUOUS
 10
326.827698
 20
419.369415
 11
326.827698
 21
414.369873
  0
LINE
  8
0
  6
CONTINUOUS
 10
286.827698
 20
419.369415
 11
286.827698
 21
354.369415
  0
LINE
  8
0
  6
CONTINUOUS
 10
329.327698
 20
419.369415
 11
284.327698
 21
419.369415
  0
LINE
  8
0
  6
CONTINUOUS
 10
329.327698
 20
421.369415
 11
329.327698
 21
419.369415
  0
LINE
  8
0
  6
CONTINUOUS
 10
284.327698
 20
421.369415
 11
284.327698
 21
419.369415
  0
LINE
  8
0
  6
CONTINUOUS
 10
306.828033
 20
584.369324
 11
237.959503
 21
584.369385
  0
LINE
  8
0
  6
CONTINUOUS
 10
286.827698
 20
404.369324
 11
237.959091
 21
404.369415
  0
LINE
  8
0
  6
CONTINUOUS
 10
329.827393
 20
354.369873
 11
329.827393
 21
414.369873
  0
LINE
  8
0
  6
CONTINUOUS
 10
325.906372
 20
414.369873
 11
329.827393
 21
414.369873
  0
LINE
  8
0
  6
CONTINUOUS
 10
258.732117
 20
564.925171
 11
254.827377
 21
560.369629
  0
ARC
  8
0
  6
CONTINUOUS
 10
264.046936
 20
560.369629
 40
7.000000
 50
90.000000
 51
139.398712
  0
LINE
  8
0
  6
CONTINUOUS
 10
354.922638
 20
564.925171
 11
358.827393
 21
560.369629
  0
ARC
  8
0
  6
CONTINUOUS
 10
349.607849
 20
560.369629
 40
7.000000
 50
40.601295
 51
90.000000
  0
LINE
  8
0
  6
CONTINUOUS
 10
354.922638
 20
423.814026
 11
358.827393
 21
428.369568
  0
ARC
  8
0
  6
CONTINUOUS
 10
349.607849
 20
428.369568
 40
7.000000
 50
-90.000000
 51
-40.601295
  0
LINE
  8
0
  6
CONTINUOUS
 10
258.732117
 20
423.814026
 11
254.827377
 21
428.369568
  0
ARC
  8
0
  6
CONTINUOUS
 10
264.046936
 20
428.369568
 40
7.000000
 50
-139.398712
 51
-90.000000
  0
LINE
  8
0
  6
CONTINUOUS
 10
325.906372
 20
414.369873
 11
325.906372
 21
354.369415
  0
LINE
  8
0
  6
CENTER
 10
420.028625
 20
494.369415
 11
-24.417774
 21
494.369415
  0
LINE
  8
0
  6
CONTINUOUS
 10
196.827896
 20
565.369446
 11
203.827896
 21
565.369446
  0
LINE
  8
0
  6
CONTINUOUS
 10
194.827896
 20
425.369415
 11
194.827896
 21
563.369446
  0
LINE
  8
0
  6
CONTINUOUS
 10
196.827896
 20
423.369415
 11
203.827499
 21
423.369415
  0
LINE
  8
0
  6
CONTINUOUS
 10
147.327896
 20
547.369446
 11
194.827896
 21
547.369446
  0
LINE
  8
0
  6
CONTINUOUS
 10
147.327896
 20
441.369415
 11
194.827896
 21
441.369415
  0
LINE
  8
0
  6
CONTINUOUS
 10
147.327896
 20
547.369446
 11
147.327896
 21
441.369415
  0
ARC
  8
0
  6
CONTINUOUS
 10
196.827896
 20
563.369446
 40
2.000000
 50
90.000000
 51
180.000000
  0
ARC
  8
0
  6
CONTINUOUS
 10
196.827896
 20
425.369415
 40
2.000000
 50
180.000000
 51
270.000000
  0
ARC
  8
0
  6
CONTINUOUS
 10
194.042969
 20
494.369415
 40
20.000000
 50
141.561295
 51
180.000000
  0
LINE
  8
0
  6
CONTINUOUS
 10
194.827896
 20
527.529419
 11
178.377502
 21
506.802979
  0
ARC
  8
0
  6
CONTINUOUS
 10
194.042969
 20
494.369415
 40
20.000000
 50
-180.000000
 51
-141.561295
  0
LINE
  8
0
  6
CONTINUOUS
 10
194.827896
 20
461.209442
 11
178.377502
 21
481.935883
  0
LINE
  8
0
  6
CONTINUOUS
 10
17.327381
 20
441.369415
 11
17.327381
 21
469.369415
  0
LINE
  8
0
  6
CONTINUOUS
 10
17.327381
 20
547.369446
 11
147.327377
 21
547.369446
  0
LINE
  8
0
  6
CONTINUOUS
 10
17.327381
 20
441.369415
 11
147.327377
 21
441.369415
  0
LINE
  8
0
  6
CONTINUOUS
 10
17.327381
 20
525.869385
 11
137.327377
 21
525.869385
  0
LINE
  8
0
  6
CONTINUOUS
 10
17.327381
 20
462.869415
 11
137.327377
 21
462.869415
  0
LINE
  8
0
  6
CONTINUOUS
 10
137.327377
 20
545.369446
 11
137.327377
 21
525.869385
  0
ARC
  8
0
  6
CONTINUOUS
 10
139.327377
 20
545.369446
 40
2.000000
 50
90.000000
 51
180.000000
  0
ARC
  8
0
  6
CONTINUOUS
 10
139.327377
 20
443.369415
 40
2.000000
 50
180.000000
 51
270.000000
  0
LINE
  8
0
  6
CONTINUOUS
 10
-3.172618
 20
494.369415
 11
-3.172618
 21
539.369446
  0
LINE
  8
0
  6
CONTINUOUS
 10
-3.172618
 20
494.369415
 11
-3.172618
 21
449.369415
  0
LINE
  8
0
  6
CONTINUOUS
 10
-2.672618
 20
543.369446
 11
-2.672618
 21
449.369415
  0
LINE
  8
0
  6
CONTINUOUS
 10
2.417561
 20
547.369446
 11
17.327381
 21
547.369446
  0
LINE
  8
0
  6
CONTINUOUS
 10
2.417561
 20
441.369415
 11
17.327381
 21
441.369415
  0
LINE
  8
0
  6
CONTINUOUS
 10
-2.672618
 20
449.369415
 11
-2.672618
 21
445.369415
  0
LINE
  8
0
  6
CONTINUOUS
 10
-2.054576
 20
544.605469
 11
-2.672618
 21
543.369446
  0
ARC
  8
0
  6
CONTINUOUS
 10
2.417561
 20
542.369446
 40
5.000000
 50
90.000000
 51
153.435196
  0
LINE
  8
0
  6
CONTINUOUS
 10
-2.054576
 20
444.133362
 11
-2.672618
 21
445.369415
  0
ARC
  8
0
  6
CONTINUOUS
 10
2.417561
 20
446.369415
 40
5.000000
 50
206.565002
 51
270.000000
  0
LINE
  8
0
  6
CONTINUOUS
 10
-3.172618
 20
449.369415
 11
-2.672618
 21
448.869415
  0
LINE
  8
0
  6
CONTINUOUS
 10
-3.172618
 20
539.369446
 11
-2.672618
 21
539.869446
  0
LINE
  8
0
  6
CONTINUOUS
 10
17.327381
 20
525.869446
 11
-0.797618
 21
525.869446
  0
LINE
  8
0
  6
CONTINUOUS
 10
17.327381
 20
462.869415
 11
-0.797618
 21
462.869415
  0
LINE
  8
0
  6
CONTINUOUS
 10
17.327381
 20
519.369385
 11
17.327381
 21
547.369446
  0
LINE
  8
0
  6
CONTINUOUS
 10
8.327382
 20
471.369415
 11
8.327382
 21
517.369385
  0
LINE
  8
0
  6
CONTINUOUS
 10
10.327382
 20
519.369385
 11
8.327382
 21
517.369385
  0
LINE
  8
0
  6
CONTINUOUS
 10
10.327382
 20
519.369385
 11
56.327374
 21
519.369385
  0
LINE
  8
0
  6
CONTINUOUS
 10
50.827381
 20
514.869385
 11
50.827381
 21
519.369385
  0
ARC
  8
0
  6
CONTINUOUS
 10
53.827381
 20
514.869385
 40
3.000000
 50
180.000000
 51
270.000000
  0
LINE
  8
0
  6
CONTINUOUS
 10
53.827381
 20
511.869415
 11
58.327374
 21
511.869415
  0
CIRCLE
  8
0
  6
CONTINUOUS
 10
54.827381
 20
515.869385
 40
2.250000
  0
LINE
  8
0
  6
CONTINUOUS
 10
58.327377
 20
471.369415
 11
58.327374
 21
517.369385
  0
LINE
  8
0
  6
CONTINUOUS
 10
56.327374
 20
519.369385
 11
58.327374
 21
517.369385
  0
LINE
  8
0
  6
CONTINUOUS
 10
56.327377
 20
469.369415
 11
58.327377
 21
471.369415
  0
LINE
  8
0
  6
CONTINUOUS
 10
56.327377
 20
469.369415
 11
10.327382
 21
469.369415
  0
LINE
  8
0
  6
CONTINUOUS
 10
8.327382
 20
471.369415
 11
10.327382
 21
469.369415
  0
LINE
  8
0
  6
CONTINUOUS
 10
12.827382
 20
476.869415
 11
8.327392
 21
476.869415
  0
CIRCLE
  8
0
  6
CONTINUOUS
 10
11.827382
 20
472.869415
 40
2.250000
  0
ARC
  8
0
  6
CONTINUOUS
 10
12.827382
 20
473.869415
 40
3.000000
 50
0.000000
 51
90.000000
  0
LINE
  8
0
  6
CONTINUOUS
 10
15.827382
 20
473.869415
 11
15.827382
 21
469.369415
  0
LINE
  8
0
  6
CENTER
 10
33.327381
 20
461.903625
 11
33.327381
 21
526.035645
  0
LINE
  8
0
  6
CONTINUOUS
 10
9.327388
 20
476.869415
 11
9.327388
 21
511.869415
  0
LINE
  8
0
  6
CONTINUOUS
 10
50.827381
 20
518.369446
 11
15.827402
 21
518.369446
  0
LINE
  8
0
  6
CONTINUOUS
 10
57.327377
 20
511.869415
 11
57.327377
 21
476.869415
  0
LINE
  8
0
  6
CONTINUOUS
 10
15.827382
 20
470.369415
 11
50.827400
 21
470.369415
  0
ARC
  8
0
  6
CONTINUOUS
 10
12.827402
 20
514.869446
 40
3.000000
 50
-90.000000
 51
0.000000
  0
LINE
  8
0
  6
CONTINUOUS
 10
15.827402
 20
514.869446
 11
15.827402
 21
519.369446
  0
CIRCLE
  8
0
  6
CONTINUOUS
 10
11.827402
 20
515.869446
 40
2.250000
  0
LINE
  8
0
  6
CONTINUOUS
 10
12.827402
 20
511.869415
 11
8.327402
 21
511.869415
  0
CIRCLE
  8
0
  6
CONTINUOUS
 10
54.827400
 20
472.869415
 40
2.250000
  0
LINE
  8
0
  6
CONTINUOUS
 10
50.827400
 20
473.869415
 11
50.827400
 21
469.369446
  0
ARC
  8
0
  6
CONTINUOUS
 10
53.827400
 20
473.869415
 40
3.000000
 50
90.000000
 51
180.000000
  0
LINE
  8
0
  6
CONTINUOUS
 10
53.827400
 20
476.869415
 11
58.327400
 21
476.869415
  0
LINE
  8
0
  6
CONTINUOUS
 10
9.827382
 20
155.684998
 11
56.327381
 21
155.684998
  0
LINE
  8
0
  6
CONTINUOUS
 10
58.327362
 20
199.684998
 11
58.327381
 21
157.684998
  0
LINE
  8
0
  6
CONTINUOUS
 10
8.327382
 20
199.684998
 11
8.327382
 21
157.684998
  0
LINE
  8
0
  6
CONTINUOUS
 10
8.327382
 20
167.684998
 11
58.327381
 21
167.684998
  0
LINE
  8
0
  6
CONTINUOUS
 10
56.327381
 20
155.684998
 11
58.327381
 21
157.684998
  0
LINE
  8
0
  6
CONTINUOUS
 10
8.327382
 20
157.684998
 11
10.327382
 21
155.684998
  0
LINE
  8
0
  6
CONTINUOUS
 10
8.327382
 20
157.684998
 11
58.327381
 21
157.684998
  0
LINE
  8
0
  6
CONTINUOUS
 10
8.327382
 20
168.684998
 11
58.327374
 21
168.684998
  0
LINE
  8
0
  6
CONTINUOUS
 10
9.327382
 20
200.684998
 11
57.327362
 21
200.684998
  0
LINE
  8
0
  6
CONTINUOUS
 10
57.327362
 20
200.684998
 11
58.327362
 21
199.684998
  0
LINE
  8
0
  6
CONTINUOUS
 10
9.327382
 20
200.684998
 11
8.327382
 21
199.684998
  0
LINE
  8
0
  6
CONTINUOUS
 10
8.327382
 20
199.684998
 11
58.327362
 21
199.684998
  0
LINE
  8
0
  6
CENTER
 10
5.952382
 20
183.684998
 11
10.577382
 21
183.684998
  0
LINE
  8
0
  6
CONTINUOUS
 10
9.827382
 20
155.684998
 11
9.827382
 21
154.184998
  0
LINE
  8
0
  6
CONTINUOUS
 10
55.827381
 20
155.684998
 11
55.827381
 21
154.184998
  0
LINE
  8
0
  6
CONTINUOUS
 10
7.452382
 20
194.184998
 11
9.452382
 21
194.184998
  0
LINE
  8
0
  6
CONTINUOUS
 10
7.452382
 20
173.184998
 11
9.452382
 21
173.184998
  0
LINE
  8
0
  6
CENTER
 10
33.327381
 20
146.269379
 11
33.327381
 21
207.604370
  0
LINE
  8
0
  6
CONTINUOUS
 10
137.327377
 20
462.869415
 11
137.327377
 21
443.369415
  0
TEXT
  8
0
 10
-24.000000
 20
-11.000000
 40
4.000000
 41
1.000000
  1
HLM-40R-1200~1800-T90WK
 50
0.000000
  0
ENDSEC
  0
EOF
