  0
SECTION
  2
HEADER
  9
$CLAYER
  8
1
  9
$LTSCALE
 40
3.0
  0
ENDSEC
  0
SECTION
  2
TABLES
  0
TABLE
  2
LTYPE
 70
     4
  0
LTYPE
  2
CONTINUOUS
  3
solid line
 70
    64
 72
    65
 73
     0
 40
0.0
  0
LTYPE
  2
DASHED
  3
__ __ __ __ __ __ __ __ __ __ __ __ __ __ __
 70
    64
 72
    65
 73
     2
 40
0.75
 49
0.5
 49
-0.25
  0
LTYPE
  2
CENTER
  3
____ _ ____ _ ____ _ ____ _ ____ _ ____ _ ____
 70
    64
 72
    65
 73
     4
 40
2.0
 49
1.25
 49
-0.25
 49
0.25
 49
-0.25
  0
LTYPE
  2
PHANTOM
  3
_____ _ _ _____ _ _ _____ _ _ _____ _ _ ____
 70
    64
 72
    65
 73
     6
 40
2.5
 49
1.25
 49
-0.25
 49
0.25
 49
-0.25
 49
0.25
 49
-0.25
  0
ENDTAB
  0
TABLE
  2
LAYER
 70
     1
  0
LAYER
  2
0
 70
    64
 62
     7
  6
CONTINUOUS
  0
ENDTAB
  0
TABLE
  2
STYLE
 70
     1
  0
STYLE
  2
STANDARD
 70
     0
 40
0.000000
 41
1.000000
 50
0.000000
 71
     0
 42
3.000000
  3
txt
  4
BIGFONT
  0
ENDTAB
  0
ENDSEC
  0
SECTION
  2
BLOCKS
  0
ENDSEC
  0
SECTION
  2
ENTITIES
  0
LINE
  8
0
  6
CONTINUOUS
 10
201.827377
 20
46.660000
 11
201.827377
 21
188.660004
  0
LINE
  8
0
  6
CENTER
 10
104.437500
 20
117.660004
 11
248.317383
 21
117.660004
  0
LINE
  8
0
  6
CENTER
 10
304.827393
 20
261.015015
 11
304.827393
 21
-7.980000
  0
LINE
  8
0
  6
CENTER
 10
230.134995
 20
171.160004
 11
379.839996
 21
171.160004
  0
LINE
  8
0
  6
CONTINUOUS
 10
214.827377
 20
6.160000
 11
394.827393
 21
6.160000
  0
LINE
  8
0
  6
CONTINUOUS
 10
214.827377
 20
26.160000
 11
394.827393
 21
26.160000
  0
LINE
  8
0
  6
CONTINUOUS
 10
273.012970
 20
248.660004
 11
336.641785
 21
248.660004
  0
LINE
  8
0
  6
CONTINUOUS
 10
394.827393
 20
204.492004
 11
394.827393
 21
6.160000
  0
LINE
  8
0
  6
CONTINUOUS
 10
214.827377
 20
204.492004
 11
214.827377
 21
6.160000
  0
LINE
  8
0
  6
CONTINUOUS
 10
201.827377
 20
188.660004
 11
209.827377
 21
188.660004
  0
LINE
  8
0
  6
CONTINUOUS
 10
201.827377
 20
46.660000
 11
209.827377
 21
46.660000
  0
LINE
  8
0
  6
CONTINUOUS
 10
342.425995
 20
246.817337
 11
390.611786
 21
212.649323
  0
LINE
  8
0
  6
CONTINUOUS
 10
219.043182
 20
212.649323
 11
267.228790
 21
246.817337
  0
ARC
  8
0
  6
CONTINUOUS
 10
384.827393
 20
204.491959
 40
10.000000
 50
0.000000
 51
54.660099
  0
ARC
  8
0
  6
CONTINUOUS
 10
336.641785
 20
238.660004
 40
10.000000
 50
54.659950
 51
90.000000
  0
ARC
  8
0
  6
CONTINUOUS
 10
273.012970
 20
238.660004
 40
10.000000
 50
90.000000
 51
125.340302
  0
ARC
  8
0
  6
CONTINUOUS
 10
224.827377
 20
204.492035
 40
10.000000
 50
125.340500
 51
180.000000
  0
ARC
  8
0
  6
CONTINUOUS
 10
209.827377
 20
193.660004
 40
5.000000
 50
-90.000000
 51
0.000000
  0
ARC
  8
0
  6
CONTINUOUS
 10
209.827377
 20
41.659981
 40
5.000000
 50
0.000000
 51
90.000000
  0
LINE
  8
0
  6
CENTER
 10
364.827393
 20
31.915001
 11
364.827393
 21
-2.055000
  0
LINE
  8
0
  6
CENTER
 10
244.827377
 20
33.099998
 11
244.827377
 21
-1.660000
  0
LINE
  8
0
  6
DASHED
 10
357.327393
 20
26.160000
 11
357.327393
 21
6.160000
  0
LINE
  8
0
  6
DASHED
 10
372.327393
 20
26.160000
 11
372.327393
 21
6.160000
  0
LINE
  8
0
  6
DASHED
 10
252.327377
 20
26.160000
 11
252.327377
 21
6.160000
  0
LINE
  8
0
  6
DASHED
 10
237.327377
 20
26.160000
 11
237.327377
 21
6.160000
  0
LINE
  8
0
  6
CONTINUOUS
 10
380.827393
 20
23.474680
 11
380.827393
 21
6.160000
  0
LINE
  8
0
  6
CONTINUOUS
 10
228.827377
 20
23.474680
 11
228.827377
 21
6.160000
  0
LINE
  8
0
  6
CONTINUOUS
 10
338.584778
 20
31.160000
 11
271.069977
 21
31.160000
  0
LINE
  8
0
  6
CONTINUOUS
 10
269.827393
 20
30.023121
 11
269.827393
 21
27.160000
  0
LINE
  8
0
  6
CONTINUOUS
 10
339.827393
 20
30.023121
 11
339.827393
 21
27.160000
  0
LINE
  8
0
  6
CONTINUOUS
 10
340.705994
 20
30.281321
 11
343.362976
 21
27.624439
  0
LINE
  8
0
  6
CONTINUOUS
 10
268.948792
 20
30.281321
 11
266.291779
 21
27.624500
  0
ARC
  8
0
  6
CONTINUOUS
 10
262.756378
 20
31.160000
 40
5.000000
 50
270.000000
 51
315.000092
  0
ARC
  8
0
  6
CONTINUOUS
 10
346.898376
 20
31.160000
 40
5.000000
 50
225.000107
 51
270.000000
  0
ARC
  8
0
  6
CONTINUOUS
 10
271.069977
 20
28.160000
 40
3.000000
 50
90.000000
 51
135.000397
  0
ARC
  8
0
  6
CONTINUOUS
 10
338.584778
 20
28.160000
 40
3.000000
 50
45.000259
 51
90.000000
  0
ARC
  8
0
  6
CONTINUOUS
 10
268.827393
 20
27.160000
 40
1.000000
 50
-90.000000
 51
0.000000
  0
ARC
  8
0
  6
CONTINUOUS
 10
340.827393
 20
27.160000
 40
1.000000
 50
180.000000
 51
270.000000
  0
CIRCLE
  8
0
  6
CONTINUOUS
 10
304.827393
 20
171.160004
 40
46.000000
  0
ARC
  8
0
  6
CONTINUOUS
 10
304.827393
 20
171.160004
 40
52.000000
 50
12.522720
 51
167.477402
  0
ARC
  8
0
  6
CONTINUOUS
 10
304.827393
 20
171.160004
 40
48.000000
 50
-192.522598
 51
12.522720
  0
ARC
  8
0
  6
CONTINUOUS
 10
274.827393
 20
100.660004
 40
34.000000
 50
167.477402
 51
270.000000
  0
ARC
  8
0
  6
CONTINUOUS
 10
274.827393
 20
100.660004
 40
38.000000
 50
167.477402
 51
270.000000
  0
ARC
  8
0
  6
CONTINUOUS
 10
334.827393
 20
100.660004
 40
34.000000
 50
-90.000000
 51
12.522730
  0
ARC
  8
0
  6
CONTINUOUS
 10
334.827393
 20
100.660004
 40
38.000000
 50
-90.000000
 51
12.522720
  0
LINE
  8
0
  6
CONTINUOUS
 10
237.731384
 20
108.899361
 11
254.064377
 21
182.434906
  0
LINE
  8
0
  6
CONTINUOUS
 10
355.590393
 20
182.434998
 11
371.923370
 21
108.899429
  0
LINE
  8
0
  6
CONTINUOUS
 10
351.685394
 20
181.567673
 11
368.018585
 21
108.032120
  0
LINE
  8
0
  6
CONTINUOUS
 10
241.636185
 20
108.032066
 11
257.969391
 21
181.567627
  0
LINE
  8
0
  6
CONTINUOUS
 10
274.827393
 20
66.660004
 11
334.827393
 21
66.660004
  0
LINE
  8
0
  6
CONTINUOUS
 10
274.827393
 20
62.660000
 11
334.827393
 21
62.660000
  0
LINE
  8
0
  6
CONTINUOUS
 10
292.600372
 20
84.660004
 11
287.659973
 21
84.660004
  0
LINE
  8
0
  6
CONTINUOUS
 10
295.327393
 20
92.935402
 11
295.327393
 21
84.660004
  0
LINE
  8
0
  6
CONTINUOUS
 10
300.077393
 20
95.941238
 11
300.077393
 21
98.910004
  0
LINE
  8
0
  6
CONTINUOUS
 10
309.577393
 20
95.941238
 11
309.577393
 21
98.910004
  0
LINE
  8
0
  6
CONTINUOUS
 10
303.899597
 20
97.165863
 11
303.899597
 21
86.218597
  0
LINE
  8
0
  6
CONTINUOUS
 10
305.680969
 20
97.165863
 11
305.680969
 21
86.218597
  0
LINE
  8
0
  6
CONTINUOUS
 10
315.032593
 20
97.165863
 11
315.032593
 21
86.144379
  0
LINE
  8
0
  6
CONTINUOUS
 10
316.665375
 20
91.321136
 11
316.665375
 21
86.144379
  0
LINE
  8
0
  6
CONTINUOUS
 10
293.073395
 20
97.017418
 11
288.495789
 21
97.017418
  0
LINE
  8
0
  6
CONTINUOUS
 10
288.495789
 20
97.017418
 11
287.423187
 21
95.687424
  0
LINE
  8
0
  6
CONTINUOUS
 10
287.552185
 20
98.910004
 11
285.827393
 21
96.701538
  0
LINE
  8
0
  6
CONTINUOUS
 10
287.423187
 20
87.477837
 11
288.512970
 21
86.329918
  0
LINE
  8
0
  6
CONTINUOUS
 10
285.827393
 20
86.509117
 11
287.659973
 21
84.660004
  0
LINE
  8
0
  6
CONTINUOUS
 10
285.827393
 20
96.701538
 11
285.827393
 21
86.509117
  0
LINE
  8
0
  6
CONTINUOUS
 10
287.423187
 20
95.687424
 11
287.423187
 21
87.477837
  0
LINE
  8
0
  6
CONTINUOUS
 10
293.954376
 20
96.165863
 11
293.055389
 21
97.017418
  0
LINE
  8
0
  6
CONTINUOUS
 10
293.939972
 20
98.910004
 11
295.327393
 21
97.370422
  0
LINE
  8
0
  6
CONTINUOUS
 10
293.954376
 20
95.941238
 11
295.327393
 21
95.941238
  0
LINE
  8
0
  6
CONTINUOUS
 10
287.552185
 20
98.910004
 11
293.939972
 21
98.910004
  0
LINE
  8
0
  6
CONTINUOUS
 10
291.467987
 20
92.935402
 11
295.327393
 21
92.935402
  0
LINE
  8
0
  6
CONTINUOUS
 10
293.954376
 20
91.376801
 11
291.467987
 21
91.376801
  0
LINE
  8
0
  6
CONTINUOUS
 10
290.985596
 20
86.329918
 11
288.512970
 21
86.329918
  0
LINE
  8
0
  6
CONTINUOUS
 10
293.954376
 20
89.892418
 11
293.954376
 21
91.079918
  0
ARC
  8
0
  6
CONTINUOUS
 10
290.985596
 20
89.298660
 40
2.968750
 50
-89.999786
 51
0.000109
  0
LINE
  8
0
  6
CONTINUOUS
 10
293.954376
 20
85.795921
 11
293.954376
 21
84.660004
  0
LINE
  8
0
  6
CONTINUOUS
 10
295.327393
 20
97.370422
 11
295.327393
 21
95.941238
  0
LINE
  8
0
  6
CONTINUOUS
 10
293.954376
 20
91.376801
 11
293.954376
 21
89.298660
  0
LINE
  8
0
  6
CONTINUOUS
 10
291.467987
 20
92.935402
 11
291.467987
 21
91.376801
  0
LINE
  8
0
  6
CONTINUOUS
 10
293.954376
 20
84.660004
 11
295.327393
 21
84.660004
  0
LINE
  8
0
  6
CONTINUOUS
 10
293.954376
 20
85.795921
 11
292.600372
 21
84.660004
  0
LINE
  8
0
  6
CONTINUOUS
 10
305.680969
 20
86.218597
 11
306.274597
 21
86.218597
  0
LINE
  8
0
  6
CONTINUOUS
 10
303.194580
 20
86.218597
 11
303.194580
 21
84.660004
  0
LINE
  8
0
  6
CONTINUOUS
 10
306.274597
 20
86.218597
 11
306.274597
 21
84.660004
  0
LINE
  8
0
  6
CONTINUOUS
 10
308.586395
 20
95.941238
 11
309.577393
 21
95.941238
  0
LINE
  8
0
  6
CONTINUOUS
 10
300.077393
 20
95.941238
 11
301.131989
 21
95.941238
  0
LINE
  8
0
  6
CONTINUOUS
 10
300.077393
 20
98.910004
 11
309.577393
 21
98.910004
  0
LINE
  8
0
  6
CONTINUOUS
 10
303.194580
 20
84.660004
 11
306.274597
 21
84.660004
  0
LINE
  8
0
  6
CONTINUOUS
 10
303.194580
 20
86.218597
 11
303.899597
 21
86.218597
  0
ARC
  8
0
  6
CONTINUOUS
 10
320.023590
 20
95.106277
 40
3.803712
 50
-73.981873
 51
90.003510
  0
ARC
  8
0
  6
CONTINUOUS
 10
320.023590
 20
95.106277
 40
2.320524
 50
-82.585274
 51
62.411850
  0
LINE
  8
0
  6
CONTINUOUS
 10
314.327393
 20
98.910004
 11
320.023590
 21
98.910004
  0
LINE
  8
0
  6
CONTINUOUS
 10
320.323181
 20
92.805161
 11
316.665375
 21
92.805161
  0
LINE
  8
0
  6
CONTINUOUS
 10
314.327393
 20
98.910004
 11
314.327393
 21
97.165863
  0
LINE
  8
0
  6
CONTINUOUS
 10
316.665375
 20
97.165863
 11
316.665375
 21
92.805161
  0
LINE
  8
0
  6
CONTINUOUS
 10
321.073181
 20
91.450256
 11
323.427582
 21
86.144379
  0
LINE
  8
0
  6
CONTINUOUS
 10
319.705994
 20
91.321136
 11
321.933777
 21
86.144379
  0
LINE
  8
0
  6
CONTINUOUS
 10
314.327393
 20
86.144379
 11
315.032593
 21
86.144379
  0
LINE
  8
0
  6
CONTINUOUS
 10
316.665375
 20
86.144379
 11
317.314789
 21
86.144379
  0
LINE
  8
0
  6
CONTINUOUS
 10
317.314789
 20
84.660004
 11
314.327393
 21
84.660004
  0
LINE
  8
0
  6
CONTINUOUS
 10
321.637970
 20
86.144379
 11
321.933777
 21
86.144379
  0
LINE
  8
0
  6
CONTINUOUS
 10
323.427582
 20
86.144379
 11
323.827393
 21
86.144379
  0
LINE
  8
0
  6
CONTINUOUS
 10
321.637970
 20
84.660004
 11
323.827393
 21
84.660004
  0
LINE
  8
0
  6
CONTINUOUS
 10
323.827393
 20
86.144379
 11
323.827393
 21
84.660004
  0
LINE
  8
0
  6
CONTINUOUS
 10
321.637970
 20
86.144379
 11
321.637970
 21
84.660004
  0
LINE
  8
0
  6
CONTINUOUS
 10
317.314789
 20
86.144379
 11
317.314789
 21
84.660004
  0
LINE
  8
0
  6
CONTINUOUS
 10
314.327393
 20
86.144379
 11
314.327393
 21
84.660004
  0
LINE
  8
0
  6
CONTINUOUS
 10
301.642181
 20
97.165863
 11
301.131989
 21
95.941238
  0
LINE
  8
0
  6
CONTINUOUS
 10
308.156189
 20
97.165863
 11
308.586395
 21
95.941238
  0
LINE
  8
0
  6
CONTINUOUS
 10
305.680969
 20
97.165863
 11
308.156189
 21
97.165863
  0
LINE
  8
0
  6
CONTINUOUS
 10
303.899597
 20
97.165863
 11
301.642181
 21
97.165863
  0
LINE
  8
0
  6
CONTINUOUS
 10
316.665375
 20
91.321136
 11
319.705994
 21
91.321136
  0
LINE
  8
0
  6
CONTINUOUS
 10
314.327393
 20
97.165863
 11
315.032593
 21
97.165863
  0
LINE
  8
0
  6
CONTINUOUS
 10
316.665375
 20
97.165863
 11
321.098389
 21
97.162979
  0
LINE
  8
0
  6
CONTINUOUS
 10
293.954376
 20
96.165863
 11
293.954376
 21
95.941238
  0
ARC
  8
0
  6
CONTINUOUS
 10
424.508972
 20
117.660004
 40
215.181595
 50
167.017899
 51
192.982101
  0
LINE
  8
0
  6
CONTINUOUS
 10
15.327382
 20
49.660000
 11
15.327382
 21
155.660004
  0
LINE
  8
0
  6
CONTINUOUS
 10
15.327382
 20
155.660004
 11
145.327377
 21
155.660004
  0
LINE
  8
0
  6
CONTINUOUS
 10
15.327382
 20
49.660000
 11
145.327377
 21
49.660000
  0
LINE
  8
0
  6
CONTINUOUS
 10
15.327382
 20
145.283340
 11
133.989136
 21
145.283340
  0
LINE
  8
0
  6
CONTINUOUS
 10
15.327382
 20
60.036640
 11
133.989136
 21
60.036640
  0
LINE
  8
0
  6
CONTINUOUS
 10
135.327377
 20
153.660004
 11
135.327377
 21
51.659981
  0
ARC
  8
0
  6
CONTINUOUS
 10
137.327377
 20
153.660019
 40
2.000000
 50
90.000000
 51
180.000000
  0
ARC
  8
0
  6
CONTINUOUS
 10
137.327377
 20
51.660000
 40
2.000000
 50
180.000000
 51
270.000000
  0
LINE
  8
0
  6
CONTINUOUS
 10
-5.172618
 20
102.660004
 11
-5.172618
 21
147.660004
  0
LINE
  8
0
  6
CONTINUOUS
 10
-5.172618
 20
102.660004
 11
-5.172618
 21
57.660000
  0
LINE
  8
0
  6
CONTINUOUS
 10
-4.672618
 20
151.660004
 11
-4.672618
 21
57.660000
  0
LINE
  8
0
  6
CONTINUOUS
 10
0.417561
 20
155.660004
 11
15.327382
 21
155.660004
  0
LINE
  8
0
  6
CONTINUOUS
 10
0.417561
 20
49.660000
 11
15.327382
 21
49.660000
  0
LINE
  8
0
  6
CONTINUOUS
 10
-4.672618
 20
57.660000
 11
-4.672618
 21
53.660000
  0
LINE
  8
0
  6
CONTINUOUS
 10
-4.054576
 20
152.896057
 11
-4.672618
 21
151.660004
  0
ARC
  8
0
  6
CONTINUOUS
 10
0.417561
 20
150.660019
 40
5.000000
 50
90.000000
 51
153.435196
  0
LINE
  8
0
  6
CONTINUOUS
 10
-4.054576
 20
52.423939
 11
-4.672618
 21
53.660000
  0
ARC
  8
0
  6
CONTINUOUS
 10
0.417561
 20
54.660000
 40
5.000000
 50
206.565002
 51
270.000000
  0
LINE
  8
0
  6
CONTINUOUS
 10
-5.172618
 20
57.660000
 11
-4.672618
 21
57.160000
  0
LINE
  8
0
  6
CONTINUOUS
 10
-5.172618
 20
147.660004
 11
-4.672618
 21
148.160004
  0
LINE
  8
0
  6
CONTINUOUS
 10
15.327382
 20
145.283356
 11
-2.797618
 21
145.283356
  0
LINE
  8
0
  6
CONTINUOUS
 10
15.327382
 20
60.036640
 11
-2.797618
 21
60.036640
  0
LINE
  8
0
  6
CENTER
 10
657.839111
 20
-10.350000
 11
657.839111
 21
261.804993
  0
LINE
  8
0
  6
CENTER
 10
572.656860
 20
117.660004
 11
742.878723
 21
117.660004
  0
LINE
  8
0
  6
CENTER
 10
502.027496
 20
171.160004
 11
749.006714
 21
171.160004
  0
LINE
  8
0
  6
CENTER
 10
587.839111
 20
37.840000
 11
587.839111
 21
-0.870000
  0
LINE
  8
0
  6
CENTER
 10
727.839111
 20
35.075001
 11
727.839111
 21
-1.660000
  0
LINE
  8
0
  6
DASHED
 10
720.339111
 20
26.160000
 11
720.339111
 21
6.160000
  0
LINE
  8
0
  6
DASHED
 10
735.339111
 20
26.160000
 11
735.339111
 21
6.160000
  0
LINE
  8
0
  6
DASHED
 10
595.339111
 20
26.160000
 11
595.339111
 21
6.160000
  0
LINE
  8
0
  6
DASHED
 10
580.339111
 20
26.160000
 11
580.339111
 21
6.160000
  0
LINE
  8
0
  6
CONTINUOUS
 10
567.839111
 20
6.160000
 11
622.839111
 21
6.160000
  0
LINE
  8
0
  6
CONTINUOUS
 10
692.839111
 20
6.160000
 11
747.839111
 21
6.160000
  0
LINE
  8
0
  6
CONTINUOUS
 10
714.839111
 20
26.160000
 11
744.839111
 21
26.160000
  0
LINE
  8
0
  6
CONTINUOUS
 10
570.839111
 20
26.160000
 11
600.839111
 21
26.160000
  0
LINE
  8
0
  6
CONTINUOUS
 10
567.839111
 20
23.528879
 11
567.839111
 21
6.160020
  0
LINE
  8
0
  6
CONTINUOUS
 10
747.839111
 20
23.528879
 11
747.839111
 21
6.160000
  0
LINE
  8
0
  6
CONTINUOUS
 10
709.839111
 20
228.440094
 11
709.839111
 21
243.821762
  0
LINE
  8
0
  6
CONTINUOUS
 10
605.839111
 20
243.821381
 11
605.839111
 21
6.160000
  0
LINE
  8
0
  6
CONTINUOUS
 10
624.339111
 20
7.660000
 11
691.339111
 21
7.660000
  0
LINE
  8
0
  6
CONTINUOUS
 10
610.283691
 20
209.660004
 11
706.070923
 21
209.660004
  0
LINE
  8
0
  6
CONTINUOUS
 10
705.908875
 20
247.821136
 11
657.839111
 21
248.660019
  0
LINE
  8
0
  6
CONTINUOUS
 10
609.769287
 20
247.820786
 11
657.839111
 21
248.660019
  0
LINE
  8
0
  6
CONTINUOUS
 10
584.839111
 20
130.440109
 11
584.839111
 21
211.879883
  0
LINE
  8
0
  6
CONTINUOUS
 10
730.839111
 20
130.440109
 11
730.839111
 21
211.879883
  0
LINE
  8
0
  6
CONTINUOUS
 10
591.839111
 20
71.940102
 11
591.839111
 21
175.300278
  0
LINE
  8
0
  6
CONTINUOUS
 10
723.839111
 20
71.940117
 11
723.839111
 21
175.300278
  0
ARC
  8
0
  6
CONTINUOUS
 10
609.839111
 20
243.821396
 40
4.000000
 50
91.000580
 51
180.000000
  0
ARC
  8
0
  6
CONTINUOUS
 10
705.839111
 20
243.821747
 40
4.000000
 50
0.000000
 51
89.000359
  0
LINE
  8
0
  6
CONTINUOUS
 10
589.916077
 20
218.610565
 11
600.762085
 21
221.709442
  0
LINE
  8
0
  6
CONTINUOUS
 10
714.916077
 20
221.709442
 11
725.762085
 21
218.610565
  0
LINE
  8
0
  6
CONTINUOUS
 10
596.916077
 20
65.209442
 11
600.762085
 21
64.110558
  0
LINE
  8
0
  6
CONTINUOUS
 10
718.762085
 20
65.209442
 11
714.916077
 21
64.110558
  0
LINE
  8
0
  6
CONTINUOUS
 10
745.230530
 20
26.503241
 11
712.447693
 21
30.816759
  0
LINE
  8
0
  6
CONTINUOUS
 10
570.447693
 20
26.503241
 11
603.230530
 21
30.816780
  0
ARC
  8
0
  6
CONTINUOUS
 10
591.839111
 20
211.879913
 40
7.000000
 50
105.945801
 51
180.000000
  0
ARC
  8
0
  6
CONTINUOUS
 10
591.839111
 20
130.440155
 40
7.000000
 50
180.000000
 51
240.000198
  0
ARC
  8
0
  6
CONTINUOUS
 10
723.839111
 20
211.879868
 40
7.000000
 50
0.000000
 51
74.054764
  0
ARC
  8
0
  6
CONTINUOUS
 10
723.839111
 20
130.440094
 40
7.000000
 50
-59.999882
 51
0.000000
  0
ARC
  8
0
  6
CONTINUOUS
 10
598.839111
 20
71.940163
 40
7.000000
 50
180.000000
 51
254.054901
  0
ARC
  8
0
  6
CONTINUOUS
 10
716.839111
 20
71.940102
 40
7.000000
 50
-74.054497
 51
0.000000
  0
LINE
  8
0
  6
CONTINUOUS
 10
709.839111
 20
31.160000
 11
709.839111
 21
228.440094
  0
ARC
  8
0
  6
CONTINUOUS
 10
716.839111
 20
228.440155
 40
7.000000
 50
180.000000
 51
254.054901
  0
ARC
  8
0
  6
CONTINUOUS
 10
716.839111
 20
57.379940
 40
7.000000
 50
105.945801
 51
180.000000
  0
ARC
  8
0
  6
CONTINUOUS
 10
730.839111
 20
118.315742
 40
7.000000
 50
120.000099
 51
180.000000
  0
ARC
  8
0
  6
CONTINUOUS
 10
712.839111
 20
33.791142
 40
3.000000
 50
180.000000
 51
262.504395
  0
ARC
  8
0
  6
CONTINUOUS
 10
744.839111
 20
23.160000
 40
3.000000
 50
0.000000
 51
90.000000
  0
ARC
  8
0
  6
CONTINUOUS
 10
744.839111
 20
23.528860
 40
3.000000
 50
0.000000
 51
82.504204
  0
LINE
  8
0
  6
CONTINUOUS
 10
709.839111
 20
31.160000
 11
709.839111
 21
6.160000
  0
ARC
  8
0
  6
CONTINUOUS
 10
714.839111
 20
31.160021
 40
5.000000
 50
180.000000
 51
270.000000
  0
ARC
  8
0
  6
CONTINUOUS
 10
602.839111
 20
33.791142
 40
3.000000
 50
-82.503883
 51
0.000000
  0
ARC
  8
0
  6
CONTINUOUS
 10
600.839111
 20
31.160000
 40
5.000000
 50
-90.000000
 51
0.000000
  0
ARC
  8
0
  6
CONTINUOUS
 10
570.839111
 20
23.160021
 40
3.000000
 50
90.000000
 51
180.000000
  0
ARC
  8
0
  6
CONTINUOUS
 10
570.839111
 20
23.528900
 40
3.000000
 50
97.496292
 51
180.000000
  0
LINE
  8
0
  6
CONTINUOUS
 10
622.839111
 20
6.160000
 11
624.339111
 21
7.660000
  0
LINE
  8
0
  6
CONTINUOUS
 10
692.839111
 20
6.160000
 11
691.339111
 21
7.660000
  0
ARC
  8
0
  6
CONTINUOUS
 10
598.839111
 20
57.379860
 40
7.000000
 50
0.000000
 51
74.054688
  0
ARC
  8
0
  6
CONTINUOUS
 10
584.839111
 20
118.315781
 40
7.000000
 50
0.000000
 51
60.000092
  0
ARC
  8
0
  6
CONTINUOUS
 10
598.839111
 20
228.440094
 40
7.000000
 50
-74.054443
 51
0.000000
  0
ARC
  8
0
  6
CONTINUOUS
 10
657.839111
 20
117.660004
 40
71.000000
 50
-21.630920
 51
6.068256
  0
ARC
  8
0
  6
CONTINUOUS
 10
657.839111
 20
117.660004
 40
71.000000
 50
173.931793
 51
201.630905
  0
LINE
  8
0
  6
CONTINUOUS
 10
710.839111
 20
60.985481
 11
710.839111
 21
54.660000
  0
LINE
  8
0
  6
CONTINUOUS
 10
604.839111
 20
54.660000
 11
604.839111
 21
60.848999
  0
ARC
  8
0
  6
CONTINUOUS
 10
705.839111
 20
54.660000
 40
5.000000
 50
-36.869869
 51
0.000000
  0
ARC
  8
0
  6
CONTINUOUS
 10
609.839111
 20
54.660000
 40
5.000000
 50
180.000000
 51
216.865204
  0
LINE
  8
0
  6
CONTINUOUS
 10
319.827393
 20
165.160065
 11
319.827393
 21
177.160065
  0
LINE
  8
0
  6
CONTINUOUS
 10
327.827393
 20
165.160080
 11
327.827393
 21
177.160080
  0
LINE
  8
0
  6
CONTINUOUS
 10
327.827393
 20
165.160080
 11
319.827393
 21
165.160065
  0
LINE
  8
0
  6
CONTINUOUS
 10
327.827393
 20
177.160080
 11
319.827393
 21
177.160065
  0
ARC
  8
0
  6
CONTINUOUS
 10
304.827393
 20
171.160004
 40
20.000000
 50
17.457600
 51
342.542389
  0
LINE
  8
0
  6
CONTINUOUS
 10
517.839111
 20
151.160004
 11
517.839111
 21
191.160004
  0
LINE
  8
0
  6
CONTINUOUS
 10
582.839111
 20
191.160004
 11
517.839111
 21
191.160004
  0
LINE
  8
0
  6
CONTINUOUS
 10
582.839111
 20
151.160004
 11
517.839111
 21
151.160004
  0
LINE
  8
0
  6
CONTINUOUS
 10
582.839111
 20
193.660004
 11
582.839111
 21
148.660004
  0
LINE
  8
0
  6
CONTINUOUS
 10
584.839111
 20
193.660004
 11
582.839111
 21
193.660004
  0
LINE
  8
0
  6
CONTINUOUS
 10
584.839111
 20
148.660004
 11
582.839111
 21
148.660004
  0
ARC
  8
0
  6
CONTINUOUS
 10
571.839111
 20
171.160004
 40
6.000000
 50
-90.000000
 51
90.000000
  0
LINE
  8
0
  6
CONTINUOUS
 10
571.839111
 20
177.160004
 11
517.839111
 21
177.160004
  0
LINE
  8
0
  6
CONTINUOUS
 10
571.839111
 20
165.160004
 11
517.839111
 21
165.160004
  0
LINE
  8
0
  6
CONTINUOUS
 10
192.827377
 20
72.416000
 11
192.827377
 21
186.660004
  0
LINE
  8
0
  6
CENTER
 10
-23.602148
 20
102.660004
 11
248.317383
 21
102.660004
  0
LINE
  8
0
  6
CONTINUOUS
 10
194.827377
 20
188.660004
 11
201.827377
 21
188.660004
  0
LINE
  8
0
  6
CONTINUOUS
 10
194.827377
 20
46.660019
 11
201.827377
 21
46.660019
  0
LINE
  8
0
  6
CONTINUOUS
 10
173.827377
 20
49.660000
 11
145.327377
 21
49.660000
  0
LINE
  8
0
  6
CONTINUOUS
 10
145.327377
 20
155.660004
 11
189.827362
 21
155.660004
  0
LINE
  8
0
  6
CONTINUOUS
 10
191.327377
 20
166.793976
 11
172.739120
 21
156.061920
  0
ARC
  8
0
  6
CONTINUOUS
 10
194.827408
 20
186.660004
 40
2.000000
 50
90.000000
 51
180.000000
  0
ARC
  8
0
  6
CONTINUOUS
 10
194.827377
 20
48.660000
 40
2.000000
 50
194.477707
 51
270.000000
  0
LINE
  8
0
  6
CONTINUOUS
 10
173.827377
 20
51.660000
 11
173.827377
 21
68.416000
  0
LINE
  8
0
  6
CONTINUOUS
 10
190.827377
 20
70.416000
 11
175.827377
 21
70.416000
  0
ARC
  8
0
  6
CONTINUOUS
 10
175.827377
 20
68.416023
 40
2.000000
 50
90.000000
 51
180.000000
  0
ARC
  8
0
  6
CONTINUOUS
 10
190.954407
 20
47.660000
 40
2.000000
 50
14.477280
 51
90.000000
  0
ARC
  8
0
  6
CONTINUOUS
 10
190.827377
 20
72.416000
 40
2.000000
 50
-90.000000
 51
0.000000
  0
LINE
  8
0
  6
CONTINUOUS
 10
173.827377
 20
49.660000
 11
190.954407
 21
49.660000
  0
ARC
  8
0
  6
CONTINUOUS
 10
171.827377
 20
51.660000
 40
2.000000
 50
-90.000000
 51
0.000000
  0
ARC
  8
0
  6
CONTINUOUS
 10
189.827377
 20
158.660004
 40
3.000000
 50
-90.000000
 51
0.000000
  0
ARC
  8
0
  6
CONTINUOUS
 10
189.827377
 20
169.392044
 40
3.000000
 50
-59.999660
 51
0.000000
  0
ARC
  8
0
  6
CONTINUOUS
 10
171.239105
 20
158.660004
 40
3.000000
 50
270.000000
 51
300.000305
  0
LINE
  8
0
  6
CONTINUOUS
 10
145.327377
 20
155.660004
 11
145.327377
 21
49.660000
  0
LINE
  8
0
  6
CONTINUOUS
 10
373.696503
 20
585.844177
 11
304.828033
 21
585.844177
  0
LINE
  8
0
  6
CONTINUOUS
 10
373.695892
 20
405.844177
 11
327.827393
 21
405.844269
  0
LINE
  8
0
  6
CENTER
 10
304.827393
 20
341.455353
 11
304.827942
 21
611.690002
  0
LINE
  8
0
  6
CENTER
 10
379.681183
 20
565.845032
 11
351.313141
 21
565.845032
  0
LINE
  8
0
  6
CONTINUOUS
 10
394.827698
 20
495.844238
 11
393.919708
 21
443.844208
  0
LINE
  8
0
  6
CONTINUOUS
 10
383.150482
 20
412.586761
 11
393.919708
 21
443.844208
  0
ARC
  8
0
  6
CONTINUOUS
 10
373.696106
 20
415.844238
 40
10.000000
 50
-90.000000
 51
-19.010900
  0
ARC
  8
0
  6
CONTINUOUS
 10
364.827698
 20
565.845032
 40
7.500000
 50
-46.074883
 51
212.226791
  0
LINE
  8
0
  6
CONTINUOUS
 10
394.827698
 20
495.844238
 11
393.919891
 21
547.844177
  0
LINE
  8
0
  6
CONTINUOUS
 10
383.150909
 20
579.101562
 11
393.919891
 21
547.844177
  0
ARC
  8
0
  6
CONTINUOUS
 10
373.696503
 20
575.844177
 40
10.000000
 50
19.010900
 51
90.000000
  0
LINE
  8
0
  6
CONTINUOUS
 10
214.827698
 20
495.844421
 11
215.735489
 21
443.844482
  0
LINE
  8
0
  6
CONTINUOUS
 10
226.504501
 20
412.587036
 11
215.735489
 21
443.844482
  0
ARC
  8
0
  6
CONTINUOUS
 10
235.959091
 20
415.844482
 40
10.000000
 50
199.010895
 51
270.000000
  0
LINE
  8
0
  6
CONTINUOUS
 10
214.827698
 20
495.844421
 11
215.684235
 21
544.897034
  0
LINE
  8
0
  6
CONTINUOUS
 10
226.504898
 20
579.101807
 11
216.082520
 21
548.851013
  0
LINE
  8
0
  6
CONTINUOUS
 10
203.865494
 20
566.844360
 11
201.827896
 21
566.844360
  0
LINE
  8
0
  6
CONTINUOUS
 10
201.827896
 20
566.844360
 11
201.827499
 21
424.844482
  0
LINE
  8
0
  6
CONTINUOUS
 10
212.937500
 20
553.032593
 11
210.626892
 21
561.656189
  0
ARC
  8
0
  6
CONTINUOUS
 10
203.865494
 20
559.844360
 40
7.000000
 50
14.999900
 51
90.000000
  0
ARC
  8
0
  6
CONTINUOUS
 10
219.699097
 20
554.844360
 40
7.000000
 50
-165.000305
 51
-90.000000
  0
LINE
  8
0
  6
CONTINUOUS
 10
203.865097
 20
424.844482
 11
201.827499
 21
424.844482
  0
LINE
  8
0
  6
CONTINUOUS
 10
212.937302
 20
438.656311
 11
210.626694
 21
430.032715
  0
ARC
  8
0
  6
CONTINUOUS
 10
203.865097
 20
431.844513
 40
7.000000
 50
-90.000000
 51
-14.999900
  0
ARC
  8
0
  6
CONTINUOUS
 10
219.698898
 20
436.844482
 40
7.000000
 50
121.109207
 51
165.000336
  0
ARC
  8
0
  6
CONTINUOUS
 10
235.959091
 20
575.844849
 40
10.000000
 50
90.000000
 51
160.989105
  0
ARC
  8
0
  6
CONTINUOUS
 10
244.827499
 20
565.845703
 40
7.500000
 50
-32.232941
 51
238.076355
  0
LINE
  8
0
  6
CENTER
 10
364.827423
 20
554.043396
 11
364.827881
 21
577.919800
  0
LINE
  8
0
  6
CENTER
 10
257.838104
 20
565.845154
 11
232.260345
 21
565.845154
  0
LINE
  8
0
  6
CENTER
 10
244.827698
 20
554.043396
 11
244.827896
 21
577.920044
  0
LINE
  8
0
  6
CONTINUOUS
 10
390.971802
 20
547.844666
 11
218.683777
 21
547.844666
  0
LINE
  8
0
  6
CONTINUOUS
 10
262.046936
 20
568.844666
 11
347.607849
 21
568.844666
  0
ARC
  8
0
  6
CONTINUOUS
 10
390.971802
 20
544.844666
 40
3.000000
 50
1.000152
 51
90.000000
  0
ARC
  8
0
  6
CONTINUOUS
 10
218.683777
 20
544.844666
 40
3.000000
 50
90.000000
 51
178.999634
  0
LINE
  8
0
  6
CONTINUOUS
 10
390.971802
 20
443.844635
 11
218.683777
 21
443.844635
  0
ARC
  8
0
  6
CONTINUOUS
 10
390.971802
 20
446.844635
 40
3.000000
 50
270.000000
 51
358.999847
  0
ARC
  8
0
  6
CONTINUOUS
 10
218.683777
 20
446.844635
 40
3.000000
 50
181.000366
 51
270.000000
  0
LINE
  8
0
  6
CONTINUOUS
 10
339.827606
 20
448.844635
 11
339.827606
 21
542.844666
  0
LINE
  8
0
  6
CONTINUOUS
 10
269.827606
 20
448.844635
 11
269.827606
 21
542.844666
  0
LINE
  8
0
  6
CONTINUOUS
 10
246.107605
 20
561.844666
 11
252.827377
 21
561.844666
  0
LINE
  8
0
  6
CONTINUOUS
 10
365.827484
 20
561.844666
 11
356.827393
 21
561.844666
  0
ARC
  8
0
  6
CONTINUOUS
 10
365.827484
 20
554.844666
 40
7.000000
 50
0.000000
 51
90.000000
  0
ARC
  8
0
  6
CONTINUOUS
 10
379.827484
 20
554.844666
 40
7.000000
 50
180.000000
 51
270.000000
  0
LINE
  8
0
  6
CENTER
 10
379.681183
 20
425.845093
 11
351.313141
 21
425.845093
  0
ARC
  8
0
  6
CONTINUOUS
 10
364.827698
 20
425.845093
 40
7.500000
 50
-212.226791
 51
46.074883
  0
ARC
  8
0
  6
CONTINUOUS
 10
244.827499
 20
425.844421
 40
7.500000
 50
-226.078156
 51
32.232941
  0
LINE
  8
0
  6
CENTER
 10
364.827423
 20
437.646698
 11
364.827881
 21
413.770294
  0
LINE
  8
0
  6
CENTER
 10
257.838104
 20
425.845001
 11
232.260345
 21
425.845001
  0
LINE
  8
0
  6
CENTER
 10
244.827698
 20
437.646698
 11
244.827896
 21
413.770111
  0
LINE
  8
0
  6
CONTINUOUS
 10
262.046936
 20
422.844635
 11
347.607849
 21
422.844635
  0
LINE
  8
0
  6
CONTINUOUS
 10
243.827499
 20
429.844635
 11
252.827377
 21
429.844574
  0
ARC
  8
0
  6
CONTINUOUS
 10
243.827499
 20
436.844635
 40
7.000000
 50
180.000000
 51
270.000000
  0
ARC
  8
0
  6
CONTINUOUS
 10
229.827499
 20
436.844635
 40
7.000000
 50
0.000000
 51
90.000000
  0
LINE
  8
0
  6
CONTINUOUS
 10
365.827484
 20
429.844635
 11
356.827393
 21
429.844574
  0
ARC
  8
0
  6
CONTINUOUS
 10
365.827484
 20
436.844635
 40
7.000000
 50
-90.000000
 51
0.000000
  0
ARC
  8
0
  6
CONTINUOUS
 10
379.827484
 20
436.844635
 40
7.000000
 50
90.000000
 51
180.000000
  0
LINE
  8
0
  6
CONTINUOUS
 10
239.376938
 20
556.767700
 11
238.278061
 21
552.921570
  0
ARC
  8
0
  6
CONTINUOUS
 10
246.107605
 20
554.844666
 40
7.000000
 50
90.000000
 51
164.054611
  0
ARC
  8
0
  6
CONTINUOUS
 10
231.547379
 20
554.844666
 40
7.000000
 50
-90.000000
 51
-15.945396
  0
LINE
  8
0
  6
CONTINUOUS
 10
284.827698
 20
355.844421
 11
327.827393
 21
355.844421
  0
LINE
  8
0
  6
CONTINUOUS
 10
324.827698
 20
420.844421
 11
324.827698
 21
415.844879
  0
LINE
  8
0
  6
CONTINUOUS
 10
284.827698
 20
420.844421
 11
284.827698
 21
355.844421
  0
LINE
  8
0
  6
CONTINUOUS
 10
327.327698
 20
420.844421
 11
282.327698
 21
420.844421
  0
LINE
  8
0
  6
CONTINUOUS
 10
327.327698
 20
422.844421
 11
327.327698
 21
420.844421
  0
LINE
  8
0
  6
CONTINUOUS
 10
282.327698
 20
422.844421
 11
282.327698
 21
420.844421
  0
LINE
  8
0
  6
CONTINUOUS
 10
304.828033
 20
585.844299
 11
235.959503
 21
585.844360
  0
LINE
  8
0
  6
CONTINUOUS
 10
284.827698
 20
405.844330
 11
235.959091
 21
405.844421
  0
LINE
  8
0
  6
CONTINUOUS
 10
327.827393
 20
355.844879
 11
327.827393
 21
415.844879
  0
LINE
  8
0
  6
CONTINUOUS
 10
323.906372
 20
415.844879
 11
327.827393
 21
415.844879
  0
LINE
  8
0
  6
CONTINUOUS
 10
256.732117
 20
566.400208
 11
252.827377
 21
561.844666
  0
ARC
  8
0
  6
CONTINUOUS
 10
262.046936
 20
561.844666
 40
7.000000
 50
90.000000
 51
139.398712
  0
LINE
  8
0
  6
CONTINUOUS
 10
352.922638
 20
566.400208
 11
356.827393
 21
561.844666
  0
ARC
  8
0
  6
CONTINUOUS
 10
347.607849
 20
561.844666
 40
7.000000
 50
40.601295
 51
90.000000
  0
LINE
  8
0
  6
CONTINUOUS
 10
352.922638
 20
425.289032
 11
356.827393
 21
429.844574
  0
ARC
  8
0
  6
CONTINUOUS
 10
347.607849
 20
429.844574
 40
7.000000
 50
-90.000000
 51
-40.601295
  0
LINE
  8
0
  6
CONTINUOUS
 10
256.732117
 20
425.289032
 11
252.827377
 21
429.844574
  0
ARC
  8
0
  6
CONTINUOUS
 10
262.046936
 20
429.844574
 40
7.000000
 50
-139.398712
 51
-90.000000
  0
LINE
  8
0
  6
CONTINUOUS
 10
323.906372
 20
415.844879
 11
323.906372
 21
355.844421
  0
LINE
  8
0
  6
CENTER
 10
418.028625
 20
495.844421
 11
-26.417774
 21
495.844421
  0
LINE
  8
0
  6
CONTINUOUS
 10
194.827896
 20
566.844421
 11
201.827896
 21
566.844421
  0
LINE
  8
0
  6
CONTINUOUS
 10
192.827896
 20
426.844421
 11
192.827896
 21
564.844421
  0
LINE
  8
0
  6
CONTINUOUS
 10
194.827896
 20
424.844421
 11
201.827499
 21
424.844421
  0
LINE
  8
0
  6
CONTINUOUS
 10
145.327896
 20
548.844421
 11
192.827896
 21
548.844421
  0
LINE
  8
0
  6
CONTINUOUS
 10
145.327896
 20
442.844421
 11
192.827896
 21
442.844421
  0
LINE
  8
0
  6
CONTINUOUS
 10
145.327896
 20
548.844421
 11
145.327896
 21
442.844421
  0
ARC
  8
0
  6
CONTINUOUS
 10
194.827896
 20
564.844421
 40
2.000000
 50
90.000000
 51
180.000000
  0
ARC
  8
0
  6
CONTINUOUS
 10
194.827896
 20
426.844421
 40
2.000000
 50
180.000000
 51
270.000000
  0
ARC
  8
0
  6
CONTINUOUS
 10
192.042969
 20
495.844421
 40
20.000000
 50
141.561295
 51
180.000000
  0
LINE
  8
0
  6
CONTINUOUS
 10
192.827896
 20
529.004456
 11
176.377502
 21
508.277954
  0
ARC
  8
0
  6
CONTINUOUS
 10
192.042969
 20
495.844421
 40
20.000000
 50
-180.000000
 51
-141.561295
  0
LINE
  8
0
  6
CONTINUOUS
 10
192.827896
 20
462.684418
 11
176.377502
 21
483.410889
  0
LINE
  8
0
  6
CONTINUOUS
 10
15.327382
 20
442.844421
 11
15.327382
 21
470.844421
  0
LINE
  8
0
  6
CONTINUOUS
 10
15.327382
 20
548.844421
 11
145.327377
 21
548.844421
  0
LINE
  8
0
  6
CONTINUOUS
 10
15.327382
 20
442.844421
 11
145.327377
 21
442.844421
  0
LINE
  8
0
  6
CONTINUOUS
 10
15.327382
 20
527.344421
 11
135.327377
 21
527.344421
  0
LINE
  8
0
  6
CONTINUOUS
 10
15.327382
 20
464.344421
 11
135.327377
 21
464.344421
  0
LINE
  8
0
  6
CONTINUOUS
 10
135.327377
 20
546.844421
 11
135.327377
 21
527.344421
  0
ARC
  8
0
  6
CONTINUOUS
 10
137.327377
 20
546.844421
 40
2.000000
 50
90.000000
 51
180.000000
  0
ARC
  8
0
  6
CONTINUOUS
 10
137.327377
 20
444.844421
 40
2.000000
 50
180.000000
 51
270.000000
  0
LINE
  8
0
  6
CONTINUOUS
 10
-5.172618
 20
495.844421
 11
-5.172618
 21
540.844421
  0
LINE
  8
0
  6
CONTINUOUS
 10
-5.172618
 20
495.844421
 11
-5.172618
 21
450.844421
  0
LINE
  8
0
  6
CONTINUOUS
 10
-4.672618
 20
544.844421
 11
-4.672618
 21
450.844421
  0
LINE
  8
0
  6
CONTINUOUS
 10
0.417561
 20
548.844421
 11
15.327382
 21
548.844421
  0
LINE
  8
0
  6
CONTINUOUS
 10
0.417561
 20
442.844421
 11
15.327382
 21
442.844421
  0
LINE
  8
0
  6
CONTINUOUS
 10
-4.672618
 20
450.844421
 11
-4.672618
 21
446.844421
  0
LINE
  8
0
  6
CONTINUOUS
 10
-4.054576
 20
546.080505
 11
-4.672618
 21
544.844421
  0
ARC
  8
0
  6
CONTINUOUS
 10
0.417561
 20
543.844421
 40
5.000000
 50
90.000000
 51
153.435196
  0
LINE
  8
0
  6
CONTINUOUS
 10
-4.054576
 20
445.608368
 11
-4.672618
 21
446.844421
  0
ARC
  8
0
  6
CONTINUOUS
 10
0.417561
 20
447.844421
 40
5.000000
 50
206.565002
 51
270.000000
  0
LINE
  8
0
  6
CONTINUOUS
 10
-5.172618
 20
450.844421
 11
-4.672618
 21
450.344421
  0
LINE
  8
0
  6
CONTINUOUS
 10
-5.172618
 20
540.844421
 11
-4.672618
 21
541.344421
  0
LINE
  8
0
  6
CONTINUOUS
 10
15.327382
 20
527.344421
 11
-2.797618
 21
527.344421
  0
LINE
  8
0
  6
CONTINUOUS
 10
15.327382
 20
464.344421
 11
-2.797618
 21
464.344421
  0
LINE
  8
0
  6
CONTINUOUS
 10
15.327382
 20
520.844421
 11
15.327382
 21
548.844421
  0
LINE
  8
0
  6
CONTINUOUS
 10
5.327382
 20
503.344421
 11
6.327382
 21
503.344421
  0
ARC
  8
0
  6
CONTINUOUS
 10
5.327402
 20
502.344421
 40
1.000000
 50
90.000000
 51
180.000000
  0
LINE
  8
0
  6
CONTINUOUS
 10
0.827397
 20
499.844421
 11
0.827397
 21
491.844421
  0
LINE
  8
0
  6
CONTINUOUS
 10
0.827397
 20
499.844421
 11
4.327397
 21
501.344421
  0
LINE
  8
0
  6
CONTINUOUS
 10
0.827382
 20
491.844421
 11
4.327382
 21
490.344421
  0
LINE
  8
0
  6
CONTINUOUS
 10
4.327397
 20
502.344421
 11
4.327397
 21
489.344421
  0
LINE
  8
0
  6
CONTINUOUS
 10
5.327382
 20
488.344421
 11
6.327382
 21
488.344421
  0
ARC
  8
0
  6
CONTINUOUS
 10
5.327402
 20
489.344421
 40
1.000000
 50
-180.000000
 51
-90.000000
  0
LINE
  8
0
  6
CONTINUOUS
 10
6.327382
 20
472.844421
 11
6.327382
 21
518.844421
  0
LINE
  8
0
  6
CONTINUOUS
 10
8.327382
 20
520.844421
 11
6.327382
 21
518.844421
  0
LINE
  8
0
  6
CONTINUOUS
 10
8.327382
 20
520.844421
 11
54.327374
 21
520.844421
  0
LINE
  8
0
  6
CONTINUOUS
 10
48.827381
 20
516.344421
 11
48.827381
 21
520.844421
  0
ARC
  8
0
  6
CONTINUOUS
 10
51.827381
 20
516.344421
 40
3.000000
 50
180.000000
 51
270.000000
  0
LINE
  8
0
  6
CONTINUOUS
 10
51.827381
 20
513.344421
 11
56.327374
 21
513.344421
  0
CIRCLE
  8
0
  6
CONTINUOUS
 10
52.827381
 20
517.344421
 40
2.250000
  0
LINE
  8
0
  6
CONTINUOUS
 10
56.327377
 20
472.844421
 11
56.327374
 21
518.844421
  0
LINE
  8
0
  6
CONTINUOUS
 10
54.327374
 20
520.844421
 11
56.327374
 21
518.844421
  0
LINE
  8
0
  6
CONTINUOUS
 10
54.327377
 20
470.844421
 11
56.327377
 21
472.844421
  0
LINE
  8
0
  6
CONTINUOUS
 10
54.327377
 20
470.844421
 11
8.327382
 21
470.844421
  0
LINE
  8
0
  6
CONTINUOUS
 10
6.327382
 20
472.844421
 11
8.327382
 21
470.844421
  0
LINE
  8
0
  6
CONTINUOUS
 10
10.827382
 20
478.344421
 11
6.327392
 21
478.344421
  0
CIRCLE
  8
0
  6
CONTINUOUS
 10
9.827382
 20
474.344421
 40
2.250000
  0
ARC
  8
0
  6
CONTINUOUS
 10
10.827382
 20
475.344421
 40
3.000000
 50
0.000000
 51
90.000000
  0
LINE
  8
0
  6
CONTINUOUS
 10
13.827382
 20
475.344421
 11
13.827382
 21
470.844421
  0
LINE
  8
0
  6
CENTER
 10
31.327381
 20
463.378632
 11
31.327381
 21
527.510681
  0
LINE
  8
0
  6
CONTINUOUS
 10
8.741601
 20
519.844421
 11
7.327388
 21
518.430237
  0
LINE
  8
0
  6
CONTINUOUS
 10
7.327388
 20
478.344421
 11
7.327388
 21
518.430237
  0
LINE
  8
0
  6
CONTINUOUS
 10
48.827381
 20
519.844421
 11
8.741601
 21
519.844421
  0
LINE
  8
0
  6
CONTINUOUS
 10
55.327377
 20
513.344421
 11
55.327377
 21
473.258636
  0
LINE
  8
0
  6
CONTINUOUS
 10
13.827382
 20
471.844421
 11
53.913162
 21
471.844421
  0
LINE
  8
0
  6
CONTINUOUS
 10
53.913162
 20
471.844421
 11
55.327377
 21
473.258636
  0
LINE
  8
0
  6
CONTINUOUS
 10
7.827382
 20
157.160019
 11
54.327381
 21
157.160019
  0
LINE
  8
0
  6
CONTINUOUS
 10
56.327374
 20
187.160019
 11
56.327381
 21
159.160019
  0
LINE
  8
0
  6
CONTINUOUS
 10
6.327382
 20
187.160019
 11
6.327382
 21
159.160019
  0
LINE
  8
0
  6
CONTINUOUS
 10
4.327382
 20
169.160019
 11
56.327381
 21
169.160019
  0
LINE
  8
0
  6
CONTINUOUS
 10
54.327381
 20
157.160019
 11
56.327381
 21
159.160019
  0
LINE
  8
0
  6
CONTINUOUS
 10
6.327382
 20
159.160019
 11
8.327382
 21
157.160019
  0
LINE
  8
0
  6
CONTINUOUS
 10
6.327382
 20
159.160019
 11
56.327381
 21
159.160019
  0
LINE
  8
0
  6
CONTINUOUS
 10
7.327382
 20
188.160019
 11
55.327374
 21
188.160019
  0
LINE
  8
0
  6
CONTINUOUS
 10
55.327374
 20
188.160019
 11
56.327374
 21
187.160019
  0
LINE
  8
0
  6
CONTINUOUS
 10
7.327382
 20
188.160019
 11
6.327382
 21
187.160019
  0
LINE
  8
0
  6
CONTINUOUS
 10
6.327382
 20
187.160019
 11
56.327374
 21
187.160019
  0
LINE
  8
0
  6
CENTER
 10
-1.616374
 20
178.660019
 11
10.458632
 21
178.660019
  0
LINE
  8
0
  6
CONTINUOUS
 10
4.327397
 20
185.160019
 11
4.327382
 21
169.160019
  0
LINE
  8
0
  6
CONTINUOUS
 10
5.327382
 20
186.160019
 11
6.327382
 21
186.160019
  0
ARC
  8
0
  6
CONTINUOUS
 10
5.327402
 20
185.160019
 40
1.000000
 50
90.000000
 51
180.000000
  0
LINE
  8
0
  6
CONTINUOUS
 10
0.827397
 20
182.660019
 11
0.827397
 21
174.660019
  0
LINE
  8
0
  6
CONTINUOUS
 10
0.827397
 20
182.660019
 11
4.327397
 21
184.160019
  0
LINE
  8
0
  6
CONTINUOUS
 10
0.827382
 20
174.660019
 11
4.327382
 21
173.160019
  0
LINE
  8
0
  6
CENTER
 10
31.327381
 20
149.330643
 11
31.327381
 21
196.918137
  0
LINE
  8
0
  6
CONTINUOUS
 10
7.827382
 20
157.160019
 11
7.827382
 21
155.660019
  0
LINE
  8
0
  6
CONTINUOUS
 10
53.827381
 20
157.160019
 11
53.827381
 21
155.660019
  0
LINE
  8
0
  6
CONTINUOUS
 10
135.327377
 20
464.344421
 11
135.327377
 21
444.844421
  0
TEXT
  8
0
 10
-26.000000
 20
-10.000000
 40
4.000000
 41
1.000000
  1
HLM-40R-1200~1800-T90WT
 50
0.000000
  0
ENDSEC
  0
EOF
