  0
SECTION
  2
HEADER
  9
$CLAYER
  8
1
  9
$LTSCALE
 40
3.0
  0
ENDSEC
  0
SECTION
  2
TABLES
  0
TABLE
  2
LTYPE
 70
     4
  0
LTYPE
  2
CONTINUOUS
  3
solid line
 70
    64
 72
    65
 73
     0
 40
0.0
  0
LTYPE
  2
DASHED
  3
__ __ __ __ __ __ __ __ __ __ __ __ __ __ __
 70
    64
 72
    65
 73
     2
 40
0.75
 49
0.5
 49
-0.25
  0
LTYPE
  2
CENTER
  3
____ _ ____ _ ____ _ ____ _ ____ _ ____ _ ____
 70
    64
 72
    65
 73
     4
 40
2.0
 49
1.25
 49
-0.25
 49
0.25
 49
-0.25
  0
LTYPE
  2
PHANTOM
  3
_____ _ _ _____ _ _ _____ _ _ _____ _ _ ____
 70
    64
 72
    65
 73
     6
 40
2.5
 49
1.25
 49
-0.25
 49
0.25
 49
-0.25
 49
0.25
 49
-0.25
  0
ENDTAB
  0
TABLE
  2
LAYER
 70
     1
  0
LAYER
  2
0
 70
    64
 62
     7
  6
CONTINUOUS
  0
ENDTAB
  0
TABLE
  2
STYLE
 70
     1
  0
STYLE
  2
STANDARD
 70
     0
 40
0.000000
 41
1.000000
 50
0.000000
 71
     0
 42
3.000000
  3
txt
  4
BIGFONT
  0
ENDTAB
  0
ENDSEC
  0
SECTION
  2
BLOCKS
  0
ENDSEC
  0
SECTION
  2
ENTITIES
  0
LINE
  8
0
  6
CONTINUOUS
 10
244.822388
 20
40.212502
 11
244.822388
 21
182.212494
  0
LINE
  8
0
  6
CENTER
 10
145.205002
 20
111.212502
 11
291.312378
 21
111.212502
  0
LINE
  8
0
  6
CENTER
 10
347.822388
 20
254.567505
 11
347.822388
 21
-14.427500
  0
LINE
  8
0
  6
CENTER
 10
273.130005
 20
164.712494
 11
422.834991
 21
164.712494
  0
LINE
  8
0
  6
CONTINUOUS
 10
257.822388
 20
-0.287500
 11
437.822388
 21
-0.287500
  0
LINE
  8
0
  6
CONTINUOUS
 10
257.822388
 20
19.712500
 11
437.822388
 21
19.712500
  0
LINE
  8
0
  6
CONTINUOUS
 10
316.007996
 20
242.212494
 11
379.636780
 21
242.212494
  0
LINE
  8
0
  6
CONTINUOUS
 10
437.822388
 20
198.044495
 11
437.822388
 21
-0.287500
  0
LINE
  8
0
  6
CONTINUOUS
 10
257.822388
 20
198.044495
 11
257.822388
 21
-0.287500
  0
LINE
  8
0
  6
CONTINUOUS
 10
244.822388
 20
182.212494
 11
252.822388
 21
182.212494
  0
LINE
  8
0
  6
CONTINUOUS
 10
244.822388
 20
40.212502
 11
252.822388
 21
40.212502
  0
LINE
  8
0
  6
CONTINUOUS
 10
385.420990
 20
240.369843
 11
433.606781
 21
206.201813
  0
LINE
  8
0
  6
CONTINUOUS
 10
262.038177
 20
206.201813
 11
310.223785
 21
240.369843
  0
ARC
  8
0
  6
CONTINUOUS
 10
427.822388
 20
198.044464
 40
10.000000
 50
0.000000
 51
54.660099
  0
ARC
  8
0
  6
CONTINUOUS
 10
379.636780
 20
232.212494
 40
10.000000
 50
54.659950
 51
90.000000
  0
ARC
  8
0
  6
CONTINUOUS
 10
316.007996
 20
232.212494
 40
10.000000
 50
90.000000
 51
125.340302
  0
ARC
  8
0
  6
CONTINUOUS
 10
267.822388
 20
198.044540
 40
10.000000
 50
125.340500
 51
180.000000
  0
ARC
  8
0
  6
CONTINUOUS
 10
252.822388
 20
187.212494
 40
5.000000
 50
-90.000000
 51
0.000000
  0
ARC
  8
0
  6
CONTINUOUS
 10
252.822388
 20
35.212479
 40
5.000000
 50
0.000000
 51
90.000000
  0
LINE
  8
0
  6
CENTER
 10
407.822388
 20
25.467501
 11
407.822388
 21
-8.502500
  0
LINE
  8
0
  6
CENTER
 10
287.822388
 20
26.652500
 11
287.822388
 21
-8.107500
  0
LINE
  8
0
  6
DASHED
 10
400.322388
 20
19.712500
 11
400.322388
 21
-0.287500
  0
LINE
  8
0
  6
DASHED
 10
415.322388
 20
19.712500
 11
415.322388
 21
-0.287500
  0
LINE
  8
0
  6
DASHED
 10
295.322388
 20
19.712500
 11
295.322388
 21
-0.287500
  0
LINE
  8
0
  6
DASHED
 10
280.322388
 20
19.712500
 11
280.322388
 21
-0.287500
  0
LINE
  8
0
  6
CONTINUOUS
 10
423.822388
 20
17.027180
 11
423.822388
 21
-0.287500
  0
LINE
  8
0
  6
CONTINUOUS
 10
271.822388
 20
17.027180
 11
271.822388
 21
-0.287500
  0
LINE
  8
0
  6
CONTINUOUS
 10
381.579773
 20
24.712500
 11
314.064972
 21
24.712500
  0
LINE
  8
0
  6
CONTINUOUS
 10
312.822388
 20
23.575621
 11
312.822388
 21
20.712500
  0
LINE
  8
0
  6
CONTINUOUS
 10
382.822388
 20
23.575621
 11
382.822388
 21
20.712500
  0
LINE
  8
0
  6
CONTINUOUS
 10
383.700989
 20
23.833820
 11
386.357971
 21
21.176941
  0
LINE
  8
0
  6
CONTINUOUS
 10
311.943787
 20
23.833820
 11
309.286774
 21
21.177000
  0
ARC
  8
0
  6
CONTINUOUS
 10
305.751373
 20
24.712500
 40
5.000000
 50
270.000000
 51
315.000092
  0
ARC
  8
0
  6
CONTINUOUS
 10
389.893372
 20
24.712500
 40
5.000000
 50
225.000107
 51
270.000000
  0
ARC
  8
0
  6
CONTINUOUS
 10
314.064972
 20
21.712500
 40
3.000000
 50
90.000000
 51
135.000397
  0
ARC
  8
0
  6
CONTINUOUS
 10
381.579773
 20
21.712500
 40
3.000000
 50
45.000259
 51
90.000000
  0
ARC
  8
0
  6
CONTINUOUS
 10
311.822388
 20
20.712500
 40
1.000000
 50
-90.000000
 51
0.000000
  0
ARC
  8
0
  6
CONTINUOUS
 10
383.822388
 20
20.712500
 40
1.000000
 50
180.000000
 51
270.000000
  0
CIRCLE
  8
0
  6
CONTINUOUS
 10
347.822388
 20
164.712494
 40
46.000000
  0
ARC
  8
0
  6
CONTINUOUS
 10
347.822388
 20
164.712494
 40
52.000000
 50
12.522720
 51
167.477402
  0
ARC
  8
0
  6
CONTINUOUS
 10
347.822388
 20
164.712494
 40
48.000000
 50
-192.522598
 51
12.522720
  0
ARC
  8
0
  6
CONTINUOUS
 10
317.822388
 20
94.212502
 40
34.000000
 50
167.477402
 51
270.000000
  0
ARC
  8
0
  6
CONTINUOUS
 10
317.822388
 20
94.212502
 40
38.000000
 50
167.477402
 51
270.000000
  0
ARC
  8
0
  6
CONTINUOUS
 10
377.822388
 20
94.212502
 40
34.000000
 50
-90.000000
 51
12.522730
  0
ARC
  8
0
  6
CONTINUOUS
 10
377.822388
 20
94.212502
 40
38.000000
 50
-90.000000
 51
12.522720
  0
LINE
  8
0
  6
CONTINUOUS
 10
280.726379
 20
102.451866
 11
297.059387
 21
175.987396
  0
LINE
  8
0
  6
CONTINUOUS
 10
398.585388
 20
175.987503
 11
414.918396
 21
102.451927
  0
LINE
  8
0
  6
CONTINUOUS
 10
394.680389
 20
175.120178
 11
411.013580
 21
101.584618
  0
LINE
  8
0
  6
CONTINUOUS
 10
284.631195
 20
101.584564
 11
300.964386
 21
175.120117
  0
LINE
  8
0
  6
CONTINUOUS
 10
317.822388
 20
60.212502
 11
377.822388
 21
60.212502
  0
LINE
  8
0
  6
CONTINUOUS
 10
317.822388
 20
56.212502
 11
377.822388
 21
56.212502
  0
LINE
  8
0
  6
CONTINUOUS
 10
335.595367
 20
78.212502
 11
330.654968
 21
78.212502
  0
LINE
  8
0
  6
CONTINUOUS
 10
338.322388
 20
86.487900
 11
338.322388
 21
78.212502
  0
LINE
  8
0
  6
CONTINUOUS
 10
343.072388
 20
89.493736
 11
343.072388
 21
92.462502
  0
LINE
  8
0
  6
CONTINUOUS
 10
352.572388
 20
89.493736
 11
352.572388
 21
92.462502
  0
LINE
  8
0
  6
CONTINUOUS
 10
346.894592
 20
90.718361
 11
346.894592
 21
79.771103
  0
LINE
  8
0
  6
CONTINUOUS
 10
348.675995
 20
90.718361
 11
348.675995
 21
79.771103
  0
LINE
  8
0
  6
CONTINUOUS
 10
358.027588
 20
90.718361
 11
358.027588
 21
79.696877
  0
LINE
  8
0
  6
CONTINUOUS
 10
359.660370
 20
84.873642
 11
359.660370
 21
79.696877
  0
LINE
  8
0
  6
CONTINUOUS
 10
336.068390
 20
90.569923
 11
331.490784
 21
90.569923
  0
LINE
  8
0
  6
CONTINUOUS
 10
331.490784
 20
90.569923
 11
330.418182
 21
89.239922
  0
LINE
  8
0
  6
CONTINUOUS
 10
330.547180
 20
92.462502
 11
328.822388
 21
90.254044
  0
LINE
  8
0
  6
CONTINUOUS
 10
330.418182
 20
81.030342
 11
331.507996
 21
79.882423
  0
LINE
  8
0
  6
CONTINUOUS
 10
328.822388
 20
80.061623
 11
330.654968
 21
78.212502
  0
LINE
  8
0
  6
CONTINUOUS
 10
328.822388
 20
90.254044
 11
328.822388
 21
80.061623
  0
LINE
  8
0
  6
CONTINUOUS
 10
330.418182
 20
89.239922
 11
330.418182
 21
81.030342
  0
LINE
  8
0
  6
CONTINUOUS
 10
336.949371
 20
89.718361
 11
336.050385
 21
90.569923
  0
LINE
  8
0
  6
CONTINUOUS
 10
336.934967
 20
92.462502
 11
338.322388
 21
90.922920
  0
LINE
  8
0
  6
CONTINUOUS
 10
336.949371
 20
89.493736
 11
338.322388
 21
89.493736
  0
LINE
  8
0
  6
CONTINUOUS
 10
330.547180
 20
92.462502
 11
336.934967
 21
92.462502
  0
LINE
  8
0
  6
CONTINUOUS
 10
334.462982
 20
86.487900
 11
338.322388
 21
86.487900
  0
LINE
  8
0
  6
CONTINUOUS
 10
336.949371
 20
84.929298
 11
334.462982
 21
84.929298
  0
LINE
  8
0
  6
CONTINUOUS
 10
333.980591
 20
79.882423
 11
331.507996
 21
79.882423
  0
LINE
  8
0
  6
CONTINUOUS
 10
336.949371
 20
83.444923
 11
336.949371
 21
84.632423
  0
ARC
  8
0
  6
CONTINUOUS
 10
333.980591
 20
82.851158
 40
2.968750
 50
-89.999786
 51
0.000109
  0
LINE
  8
0
  6
CONTINUOUS
 10
336.949371
 20
79.348419
 11
336.949371
 21
78.212502
  0
LINE
  8
0
  6
CONTINUOUS
 10
338.322388
 20
90.922920
 11
338.322388
 21
89.493736
  0
LINE
  8
0
  6
CONTINUOUS
 10
336.949371
 20
84.929298
 11
336.949371
 21
82.851158
  0
LINE
  8
0
  6
CONTINUOUS
 10
334.462982
 20
86.487900
 11
334.462982
 21
84.929298
  0
LINE
  8
0
  6
CONTINUOUS
 10
336.949371
 20
78.212502
 11
338.322388
 21
78.212502
  0
LINE
  8
0
  6
CONTINUOUS
 10
336.949371
 20
79.348419
 11
335.595367
 21
78.212502
  0
LINE
  8
0
  6
CONTINUOUS
 10
348.675995
 20
79.771103
 11
349.269592
 21
79.771103
  0
LINE
  8
0
  6
CONTINUOUS
 10
346.189575
 20
79.771103
 11
346.189575
 21
78.212502
  0
LINE
  8
0
  6
CONTINUOUS
 10
349.269592
 20
79.771103
 11
349.269592
 21
78.212502
  0
LINE
  8
0
  6
CONTINUOUS
 10
351.581390
 20
89.493736
 11
352.572388
 21
89.493736
  0
LINE
  8
0
  6
CONTINUOUS
 10
343.072388
 20
89.493736
 11
344.126984
 21
89.493736
  0
LINE
  8
0
  6
CONTINUOUS
 10
343.072388
 20
92.462502
 11
352.572388
 21
92.462502
  0
LINE
  8
0
  6
CONTINUOUS
 10
346.189575
 20
78.212502
 11
349.269592
 21
78.212502
  0
LINE
  8
0
  6
CONTINUOUS
 10
346.189575
 20
79.771103
 11
346.894592
 21
79.771103
  0
ARC
  8
0
  6
CONTINUOUS
 10
363.018585
 20
88.658783
 40
3.803712
 50
-73.981873
 51
90.003510
  0
ARC
  8
0
  6
CONTINUOUS
 10
363.018585
 20
88.658783
 40
2.320524
 50
-82.585274
 51
62.411850
  0
LINE
  8
0
  6
CONTINUOUS
 10
357.322388
 20
92.462502
 11
363.018585
 21
92.462502
  0
LINE
  8
0
  6
CONTINUOUS
 10
363.318176
 20
86.357658
 11
359.660370
 21
86.357658
  0
LINE
  8
0
  6
CONTINUOUS
 10
357.322388
 20
92.462502
 11
357.322388
 21
90.718361
  0
LINE
  8
0
  6
CONTINUOUS
 10
359.660370
 20
90.718361
 11
359.660370
 21
86.357658
  0
LINE
  8
0
  6
CONTINUOUS
 10
364.068176
 20
85.002762
 11
366.422577
 21
79.696877
  0
LINE
  8
0
  6
CONTINUOUS
 10
362.700989
 20
84.873642
 11
364.928772
 21
79.696877
  0
LINE
  8
0
  6
CONTINUOUS
 10
357.322388
 20
79.696877
 11
358.027588
 21
79.696877
  0
LINE
  8
0
  6
CONTINUOUS
 10
359.660370
 20
79.696877
 11
360.309784
 21
79.696877
  0
LINE
  8
0
  6
CONTINUOUS
 10
360.309784
 20
78.212502
 11
357.322388
 21
78.212502
  0
LINE
  8
0
  6
CONTINUOUS
 10
364.632996
 20
79.696877
 11
364.928772
 21
79.696877
  0
LINE
  8
0
  6
CONTINUOUS
 10
366.422577
 20
79.696877
 11
366.822388
 21
79.696877
  0
LINE
  8
0
  6
CONTINUOUS
 10
364.632996
 20
78.212502
 11
366.822388
 21
78.212502
  0
LINE
  8
0
  6
CONTINUOUS
 10
366.822388
 20
79.696877
 11
366.822388
 21
78.212502
  0
LINE
  8
0
  6
CONTINUOUS
 10
364.632996
 20
79.696877
 11
364.632996
 21
78.212502
  0
LINE
  8
0
  6
CONTINUOUS
 10
360.309784
 20
79.696877
 11
360.309784
 21
78.212502
  0
LINE
  8
0
  6
CONTINUOUS
 10
357.322388
 20
79.696877
 11
357.322388
 21
78.212502
  0
LINE
  8
0
  6
CONTINUOUS
 10
344.637177
 20
90.718361
 11
344.126984
 21
89.493736
  0
LINE
  8
0
  6
CONTINUOUS
 10
351.151184
 20
90.718361
 11
351.581390
 21
89.493736
  0
LINE
  8
0
  6
CONTINUOUS
 10
348.675995
 20
90.718361
 11
351.151184
 21
90.718361
  0
LINE
  8
0
  6
CONTINUOUS
 10
346.894592
 20
90.718361
 11
344.637177
 21
90.718361
  0
LINE
  8
0
  6
CONTINUOUS
 10
359.660370
 20
84.873642
 11
362.700989
 21
84.873642
  0
LINE
  8
0
  6
CONTINUOUS
 10
357.322388
 20
90.718361
 11
358.027588
 21
90.718361
  0
LINE
  8
0
  6
CONTINUOUS
 10
359.660370
 20
90.718361
 11
364.093384
 21
90.715477
  0
LINE
  8
0
  6
CONTINUOUS
 10
336.949371
 20
89.718361
 11
336.949371
 21
89.493736
  0
ARC
  8
0
  6
CONTINUOUS
 10
467.503967
 20
111.212502
 40
215.181595
 50
167.017899
 51
192.982101
  0
LINE
  8
0
  6
CONTINUOUS
 10
58.322384
 20
149.212494
 11
188.322388
 21
149.212494
  0
LINE
  8
0
  6
CONTINUOUS
 10
58.322384
 20
43.212502
 11
188.322388
 21
43.212502
  0
LINE
  8
0
  6
CONTINUOUS
 10
58.322384
 20
138.835846
 11
176.984146
 21
138.835846
  0
LINE
  8
0
  6
CONTINUOUS
 10
58.322384
 20
53.589142
 11
176.984146
 21
53.589142
  0
LINE
  8
0
  6
CONTINUOUS
 10
178.322388
 20
147.212494
 11
178.322388
 21
45.212479
  0
ARC
  8
0
  6
CONTINUOUS
 10
180.322388
 20
147.212524
 40
2.000000
 50
90.000000
 51
180.000000
  0
ARC
  8
0
  6
CONTINUOUS
 10
180.322388
 20
45.212502
 40
2.000000
 50
180.000000
 51
270.000000
  0
LINE
  8
0
  6
CENTER
 10
690.171570
 20
-16.797501
 11
690.171570
 21
255.357498
  0
LINE
  8
0
  6
CENTER
 10
589.369202
 20
111.212502
 11
786.079224
 21
111.212502
  0
LINE
  8
0
  6
CENTER
 10
534.359985
 20
164.712494
 11
847.608398
 21
164.712494
  0
LINE
  8
0
  6
CENTER
 10
620.171570
 20
31.392500
 11
620.171570
 21
-7.317500
  0
LINE
  8
0
  6
CENTER
 10
760.171570
 20
28.627501
 11
760.171570
 21
-8.107500
  0
LINE
  8
0
  6
DASHED
 10
752.671570
 20
19.712500
 11
752.671570
 21
-0.287500
  0
LINE
  8
0
  6
DASHED
 10
767.671570
 20
19.712500
 11
767.671570
 21
-0.287500
  0
LINE
  8
0
  6
DASHED
 10
627.671570
 20
19.712500
 11
627.671570
 21
-0.287500
  0
LINE
  8
0
  6
DASHED
 10
612.671570
 20
19.712500
 11
612.671570
 21
-0.287500
  0
LINE
  8
0
  6
CONTINUOUS
 10
600.171570
 20
-0.287500
 11
655.171570
 21
-0.287500
  0
LINE
  8
0
  6
CONTINUOUS
 10
725.171570
 20
-0.287500
 11
780.171570
 21
-0.287500
  0
LINE
  8
0
  6
CONTINUOUS
 10
747.171570
 20
19.712500
 11
777.171570
 21
19.712500
  0
LINE
  8
0
  6
CONTINUOUS
 10
603.171570
 20
19.712500
 11
633.171570
 21
19.712500
  0
LINE
  8
0
  6
CONTINUOUS
 10
600.171570
 20
17.081381
 11
600.171570
 21
-0.287480
  0
LINE
  8
0
  6
CONTINUOUS
 10
780.171570
 20
17.081381
 11
780.171570
 21
-0.287500
  0
LINE
  8
0
  6
CONTINUOUS
 10
742.171570
 20
221.992599
 11
742.171570
 21
237.374268
  0
LINE
  8
0
  6
CONTINUOUS
 10
638.171570
 20
237.373886
 11
638.171570
 21
-0.287500
  0
LINE
  8
0
  6
CONTINUOUS
 10
656.671570
 20
1.212500
 11
723.671570
 21
1.212500
  0
LINE
  8
0
  6
CONTINUOUS
 10
642.616211
 20
203.212494
 11
738.403381
 21
203.212494
  0
LINE
  8
0
  6
CONTINUOUS
 10
738.241394
 20
241.373642
 11
690.171570
 21
242.212524
  0
LINE
  8
0
  6
CONTINUOUS
 10
642.101807
 20
241.373276
 11
690.171570
 21
242.212524
  0
LINE
  8
0
  6
CONTINUOUS
 10
617.171570
 20
123.992607
 11
617.171570
 21
205.432373
  0
LINE
  8
0
  6
CONTINUOUS
 10
763.171570
 20
123.992607
 11
763.171570
 21
205.432373
  0
LINE
  8
0
  6
CONTINUOUS
 10
624.171570
 20
65.492599
 11
624.171570
 21
168.852783
  0
LINE
  8
0
  6
CONTINUOUS
 10
756.171570
 20
65.492622
 11
756.171570
 21
168.852783
  0
ARC
  8
0
  6
CONTINUOUS
 10
642.171570
 20
237.373901
 40
4.000000
 50
91.000580
 51
180.000000
  0
ARC
  8
0
  6
CONTINUOUS
 10
738.171570
 20
237.374237
 40
4.000000
 50
0.000000
 51
89.000359
  0
LINE
  8
0
  6
CONTINUOUS
 10
622.248596
 20
212.163055
 11
633.094604
 21
215.261932
  0
LINE
  8
0
  6
CONTINUOUS
 10
747.248596
 20
215.261932
 11
758.094604
 21
212.163055
  0
LINE
  8
0
  6
CONTINUOUS
 10
629.248596
 20
58.761940
 11
633.094604
 21
57.663059
  0
LINE
  8
0
  6
CONTINUOUS
 10
751.094604
 20
58.761940
 11
747.248596
 21
57.663059
  0
LINE
  8
0
  6
CONTINUOUS
 10
777.562988
 20
20.055740
 11
744.780212
 21
24.369261
  0
LINE
  8
0
  6
CONTINUOUS
 10
602.780212
 20
20.055740
 11
635.562988
 21
24.369280
  0
ARC
  8
0
  6
CONTINUOUS
 10
624.171570
 20
205.432419
 40
7.000000
 50
105.945801
 51
180.000000
  0
ARC
  8
0
  6
CONTINUOUS
 10
624.171570
 20
123.992653
 40
7.000000
 50
180.000000
 51
240.000198
  0
ARC
  8
0
  6
CONTINUOUS
 10
756.171570
 20
205.432358
 40
7.000000
 50
0.000000
 51
74.054764
  0
ARC
  8
0
  6
CONTINUOUS
 10
756.171570
 20
123.992599
 40
7.000000
 50
-59.999882
 51
0.000000
  0
ARC
  8
0
  6
CONTINUOUS
 10
631.171570
 20
65.492661
 40
7.000000
 50
180.000000
 51
254.054901
  0
ARC
  8
0
  6
CONTINUOUS
 10
749.171570
 20
65.492599
 40
7.000000
 50
-74.054497
 51
0.000000
  0
LINE
  8
0
  6
CONTINUOUS
 10
742.171570
 20
24.712500
 11
742.171570
 21
221.992599
  0
ARC
  8
0
  6
CONTINUOUS
 10
749.171570
 20
221.992661
 40
7.000000
 50
180.000000
 51
254.054901
  0
ARC
  8
0
  6
CONTINUOUS
 10
749.171570
 20
50.932442
 40
7.000000
 50
105.945801
 51
180.000000
  0
ARC
  8
0
  6
CONTINUOUS
 10
763.171570
 20
111.868240
 40
7.000000
 50
120.000099
 51
180.000000
  0
ARC
  8
0
  6
CONTINUOUS
 10
745.171570
 20
27.343639
 40
3.000000
 50
180.000000
 51
262.504395
  0
ARC
  8
0
  6
CONTINUOUS
 10
777.171570
 20
16.712500
 40
3.000000
 50
0.000000
 51
90.000000
  0
ARC
  8
0
  6
CONTINUOUS
 10
777.171570
 20
17.081360
 40
3.000000
 50
0.000000
 51
82.504204
  0
LINE
  8
0
  6
CONTINUOUS
 10
742.171570
 20
24.712500
 11
742.171570
 21
-0.287500
  0
ARC
  8
0
  6
CONTINUOUS
 10
747.171570
 20
24.712521
 40
5.000000
 50
180.000000
 51
270.000000
  0
ARC
  8
0
  6
CONTINUOUS
 10
635.171570
 20
27.343639
 40
3.000000
 50
-82.503883
 51
0.000000
  0
ARC
  8
0
  6
CONTINUOUS
 10
633.171570
 20
24.712500
 40
5.000000
 50
-90.000000
 51
0.000000
  0
ARC
  8
0
  6
CONTINUOUS
 10
603.171570
 20
16.712521
 40
3.000000
 50
90.000000
 51
180.000000
  0
ARC
  8
0
  6
CONTINUOUS
 10
603.171570
 20
17.081400
 40
3.000000
 50
97.496292
 51
180.000000
  0
LINE
  8
0
  6
CONTINUOUS
 10
655.171570
 20
-0.287500
 11
656.671570
 21
1.212500
  0
LINE
  8
0
  6
CONTINUOUS
 10
725.171570
 20
-0.287500
 11
723.671570
 21
1.212500
  0
ARC
  8
0
  6
CONTINUOUS
 10
631.171570
 20
50.932362
 40
7.000000
 50
0.000000
 51
74.054688
  0
ARC
  8
0
  6
CONTINUOUS
 10
617.171570
 20
111.868279
 40
7.000000
 50
0.000000
 51
60.000092
  0
ARC
  8
0
  6
CONTINUOUS
 10
631.171570
 20
221.992599
 40
7.000000
 50
-74.054443
 51
0.000000
  0
ARC
  8
0
  6
CONTINUOUS
 10
690.171570
 20
111.212502
 40
71.000000
 50
-21.630920
 51
6.068256
  0
ARC
  8
0
  6
CONTINUOUS
 10
690.171570
 20
111.212502
 40
71.000000
 50
173.931793
 51
201.630905
  0
LINE
  8
0
  6
CONTINUOUS
 10
743.171570
 20
54.537979
 11
743.171570
 21
48.212502
  0
LINE
  8
0
  6
CONTINUOUS
 10
637.171570
 20
48.212502
 11
637.171570
 21
54.401501
  0
ARC
  8
0
  6
CONTINUOUS
 10
738.171570
 20
48.212502
 40
5.000000
 50
-36.869869
 51
0.000000
  0
ARC
  8
0
  6
CONTINUOUS
 10
642.171570
 20
48.212502
 40
5.000000
 50
180.000000
 51
216.865204
  0
LINE
  8
0
  6
CONTINUOUS
 10
362.822388
 20
158.712555
 11
362.822388
 21
170.712555
  0
LINE
  8
0
  6
CONTINUOUS
 10
370.822388
 20
158.712585
 11
370.822388
 21
170.712585
  0
LINE
  8
0
  6
CONTINUOUS
 10
370.822388
 20
158.712585
 11
362.822388
 21
158.712555
  0
LINE
  8
0
  6
CONTINUOUS
 10
370.822388
 20
170.712585
 11
362.822388
 21
170.712555
  0
ARC
  8
0
  6
CONTINUOUS
 10
347.822388
 20
164.712494
 40
20.000000
 50
17.457600
 51
342.542389
  0
LINE
  8
0
  6
CONTINUOUS
 10
550.171570
 20
144.712494
 11
550.171570
 21
184.712494
  0
LINE
  8
0
  6
CONTINUOUS
 10
615.171570
 20
184.712494
 11
550.171570
 21
184.712494
  0
LINE
  8
0
  6
CONTINUOUS
 10
615.171570
 20
144.712494
 11
550.171570
 21
144.712494
  0
LINE
  8
0
  6
CONTINUOUS
 10
615.171570
 20
187.212494
 11
615.171570
 21
142.212494
  0
LINE
  8
0
  6
CONTINUOUS
 10
617.171570
 20
187.212494
 11
615.171570
 21
187.212494
  0
LINE
  8
0
  6
CONTINUOUS
 10
617.171570
 20
142.212494
 11
615.171570
 21
142.212494
  0
ARC
  8
0
  6
CONTINUOUS
 10
604.171570
 20
164.712494
 40
6.000000
 50
-90.000000
 51
90.000000
  0
LINE
  8
0
  6
CONTINUOUS
 10
604.171570
 20
170.712494
 11
550.171570
 21
170.712494
  0
LINE
  8
0
  6
CONTINUOUS
 10
604.171570
 20
158.712494
 11
550.171570
 21
158.712494
  0
LINE
  8
0
  6
CONTINUOUS
 10
830.171570
 20
144.712494
 11
830.171570
 21
184.712494
  0
LINE
  8
0
  6
CONTINUOUS
 10
765.171570
 20
184.712494
 11
830.171570
 21
184.712494
  0
LINE
  8
0
  6
CONTINUOUS
 10
765.171570
 20
144.712494
 11
830.171570
 21
144.712494
  0
LINE
  8
0
  6
CONTINUOUS
 10
765.171570
 20
187.212494
 11
765.171570
 21
142.212494
  0
LINE
  8
0
  6
CONTINUOUS
 10
763.171570
 20
187.212494
 11
765.171570
 21
187.212494
  0
LINE
  8
0
  6
CONTINUOUS
 10
763.171570
 20
142.212494
 11
765.171570
 21
142.212494
  0
ARC
  8
0
  6
CONTINUOUS
 10
776.171570
 20
164.712494
 40
6.000000
 50
90.000000
 51
270.000000
  0
LINE
  8
0
  6
CONTINUOUS
 10
776.171570
 20
170.712494
 11
830.171570
 21
170.712494
  0
LINE
  8
0
  6
CONTINUOUS
 10
776.171570
 20
158.712494
 11
830.171570
 21
158.712494
  0
LINE
  8
0
  6
CONTINUOUS
 10
235.822388
 20
65.968498
 11
235.822388
 21
180.212494
  0
LINE
  8
0
  6
CENTER
 10
-20.240000
 20
96.212502
 11
291.312378
 21
96.212502
  0
LINE
  8
0
  6
CONTINUOUS
 10
237.822388
 20
182.212494
 11
244.822388
 21
182.212494
  0
LINE
  8
0
  6
CONTINUOUS
 10
237.822388
 20
40.212521
 11
244.822388
 21
40.212521
  0
LINE
  8
0
  6
CONTINUOUS
 10
216.822388
 20
43.212502
 11
188.322388
 21
43.212502
  0
LINE
  8
0
  6
CONTINUOUS
 10
188.322388
 20
149.212494
 11
232.822357
 21
149.212494
  0
LINE
  8
0
  6
CONTINUOUS
 10
234.322388
 20
160.346481
 11
215.734116
 21
149.614426
  0
ARC
  8
0
  6
CONTINUOUS
 10
237.822403
 20
180.212494
 40
2.000000
 50
90.000000
 51
180.000000
  0
ARC
  8
0
  6
CONTINUOUS
 10
237.822388
 20
42.212502
 40
2.000000
 50
194.477707
 51
270.000000
  0
LINE
  8
0
  6
CONTINUOUS
 10
216.822388
 20
45.212502
 11
216.822388
 21
61.968498
  0
LINE
  8
0
  6
CONTINUOUS
 10
233.822388
 20
63.968498
 11
218.822388
 21
63.968498
  0
ARC
  8
0
  6
CONTINUOUS
 10
218.822388
 20
61.968521
 40
2.000000
 50
90.000000
 51
180.000000
  0
ARC
  8
0
  6
CONTINUOUS
 10
233.949402
 20
41.212502
 40
2.000000
 50
14.477280
 51
90.000000
  0
ARC
  8
0
  6
CONTINUOUS
 10
233.822388
 20
65.968498
 40
2.000000
 50
-90.000000
 51
0.000000
  0
LINE
  8
0
  6
CONTINUOUS
 10
216.822388
 20
43.212502
 11
233.949402
 21
43.212502
  0
ARC
  8
0
  6
CONTINUOUS
 10
214.822388
 20
45.212502
 40
2.000000
 50
-90.000000
 51
0.000000
  0
ARC
  8
0
  6
CONTINUOUS
 10
232.822388
 20
152.212494
 40
3.000000
 50
-90.000000
 51
0.000000
  0
ARC
  8
0
  6
CONTINUOUS
 10
232.822388
 20
162.944534
 40
3.000000
 50
-59.999660
 51
0.000000
  0
ARC
  8
0
  6
CONTINUOUS
 10
214.234100
 20
152.212494
 40
3.000000
 50
270.000000
 51
300.000305
  0
LINE
  8
0
  6
CONTINUOUS
 10
188.322388
 20
149.212494
 11
188.322388
 21
43.212502
  0
LINE
  8
0
  6
CONTINUOUS
 10
416.691498
 20
579.396667
 11
370.822388
 21
579.396729
  0
LINE
  8
0
  6
CONTINUOUS
 10
416.690887
 20
399.396667
 11
370.822388
 21
399.396759
  0
LINE
  8
0
  6
CENTER
 10
347.822388
 20
335.007843
 11
347.823029
 21
654.474731
  0
LINE
  8
0
  6
CENTER
 10
422.676208
 20
559.397522
 11
394.308136
 21
559.397522
  0
LINE
  8
0
  6
CONTINUOUS
 10
437.822693
 20
489.396759
 11
436.914703
 21
437.396698
  0
LINE
  8
0
  6
CONTINUOUS
 10
426.145508
 20
406.139282
 11
436.914703
 21
437.396698
  0
ARC
  8
0
  6
CONTINUOUS
 10
416.691101
 20
409.396729
 40
10.000000
 50
-90.000000
 51
-19.010900
  0
ARC
  8
0
  6
CONTINUOUS
 10
407.822693
 20
559.397522
 40
7.500000
 50
-46.074883
 51
212.226791
  0
LINE
  8
0
  6
CONTINUOUS
 10
437.822693
 20
489.396759
 11
436.914886
 21
541.396667
  0
LINE
  8
0
  6
CONTINUOUS
 10
426.145905
 20
572.654114
 11
436.914886
 21
541.396667
  0
ARC
  8
0
  6
CONTINUOUS
 10
416.691498
 20
569.396667
 40
10.000000
 50
19.010900
 51
90.000000
  0
LINE
  8
0
  6
CONTINUOUS
 10
257.822693
 20
489.396942
 11
258.730499
 21
437.397003
  0
LINE
  8
0
  6
CONTINUOUS
 10
269.499481
 20
406.139526
 11
258.730499
 21
437.397003
  0
ARC
  8
0
  6
CONTINUOUS
 10
278.954102
 20
409.396973
 40
10.000000
 50
199.010895
 51
270.000000
  0
LINE
  8
0
  6
CONTINUOUS
 10
257.822693
 20
489.396942
 11
258.679230
 21
538.449524
  0
LINE
  8
0
  6
CONTINUOUS
 10
269.499908
 20
572.654297
 11
259.077515
 21
542.403503
  0
LINE
  8
0
  6
CONTINUOUS
 10
246.860489
 20
560.396912
 11
244.822906
 21
560.396912
  0
LINE
  8
0
  6
CONTINUOUS
 10
244.822891
 20
560.396912
 11
244.822495
 21
418.397003
  0
LINE
  8
0
  6
CONTINUOUS
 10
255.932495
 20
546.585083
 11
253.621902
 21
555.208679
  0
ARC
  8
0
  6
CONTINUOUS
 10
246.860489
 20
553.396912
 40
7.000000
 50
14.999900
 51
90.000000
  0
ARC
  8
0
  6
CONTINUOUS
 10
262.694092
 20
548.396912
 40
7.000000
 50
-165.000305
 51
-90.000000
  0
LINE
  8
0
  6
CONTINUOUS
 10
246.860092
 20
418.397003
 11
244.822495
 21
418.397003
  0
LINE
  8
0
  6
CONTINUOUS
 10
255.932297
 20
432.208801
 11
253.621689
 21
423.585236
  0
ARC
  8
0
  6
CONTINUOUS
 10
246.860092
 20
425.397034
 40
7.000000
 50
-90.000000
 51
-14.999900
  0
ARC
  8
0
  6
CONTINUOUS
 10
262.693909
 20
430.397003
 40
7.000000
 50
121.109207
 51
165.000336
  0
ARC
  8
0
  6
CONTINUOUS
 10
278.954102
 20
569.397339
 40
10.000000
 50
90.000000
 51
160.989105
  0
ARC
  8
0
  6
CONTINUOUS
 10
287.822510
 20
559.398193
 40
7.500000
 50
-32.232941
 51
238.076355
  0
LINE
  8
0
  6
CENTER
 10
407.822418
 20
547.595947
 11
407.822906
 21
571.472351
  0
LINE
  8
0
  6
CENTER
 10
300.833099
 20
559.397644
 11
275.255341
 21
559.397644
  0
LINE
  8
0
  6
CENTER
 10
287.822693
 20
547.595947
 11
287.822906
 21
571.472534
  0
LINE
  8
0
  6
CONTINUOUS
 10
433.966797
 20
541.397156
 11
261.678772
 21
541.397156
  0
LINE
  8
0
  6
CONTINUOUS
 10
305.041931
 20
562.397156
 11
390.602844
 21
562.397156
  0
ARC
  8
0
  6
CONTINUOUS
 10
433.966797
 20
538.397156
 40
3.000000
 50
1.000152
 51
90.000000
  0
ARC
  8
0
  6
CONTINUOUS
 10
261.678772
 20
538.397156
 40
3.000000
 50
90.000000
 51
178.999634
  0
LINE
  8
0
  6
CONTINUOUS
 10
433.966797
 20
437.397156
 11
261.678772
 21
437.397156
  0
ARC
  8
0
  6
CONTINUOUS
 10
433.966797
 20
440.397156
 40
3.000000
 50
270.000000
 51
358.999847
  0
ARC
  8
0
  6
CONTINUOUS
 10
261.678772
 20
440.397156
 40
3.000000
 50
181.000366
 51
270.000000
  0
LINE
  8
0
  6
CONTINUOUS
 10
382.822601
 20
442.397156
 11
382.822601
 21
536.397156
  0
LINE
  8
0
  6
CONTINUOUS
 10
312.822601
 20
442.397156
 11
312.822601
 21
536.397156
  0
LINE
  8
0
  6
CONTINUOUS
 10
289.102600
 20
555.397156
 11
295.822388
 21
555.397156
  0
LINE
  8
0
  6
CONTINUOUS
 10
408.822510
 20
555.397156
 11
399.822388
 21
555.397156
  0
ARC
  8
0
  6
CONTINUOUS
 10
408.822510
 20
548.397156
 40
7.000000
 50
0.000000
 51
90.000000
  0
ARC
  8
0
  6
CONTINUOUS
 10
422.822510
 20
548.397156
 40
7.000000
 50
180.000000
 51
270.000000
  0
LINE
  8
0
  6
CENTER
 10
422.676208
 20
419.397614
 11
394.308136
 21
419.397614
  0
ARC
  8
0
  6
CONTINUOUS
 10
407.822693
 20
419.397614
 40
7.500000
 50
-212.226791
 51
46.074883
  0
ARC
  8
0
  6
CONTINUOUS
 10
287.822510
 20
419.396942
 40
7.500000
 50
-226.078156
 51
32.232941
  0
LINE
  8
0
  6
CENTER
 10
407.822418
 20
431.199219
 11
407.822906
 21
407.322815
  0
LINE
  8
0
  6
CENTER
 10
300.833099
 20
419.397491
 11
275.255341
 21
419.397491
  0
LINE
  8
0
  6
CENTER
 10
287.822693
 20
431.199219
 11
287.822906
 21
407.322601
  0
LINE
  8
0
  6
CONTINUOUS
 10
305.041931
 20
416.397156
 11
390.602844
 21
416.397156
  0
LINE
  8
0
  6
CONTINUOUS
 10
286.822510
 20
423.397156
 11
295.822388
 21
423.397064
  0
ARC
  8
0
  6
CONTINUOUS
 10
286.822510
 20
430.397156
 40
7.000000
 50
180.000000
 51
270.000000
  0
ARC
  8
0
  6
CONTINUOUS
 10
272.822510
 20
430.397156
 40
7.000000
 50
0.000000
 51
90.000000
  0
LINE
  8
0
  6
CONTINUOUS
 10
408.822510
 20
423.397156
 11
399.822388
 21
423.397064
  0
ARC
  8
0
  6
CONTINUOUS
 10
408.822510
 20
430.397156
 40
7.000000
 50
-90.000000
 51
0.000000
  0
ARC
  8
0
  6
CONTINUOUS
 10
422.822510
 20
430.397156
 40
7.000000
 50
90.000000
 51
180.000000
  0
LINE
  8
0
  6
CONTINUOUS
 10
282.371948
 20
550.320190
 11
281.273041
 21
546.474121
  0
ARC
  8
0
  6
CONTINUOUS
 10
289.102600
 20
548.397156
 40
7.000000
 50
90.000000
 51
164.054611
  0
ARC
  8
0
  6
CONTINUOUS
 10
274.542389
 20
548.397156
 40
7.000000
 50
-90.000000
 51
-15.945396
  0
LINE
  8
0
  6
CONTINUOUS
 10
327.822693
 20
349.396942
 11
370.822388
 21
349.396942
  0
LINE
  8
0
  6
CONTINUOUS
 10
367.822693
 20
414.396942
 11
367.822693
 21
409.397369
  0
LINE
  8
0
  6
CONTINUOUS
 10
327.822693
 20
414.396942
 11
327.822693
 21
349.396942
  0
LINE
  8
0
  6
CONTINUOUS
 10
370.322693
 20
414.396942
 11
325.322693
 21
414.396942
  0
LINE
  8
0
  6
CONTINUOUS
 10
370.322693
 20
416.396942
 11
370.322693
 21
414.396942
  0
LINE
  8
0
  6
CONTINUOUS
 10
325.322693
 20
416.396942
 11
325.322693
 21
414.396942
  0
LINE
  8
0
  6
CONTINUOUS
 10
327.822693
 20
629.396912
 11
370.822388
 21
629.396912
  0
LINE
  8
0
  6
CONTINUOUS
 10
367.822693
 20
564.396912
 11
367.822693
 21
569.396912
  0
LINE
  8
0
  6
CONTINUOUS
 10
327.822693
 20
564.396912
 11
327.822693
 21
629.396912
  0
LINE
  8
0
  6
CONTINUOUS
 10
370.322693
 20
564.396912
 11
325.322693
 21
564.396912
  0
LINE
  8
0
  6
CONTINUOUS
 10
370.322693
 20
562.396912
 11
370.322693
 21
564.396912
  0
LINE
  8
0
  6
CONTINUOUS
 10
325.322693
 20
562.396912
 11
325.322693
 21
564.396912
  0
LINE
  8
0
  6
CONTINUOUS
 10
327.822693
 20
579.396790
 11
278.954498
 21
579.396912
  0
LINE
  8
0
  6
CONTINUOUS
 10
327.822693
 20
399.396851
 11
278.954102
 21
399.396942
  0
LINE
  8
0
  6
CONTINUOUS
 10
370.822388
 20
629.396912
 11
370.822388
 21
569.396912
  0
LINE
  8
0
  6
CONTINUOUS
 10
366.901367
 20
569.396912
 11
370.822388
 21
569.396912
  0
LINE
  8
0
  6
CONTINUOUS
 10
370.822388
 20
349.397369
 11
370.822388
 21
409.397369
  0
LINE
  8
0
  6
CONTINUOUS
 10
366.901367
 20
409.397369
 11
370.822388
 21
409.397369
  0
LINE
  8
0
  6
CONTINUOUS
 10
299.727142
 20
559.952698
 11
295.822388
 21
555.397156
  0
ARC
  8
0
  6
CONTINUOUS
 10
305.041931
 20
555.397156
 40
7.000000
 50
90.000000
 51
139.398712
  0
LINE
  8
0
  6
CONTINUOUS
 10
395.917633
 20
559.952698
 11
399.822388
 21
555.397156
  0
ARC
  8
0
  6
CONTINUOUS
 10
390.602844
 20
555.397156
 40
7.000000
 50
40.601295
 51
90.000000
  0
LINE
  8
0
  6
CONTINUOUS
 10
395.917633
 20
418.841553
 11
399.822388
 21
423.397064
  0
ARC
  8
0
  6
CONTINUOUS
 10
390.602844
 20
423.397064
 40
7.000000
 50
-90.000000
 51
-40.601295
  0
LINE
  8
0
  6
CONTINUOUS
 10
299.727142
 20
418.841553
 11
295.822388
 21
423.397064
  0
ARC
  8
0
  6
CONTINUOUS
 10
305.041931
 20
423.397064
 40
7.000000
 50
-139.398712
 51
-90.000000
  0
LINE
  8
0
  6
CONTINUOUS
 10
366.901367
 20
409.397369
 11
366.901367
 21
349.396942
  0
LINE
  8
0
  6
CONTINUOUS
 10
366.901367
 20
629.396912
 11
366.901367
 21
569.396912
  0
LINE
  8
0
  6
CENTER
 10
461.023621
 20
489.396942
 11
-20.240000
 21
489.396942
  0
LINE
  8
0
  6
CONTINUOUS
 10
237.822891
 20
560.396912
 11
244.822906
 21
560.396912
  0
LINE
  8
0
  6
CONTINUOUS
 10
235.822891
 20
420.396942
 11
235.822891
 21
558.396912
  0
LINE
  8
0
  6
CONTINUOUS
 10
237.822891
 20
418.396942
 11
244.822495
 21
418.396942
  0
LINE
  8
0
  6
CONTINUOUS
 10
188.322891
 20
542.396912
 11
235.822891
 21
542.396912
  0
LINE
  8
0
  6
CONTINUOUS
 10
188.322891
 20
436.396942
 11
235.822891
 21
436.396942
  0
LINE
  8
0
  6
CONTINUOUS
 10
188.322388
 20
542.396912
 11
188.322388
 21
436.396942
  0
ARC
  8
0
  6
CONTINUOUS
 10
237.822891
 20
558.396912
 40
2.000000
 50
90.000000
 51
180.000000
  0
ARC
  8
0
  6
CONTINUOUS
 10
237.822891
 20
420.396942
 40
2.000000
 50
180.000000
 51
270.000000
  0
ARC
  8
0
  6
CONTINUOUS
 10
235.037964
 20
489.396942
 40
20.000000
 50
141.561295
 51
180.000000
  0
LINE
  8
0
  6
CONTINUOUS
 10
235.822891
 20
522.556946
 11
219.372498
 21
501.830475
  0
ARC
  8
0
  6
CONTINUOUS
 10
235.037964
 20
489.396942
 40
20.000000
 50
-180.000000
 51
-141.561295
  0
LINE
  8
0
  6
CONTINUOUS
 10
235.822891
 20
456.236938
 11
219.372498
 21
476.963379
  0
LINE
  8
0
  6
CONTINUOUS
 10
58.322384
 20
542.396912
 11
188.322388
 21
542.396912
  0
LINE
  8
0
  6
CONTINUOUS
 10
58.322384
 20
436.396942
 11
188.322388
 21
436.396942
  0
LINE
  8
0
  6
CONTINUOUS
 10
58.322384
 20
520.896912
 11
178.322388
 21
520.896912
  0
LINE
  8
0
  6
CONTINUOUS
 10
58.322384
 20
457.896942
 11
178.322388
 21
457.896942
  0
LINE
  8
0
  6
CONTINUOUS
 10
178.322388
 20
540.396912
 11
178.322388
 21
520.896912
  0
ARC
  8
0
  6
CONTINUOUS
 10
180.322388
 20
540.396973
 40
2.000000
 50
90.000000
 51
180.000000
  0
ARC
  8
0
  6
CONTINUOUS
 10
180.322388
 20
438.396942
 40
2.000000
 50
180.000000
 51
270.000000
  0
LINE
  8
0
  6
CONTINUOUS
 10
49.822338
 20
542.396912
 11
58.322384
 21
542.396912
  0
LINE
  8
0
  6
CONTINUOUS
 10
49.822338
 20
436.396942
 11
58.322384
 21
436.396942
  0
LINE
  8
0
  6
CONTINUOUS
 10
58.322384
 20
520.896912
 11
49.822338
 21
520.896912
  0
LINE
  8
0
  6
CONTINUOUS
 10
58.322384
 20
457.896942
 11
49.822338
 21
457.896942
  0
LINE
  8
0
  6
CONTINUOUS
 10
58.322384
 20
436.396942
 11
58.322384
 21
482.530914
  0
LINE
  8
0
  6
CONTINUOUS
 10
51.822384
 20
483.396942
 11
51.822384
 21
495.396942
  0
LINE
  8
0
  6
CONTINUOUS
 10
58.822384
 20
483.396942
 11
58.822384
 21
495.396942
  0
LINE
  8
0
  6
CONTINUOUS
 10
52.822384
 20
496.396942
 11
57.822384
 21
496.396942
  0
LINE
  8
0
  6
CONTINUOUS
 10
57.822384
 20
482.396942
 11
52.822384
 21
482.396942
  0
ARC
  8
0
  6
CONTINUOUS
 10
57.822384
 20
495.396942
 40
1.000000
 50
0.000000
 51
90.000000
  0
ARC
  8
0
  6
CONTINUOUS
 10
52.822384
 20
495.396942
 40
1.000000
 50
90.000000
 51
180.000000
  0
ARC
  8
0
  6
CONTINUOUS
 10
52.822384
 20
483.396942
 40
1.000000
 50
180.000000
 51
270.000000
  0
ARC
  8
0
  6
CONTINUOUS
 10
57.822384
 20
483.396942
 40
1.000000
 50
-90.000000
 51
0.000000
  0
LINE
  8
0
  6
CONTINUOUS
 10
56.322384
 20
485.896942
 11
56.322384
 21
492.896942
  0
LINE
  8
0
  6
CONTINUOUS
 10
54.322384
 20
485.896942
 11
54.322384
 21
492.896942
  0
ARC
  8
0
  6
CONTINUOUS
 10
55.322384
 20
492.896942
 40
1.000000
 50
90.000000
 51
180.000000
  0
ARC
  8
0
  6
CONTINUOUS
 10
55.322384
 20
492.896942
 40
1.000000
 50
0.000000
 51
90.000000
  0
ARC
  8
0
  6
CONTINUOUS
 10
55.322384
 20
485.896942
 40
1.000000
 50
180.000000
 51
270.000000
  0
ARC
  8
0
  6
CONTINUOUS
 10
55.322384
 20
485.896942
 40
1.000000
 50
-90.000000
 51
0.000000
  0
LINE
  8
0
  6
CONTINUOUS
 10
58.322384
 20
496.262939
 11
58.322384
 21
542.396912
  0
LINE
  8
0
  6
CONTINUOUS
 10
49.822338
 20
544.396912
 11
49.822338
 21
434.396942
  0
LINE
  8
0
  6
CONTINUOUS
 10
10.822340
 20
544.396912
 11
49.822338
 21
544.396912
  0
LINE
  8
0
  6
CONTINUOUS
 10
10.822340
 20
434.396942
 11
49.822338
 21
434.396942
  0
LINE
  8
0
  6
CONTINUOUS
 10
0.822340
 20
444.396942
 11
0.822340
 21
534.396912
  0
LINE
  8
0
  6
CONTINUOUS
 10
5.822340
 20
519.896912
 11
49.822338
 21
519.896912
  0
LINE
  8
0
  6
CONTINUOUS
 10
5.822340
 20
458.896942
 11
49.822338
 21
458.896942
  0
ARC
  8
0
  6
CONTINUOUS
 10
10.822430
 20
534.396912
 40
10.000000
 50
90.000000
 51
180.000000
  0
ARC
  8
0
  6
CONTINUOUS
 10
10.822340
 20
444.396942
 40
10.000000
 50
180.000000
 51
270.000000
  0
LINE
  8
0
  6
CONTINUOUS
 10
49.822384
 20
151.212494
 11
49.822384
 21
41.212502
  0
LINE
  8
0
  6
CONTINUOUS
 10
49.822384
 20
149.212494
 11
58.322384
 21
149.212494
  0
LINE
  8
0
  6
CONTINUOUS
 10
49.822384
 20
43.212502
 11
58.322384
 21
43.212502
  0
LINE
  8
0
  6
CONTINUOUS
 10
58.822384
 20
150.712494
 11
58.822384
 21
149.212494
  0
LINE
  8
0
  6
CONTINUOUS
 10
51.822384
 20
150.712494
 11
51.822384
 21
149.212494
  0
LINE
  8
0
  6
CONTINUOUS
 10
51.822384
 20
150.712494
 11
58.822384
 21
150.712494
  0
LINE
  8
0
  6
CONTINUOUS
 10
56.222370
 20
163.712494
 11
56.222370
 21
150.712494
  0
LINE
  8
0
  6
CONTINUOUS
 10
54.422371
 20
164.337494
 11
54.422371
 21
150.712494
  0
LINE
  8
0
  6
CONTINUOUS
 10
52.622372
 20
162.274994
 11
52.622372
 21
150.712494
  0
LINE
  8
0
  6
CONTINUOUS
 10
58.022381
 20
163.087494
 11
58.022381
 21
150.712494
  0
LINE
  8
0
  6
CONTINUOUS
 10
54.422371
 20
164.337494
 11
56.222370
 21
163.712494
  0
LINE
  8
0
  6
CONTINUOUS
 10
52.622372
 20
162.274994
 11
54.422371
 21
162.899994
  0
LINE
  8
0
  6
CONTINUOUS
 10
58.022381
 20
163.087494
 11
56.223381
 21
162.639801
  0
LINE
  8
0
  6
CONTINUOUS
 10
49.822384
 20
138.775101
 11
58.322384
 21
138.775101
  0
LINE
  8
0
  6
CONTINUOUS
 10
49.822384
 20
53.528370
 11
58.322384
 21
53.528370
  0
LINE
  8
0
  6
CONTINUOUS
 10
10.822382
 20
151.212494
 11
49.822384
 21
151.212494
  0
LINE
  8
0
  6
CONTINUOUS
 10
10.822382
 20
41.212502
 11
49.822384
 21
41.212502
  0
LINE
  8
0
  6
CONTINUOUS
 10
0.822382
 20
51.212502
 11
0.822382
 21
141.212494
  0
LINE
  8
0
  6
CONTINUOUS
 10
5.822382
 20
126.712502
 11
49.822384
 21
126.712502
  0
LINE
  8
0
  6
CONTINUOUS
 10
5.822382
 20
65.712502
 11
49.822384
 21
65.712502
  0
ARC
  8
0
  6
CONTINUOUS
 10
10.822472
 20
141.212494
 40
10.000000
 50
90.000000
 51
180.000000
  0
ARC
  8
0
  6
CONTINUOUS
 10
10.822382
 20
51.212502
 40
10.000000
 50
180.000000
 51
270.000000
  0
LINE
  8
0
  6
CONTINUOUS
 10
58.322384
 20
43.212502
 11
58.322384
 21
149.212494
  0
LINE
  8
0
  6
CONTINUOUS
 10
178.322388
 20
457.896942
 11
178.322388
 21
438.396912
  0
TEXT
  8
0
 10
-20.000000
 20
-16.000000
 40
4.000000
 41
1.000000
  1
HLM-40T-1200~1800-S90
 50
0.000000
  0
ENDSEC
  0
EOF
