  0
SECTION
  2
HEADER
  9
$CLAYER
  8
1
  9
$LTSCALE
 40
3.0
  0
ENDSEC
  0
SECTION
  2
TABLES
  0
TABLE
  2
LTYPE
 70
     4
  0
LTYPE
  2
CONTINUOUS
  3
solid line
 70
    64
 72
    65
 73
     0
 40
0.0
  0
LTYPE
  2
DASHED
  3
__ __ __ __ __ __ __ __ __ __ __ __ __ __ __
 70
    64
 72
    65
 73
     2
 40
0.75
 49
0.5
 49
-0.25
  0
LTYPE
  2
CENTER
  3
____ _ ____ _ ____ _ ____ _ ____ _ ____ _ ____
 70
    64
 72
    65
 73
     4
 40
2.0
 49
1.25
 49
-0.25
 49
0.25
 49
-0.25
  0
LTYPE
  2
PHANTOM
  3
_____ _ _ _____ _ _ _____ _ _ _____ _ _ ____
 70
    64
 72
    65
 73
     6
 40
2.5
 49
1.25
 49
-0.25
 49
0.25
 49
-0.25
 49
0.25
 49
-0.25
  0
ENDTAB
  0
TABLE
  2
LAYER
 70
     1
  0
LAYER
  2
0
 70
    64
 62
     7
  6
CONTINUOUS
  0
ENDTAB
  0
TABLE
  2
STYLE
 70
     1
  0
STYLE
  2
STANDARD
 70
     0
 40
0.000000
 41
1.000000
 50
0.000000
 71
     0
 42
3.000000
  3
txt
  4
BIGFONT
  0
ENDTAB
  0
ENDSEC
  0
SECTION
  2
BLOCKS
  0
ENDSEC
  0
SECTION
  2
ENTITIES
  0
LINE
  8
0
  6
CONTINUOUS
 10
239.912384
 20
41.075001
 11
239.912384
 21
183.074997
  0
LINE
  8
0
  6
CENTER
 10
140.294998
 20
112.074997
 11
286.402374
 21
112.074997
  0
LINE
  8
0
  6
CENTER
 10
342.912384
 20
255.429993
 11
342.912384
 21
-13.565000
  0
LINE
  8
0
  6
CENTER
 10
268.220001
 20
165.574997
 11
417.924988
 21
165.574997
  0
LINE
  8
0
  6
CONTINUOUS
 10
252.912384
 20
0.575000
 11
432.912384
 21
0.575000
  0
LINE
  8
0
  6
CONTINUOUS
 10
252.912384
 20
20.575001
 11
432.912384
 21
20.575001
  0
LINE
  8
0
  6
CONTINUOUS
 10
311.097992
 20
243.074997
 11
374.726776
 21
243.074997
  0
LINE
  8
0
  6
CONTINUOUS
 10
432.912384
 20
198.906998
 11
432.912384
 21
0.575000
  0
LINE
  8
0
  6
CONTINUOUS
 10
252.912384
 20
198.906998
 11
252.912384
 21
0.575000
  0
LINE
  8
0
  6
CONTINUOUS
 10
239.912384
 20
183.074997
 11
247.912384
 21
183.074997
  0
LINE
  8
0
  6
CONTINUOUS
 10
239.912384
 20
41.075001
 11
247.912384
 21
41.075001
  0
LINE
  8
0
  6
CONTINUOUS
 10
380.510986
 20
241.232346
 11
428.696777
 21
207.064316
  0
LINE
  8
0
  6
CONTINUOUS
 10
257.128174
 20
207.064316
 11
305.313782
 21
241.232346
  0
ARC
  8
0
  6
CONTINUOUS
 10
422.912384
 20
198.906967
 40
10.000000
 50
0.000000
 51
54.660099
  0
ARC
  8
0
  6
CONTINUOUS
 10
374.726776
 20
233.074997
 40
10.000000
 50
54.659950
 51
90.000000
  0
ARC
  8
0
  6
CONTINUOUS
 10
311.097992
 20
233.074997
 40
10.000000
 50
90.000000
 51
125.340302
  0
ARC
  8
0
  6
CONTINUOUS
 10
262.912384
 20
198.907043
 40
10.000000
 50
125.340500
 51
180.000000
  0
ARC
  8
0
  6
CONTINUOUS
 10
247.912384
 20
188.074997
 40
5.000000
 50
-90.000000
 51
0.000000
  0
ARC
  8
0
  6
CONTINUOUS
 10
247.912384
 20
36.074982
 40
5.000000
 50
0.000000
 51
90.000000
  0
LINE
  8
0
  6
CENTER
 10
402.912384
 20
26.330000
 11
402.912384
 21
-7.640000
  0
LINE
  8
0
  6
CENTER
 10
282.912384
 20
27.514999
 11
282.912384
 21
-7.245000
  0
LINE
  8
0
  6
DASHED
 10
395.412384
 20
20.575001
 11
395.412384
 21
0.575000
  0
LINE
  8
0
  6
DASHED
 10
410.412384
 20
20.575001
 11
410.412384
 21
0.575000
  0
LINE
  8
0
  6
DASHED
 10
290.412384
 20
20.575001
 11
290.412384
 21
0.575000
  0
LINE
  8
0
  6
DASHED
 10
275.412384
 20
20.575001
 11
275.412384
 21
0.575000
  0
LINE
  8
0
  6
CONTINUOUS
 10
418.912384
 20
17.889681
 11
418.912384
 21
0.575000
  0
LINE
  8
0
  6
CONTINUOUS
 10
266.912384
 20
17.889681
 11
266.912384
 21
0.575000
  0
LINE
  8
0
  6
CONTINUOUS
 10
376.669769
 20
25.575001
 11
309.154968
 21
25.575001
  0
LINE
  8
0
  6
CONTINUOUS
 10
307.912384
 20
24.438120
 11
307.912384
 21
21.575001
  0
LINE
  8
0
  6
CONTINUOUS
 10
377.912384
 20
24.438120
 11
377.912384
 21
21.575001
  0
LINE
  8
0
  6
CONTINUOUS
 10
378.790985
 20
24.696320
 11
381.447968
 21
22.039440
  0
LINE
  8
0
  6
CONTINUOUS
 10
307.033783
 20
24.696320
 11
304.376770
 21
22.039499
  0
ARC
  8
0
  6
CONTINUOUS
 10
300.841370
 20
25.575001
 40
5.000000
 50
270.000000
 51
315.000092
  0
ARC
  8
0
  6
CONTINUOUS
 10
384.983368
 20
25.575001
 40
5.000000
 50
225.000107
 51
270.000000
  0
ARC
  8
0
  6
CONTINUOUS
 10
309.154968
 20
22.575001
 40
3.000000
 50
90.000000
 51
135.000397
  0
ARC
  8
0
  6
CONTINUOUS
 10
376.669769
 20
22.575001
 40
3.000000
 50
45.000259
 51
90.000000
  0
ARC
  8
0
  6
CONTINUOUS
 10
306.912384
 20
21.575001
 40
1.000000
 50
-90.000000
 51
0.000000
  0
ARC
  8
0
  6
CONTINUOUS
 10
378.912384
 20
21.575001
 40
1.000000
 50
180.000000
 51
270.000000
  0
CIRCLE
  8
0
  6
CONTINUOUS
 10
342.912384
 20
165.574997
 40
46.000000
  0
ARC
  8
0
  6
CONTINUOUS
 10
342.912384
 20
165.574997
 40
52.000000
 50
12.522720
 51
167.477402
  0
ARC
  8
0
  6
CONTINUOUS
 10
342.912384
 20
165.574997
 40
48.000000
 50
-192.522598
 51
12.522720
  0
ARC
  8
0
  6
CONTINUOUS
 10
312.912384
 20
95.074997
 40
34.000000
 50
167.477402
 51
270.000000
  0
ARC
  8
0
  6
CONTINUOUS
 10
312.912384
 20
95.074997
 40
38.000000
 50
167.477402
 51
270.000000
  0
ARC
  8
0
  6
CONTINUOUS
 10
372.912384
 20
95.074997
 40
34.000000
 50
-90.000000
 51
12.522730
  0
ARC
  8
0
  6
CONTINUOUS
 10
372.912384
 20
95.074997
 40
38.000000
 50
-90.000000
 51
12.522720
  0
LINE
  8
0
  6
CONTINUOUS
 10
275.816376
 20
103.314362
 11
292.149384
 21
176.849899
  0
LINE
  8
0
  6
CONTINUOUS
 10
393.675385
 20
176.850006
 11
410.008392
 21
103.314423
  0
LINE
  8
0
  6
CONTINUOUS
 10
389.770386
 20
175.982681
 11
406.103577
 21
102.447121
  0
LINE
  8
0
  6
CONTINUOUS
 10
279.721191
 20
102.447067
 11
296.054382
 21
175.982620
  0
LINE
  8
0
  6
CONTINUOUS
 10
312.912384
 20
61.075001
 11
372.912384
 21
61.075001
  0
LINE
  8
0
  6
CONTINUOUS
 10
312.912384
 20
57.075001
 11
372.912384
 21
57.075001
  0
LINE
  8
0
  6
CONTINUOUS
 10
330.685394
 20
79.074997
 11
325.744995
 21
79.074997
  0
LINE
  8
0
  6
CONTINUOUS
 10
333.412384
 20
87.350403
 11
333.412384
 21
79.074997
  0
LINE
  8
0
  6
CONTINUOUS
 10
338.162384
 20
90.356239
 11
338.162384
 21
93.324997
  0
LINE
  8
0
  6
CONTINUOUS
 10
347.662384
 20
90.356239
 11
347.662384
 21
93.324997
  0
LINE
  8
0
  6
CONTINUOUS
 10
341.984589
 20
91.580856
 11
341.984589
 21
80.633598
  0
LINE
  8
0
  6
CONTINUOUS
 10
343.765991
 20
91.580856
 11
343.765991
 21
80.633598
  0
LINE
  8
0
  6
CONTINUOUS
 10
353.117584
 20
91.580856
 11
353.117584
 21
80.559380
  0
LINE
  8
0
  6
CONTINUOUS
 10
354.750397
 20
85.736137
 11
354.750397
 21
80.559380
  0
LINE
  8
0
  6
CONTINUOUS
 10
331.158386
 20
91.432419
 11
326.580780
 21
91.432419
  0
LINE
  8
0
  6
CONTINUOUS
 10
326.580780
 20
91.432419
 11
325.508179
 21
90.102417
  0
LINE
  8
0
  6
CONTINUOUS
 10
325.637177
 20
93.324997
 11
323.912384
 21
91.116539
  0
LINE
  8
0
  6
CONTINUOUS
 10
325.508179
 20
81.892838
 11
326.597992
 21
80.744919
  0
LINE
  8
0
  6
CONTINUOUS
 10
323.912384
 20
80.924118
 11
325.744995
 21
79.074997
  0
LINE
  8
0
  6
CONTINUOUS
 10
323.912384
 20
91.116539
 11
323.912384
 21
80.924118
  0
LINE
  8
0
  6
CONTINUOUS
 10
325.508179
 20
90.102417
 11
325.508179
 21
81.892838
  0
LINE
  8
0
  6
CONTINUOUS
 10
332.039368
 20
90.580856
 11
331.140381
 21
91.432419
  0
LINE
  8
0
  6
CONTINUOUS
 10
332.024994
 20
93.324997
 11
333.412384
 21
91.785423
  0
LINE
  8
0
  6
CONTINUOUS
 10
332.039368
 20
90.356239
 11
333.412384
 21
90.356239
  0
LINE
  8
0
  6
CONTINUOUS
 10
325.637177
 20
93.324997
 11
332.024994
 21
93.324997
  0
LINE
  8
0
  6
CONTINUOUS
 10
329.552979
 20
87.350403
 11
333.412384
 21
87.350403
  0
LINE
  8
0
  6
CONTINUOUS
 10
332.039368
 20
85.791801
 11
329.552979
 21
85.791801
  0
LINE
  8
0
  6
CONTINUOUS
 10
329.070587
 20
80.744919
 11
326.597992
 21
80.744919
  0
LINE
  8
0
  6
CONTINUOUS
 10
332.039368
 20
84.307419
 11
332.039368
 21
85.494919
  0
ARC
  8
0
  6
CONTINUOUS
 10
329.070587
 20
83.713661
 40
2.968750
 50
-89.999786
 51
0.000109
  0
LINE
  8
0
  6
CONTINUOUS
 10
332.039368
 20
80.210922
 11
332.039368
 21
79.074997
  0
LINE
  8
0
  6
CONTINUOUS
 10
333.412384
 20
91.785423
 11
333.412384
 21
90.356239
  0
LINE
  8
0
  6
CONTINUOUS
 10
332.039368
 20
85.791801
 11
332.039368
 21
83.713661
  0
LINE
  8
0
  6
CONTINUOUS
 10
329.552979
 20
87.350403
 11
329.552979
 21
85.791801
  0
LINE
  8
0
  6
CONTINUOUS
 10
332.039368
 20
79.074997
 11
333.412384
 21
79.074997
  0
LINE
  8
0
  6
CONTINUOUS
 10
332.039368
 20
80.210922
 11
330.685394
 21
79.074997
  0
LINE
  8
0
  6
CONTINUOUS
 10
343.765991
 20
80.633598
 11
344.359589
 21
80.633598
  0
LINE
  8
0
  6
CONTINUOUS
 10
341.279572
 20
80.633598
 11
341.279572
 21
79.074997
  0
LINE
  8
0
  6
CONTINUOUS
 10
344.359589
 20
80.633598
 11
344.359589
 21
79.074997
  0
LINE
  8
0
  6
CONTINUOUS
 10
346.671387
 20
90.356239
 11
347.662384
 21
90.356239
  0
LINE
  8
0
  6
CONTINUOUS
 10
338.162384
 20
90.356239
 11
339.216980
 21
90.356239
  0
LINE
  8
0
  6
CONTINUOUS
 10
338.162384
 20
93.324997
 11
347.662384
 21
93.324997
  0
LINE
  8
0
  6
CONTINUOUS
 10
341.279572
 20
79.074997
 11
344.359589
 21
79.074997
  0
LINE
  8
0
  6
CONTINUOUS
 10
341.279572
 20
80.633598
 11
341.984589
 21
80.633598
  0
ARC
  8
0
  6
CONTINUOUS
 10
358.108582
 20
89.521278
 40
3.803712
 50
-73.981873
 51
90.003510
  0
ARC
  8
0
  6
CONTINUOUS
 10
358.108582
 20
89.521278
 40
2.320524
 50
-82.585274
 51
62.411850
  0
LINE
  8
0
  6
CONTINUOUS
 10
352.412384
 20
93.324997
 11
358.108582
 21
93.324997
  0
LINE
  8
0
  6
CONTINUOUS
 10
358.408173
 20
87.220161
 11
354.750397
 21
87.220161
  0
LINE
  8
0
  6
CONTINUOUS
 10
352.412384
 20
93.324997
 11
352.412384
 21
91.580856
  0
LINE
  8
0
  6
CONTINUOUS
 10
354.750397
 20
91.580856
 11
354.750397
 21
87.220161
  0
LINE
  8
0
  6
CONTINUOUS
 10
359.158173
 20
85.865257
 11
361.512573
 21
80.559380
  0
LINE
  8
0
  6
CONTINUOUS
 10
357.790985
 20
85.736137
 11
360.018768
 21
80.559380
  0
LINE
  8
0
  6
CONTINUOUS
 10
352.412384
 20
80.559380
 11
353.117584
 21
80.559380
  0
LINE
  8
0
  6
CONTINUOUS
 10
354.750397
 20
80.559380
 11
355.399780
 21
80.559380
  0
LINE
  8
0
  6
CONTINUOUS
 10
355.399780
 20
79.074997
 11
352.412384
 21
79.074997
  0
LINE
  8
0
  6
CONTINUOUS
 10
359.722992
 20
80.559380
 11
360.018768
 21
80.559380
  0
LINE
  8
0
  6
CONTINUOUS
 10
361.512573
 20
80.559380
 11
361.912384
 21
80.559380
  0
LINE
  8
0
  6
CONTINUOUS
 10
359.722992
 20
79.074997
 11
361.912384
 21
79.074997
  0
LINE
  8
0
  6
CONTINUOUS
 10
361.912384
 20
80.559380
 11
361.912384
 21
79.074997
  0
LINE
  8
0
  6
CONTINUOUS
 10
359.722992
 20
80.559380
 11
359.722992
 21
79.074997
  0
LINE
  8
0
  6
CONTINUOUS
 10
355.399780
 20
80.559380
 11
355.399780
 21
79.074997
  0
LINE
  8
0
  6
CONTINUOUS
 10
352.412384
 20
80.559380
 11
352.412384
 21
79.074997
  0
LINE
  8
0
  6
CONTINUOUS
 10
339.727173
 20
91.580856
 11
339.216980
 21
90.356239
  0
LINE
  8
0
  6
CONTINUOUS
 10
346.241180
 20
91.580856
 11
346.671387
 21
90.356239
  0
LINE
  8
0
  6
CONTINUOUS
 10
343.765991
 20
91.580856
 11
346.241180
 21
91.580856
  0
LINE
  8
0
  6
CONTINUOUS
 10
341.984589
 20
91.580856
 11
339.727173
 21
91.580856
  0
LINE
  8
0
  6
CONTINUOUS
 10
354.750397
 20
85.736137
 11
357.790985
 21
85.736137
  0
LINE
  8
0
  6
CONTINUOUS
 10
352.412384
 20
91.580856
 11
353.117584
 21
91.580856
  0
LINE
  8
0
  6
CONTINUOUS
 10
354.750397
 20
91.580856
 11
359.183380
 21
91.577980
  0
LINE
  8
0
  6
CONTINUOUS
 10
332.039368
 20
90.580856
 11
332.039368
 21
90.356239
  0
ARC
  8
0
  6
CONTINUOUS
 10
462.593994
 20
112.074997
 40
215.181595
 50
167.017899
 51
192.982101
  0
LINE
  8
0
  6
CONTINUOUS
 10
53.412380
 20
150.074997
 11
183.412384
 21
150.074997
  0
LINE
  8
0
  6
CONTINUOUS
 10
53.412380
 20
44.075001
 11
183.412384
 21
44.075001
  0
LINE
  8
0
  6
CONTINUOUS
 10
53.412380
 20
139.698334
 11
172.074142
 21
139.698334
  0
LINE
  8
0
  6
CONTINUOUS
 10
53.412380
 20
54.451641
 11
172.074142
 21
54.451641
  0
LINE
  8
0
  6
CONTINUOUS
 10
173.412384
 20
148.074997
 11
173.412384
 21
46.074982
  0
ARC
  8
0
  6
CONTINUOUS
 10
175.412384
 20
148.075027
 40
2.000000
 50
90.000000
 51
180.000000
  0
ARC
  8
0
  6
CONTINUOUS
 10
175.412384
 20
46.075001
 40
2.000000
 50
180.000000
 51
270.000000
  0
LINE
  8
0
  6
CENTER
 10
687.511597
 20
-15.935000
 11
687.511597
 21
256.220001
  0
LINE
  8
0
  6
CENTER
 10
586.709229
 20
112.074997
 11
783.419189
 21
112.074997
  0
LINE
  8
0
  6
CENTER
 10
531.700012
 20
165.574997
 11
844.948425
 21
165.574997
  0
LINE
  8
0
  6
CENTER
 10
617.511597
 20
32.255001
 11
617.511597
 21
-6.455000
  0
LINE
  8
0
  6
CENTER
 10
757.511597
 20
29.490000
 11
757.511597
 21
-7.245000
  0
LINE
  8
0
  6
DASHED
 10
750.011597
 20
20.575001
 11
750.011597
 21
0.575000
  0
LINE
  8
0
  6
DASHED
 10
765.011597
 20
20.575001
 11
765.011597
 21
0.575000
  0
LINE
  8
0
  6
DASHED
 10
625.011597
 20
20.575001
 11
625.011597
 21
0.575000
  0
LINE
  8
0
  6
DASHED
 10
610.011597
 20
20.575001
 11
610.011597
 21
0.575000
  0
LINE
  8
0
  6
CONTINUOUS
 10
597.511597
 20
0.575000
 11
652.511597
 21
0.575000
  0
LINE
  8
0
  6
CONTINUOUS
 10
722.511597
 20
0.575000
 11
777.511597
 21
0.575000
  0
LINE
  8
0
  6
CONTINUOUS
 10
744.511597
 20
20.575001
 11
774.511597
 21
20.575001
  0
LINE
  8
0
  6
CONTINUOUS
 10
600.511597
 20
20.575001
 11
630.511597
 21
20.575001
  0
LINE
  8
0
  6
CONTINUOUS
 10
597.511597
 20
17.943880
 11
597.511597
 21
0.575020
  0
LINE
  8
0
  6
CONTINUOUS
 10
777.511597
 20
17.943880
 11
777.511597
 21
0.575000
  0
LINE
  8
0
  6
CONTINUOUS
 10
739.511597
 20
222.855103
 11
739.511597
 21
238.236755
  0
LINE
  8
0
  6
CONTINUOUS
 10
635.511597
 20
238.236374
 11
635.511597
 21
0.575000
  0
LINE
  8
0
  6
CONTINUOUS
 10
654.011597
 20
2.075000
 11
721.011597
 21
2.075000
  0
LINE
  8
0
  6
CONTINUOUS
 10
639.956177
 20
204.074997
 11
735.743408
 21
204.074997
  0
LINE
  8
0
  6
CONTINUOUS
 10
735.581421
 20
242.236145
 11
687.511597
 21
243.075027
  0
LINE
  8
0
  6
CONTINUOUS
 10
639.441772
 20
242.235779
 11
687.511597
 21
243.075027
  0
LINE
  8
0
  6
CONTINUOUS
 10
614.511597
 20
124.855110
 11
614.511597
 21
206.294876
  0
LINE
  8
0
  6
CONTINUOUS
 10
760.511597
 20
124.855110
 11
760.511597
 21
206.294876
  0
LINE
  8
0
  6
CONTINUOUS
 10
621.511597
 20
66.355103
 11
621.511597
 21
169.715286
  0
LINE
  8
0
  6
CONTINUOUS
 10
753.511597
 20
66.355118
 11
753.511597
 21
169.715286
  0
ARC
  8
0
  6
CONTINUOUS
 10
639.511597
 20
238.236404
 40
4.000000
 50
91.000580
 51
180.000000
  0
ARC
  8
0
  6
CONTINUOUS
 10
735.511597
 20
238.236740
 40
4.000000
 50
0.000000
 51
89.000359
  0
LINE
  8
0
  6
CONTINUOUS
 10
619.588623
 20
213.025558
 11
630.434570
 21
216.124435
  0
LINE
  8
0
  6
CONTINUOUS
 10
744.588623
 20
216.124435
 11
755.434570
 21
213.025558
  0
LINE
  8
0
  6
CONTINUOUS
 10
626.588623
 20
59.624439
 11
630.434570
 21
58.525558
  0
LINE
  8
0
  6
CONTINUOUS
 10
748.434570
 20
59.624439
 11
744.588623
 21
58.525558
  0
LINE
  8
0
  6
CONTINUOUS
 10
774.903015
 20
20.918240
 11
742.120178
 21
25.231760
  0
LINE
  8
0
  6
CONTINUOUS
 10
600.120178
 20
20.918240
 11
632.903015
 21
25.231779
  0
ARC
  8
0
  6
CONTINUOUS
 10
621.511597
 20
206.294922
 40
7.000000
 50
105.945801
 51
180.000000
  0
ARC
  8
0
  6
CONTINUOUS
 10
621.511597
 20
124.855156
 40
7.000000
 50
180.000000
 51
240.000198
  0
ARC
  8
0
  6
CONTINUOUS
 10
753.511597
 20
206.294861
 40
7.000000
 50
0.000000
 51
74.054764
  0
ARC
  8
0
  6
CONTINUOUS
 10
753.511597
 20
124.855095
 40
7.000000
 50
-59.999882
 51
0.000000
  0
ARC
  8
0
  6
CONTINUOUS
 10
628.511597
 20
66.355164
 40
7.000000
 50
180.000000
 51
254.054901
  0
ARC
  8
0
  6
CONTINUOUS
 10
746.511597
 20
66.355103
 40
7.000000
 50
-74.054497
 51
0.000000
  0
LINE
  8
0
  6
CONTINUOUS
 10
739.511597
 20
25.575001
 11
739.511597
 21
222.855103
  0
ARC
  8
0
  6
CONTINUOUS
 10
746.511597
 20
222.855164
 40
7.000000
 50
180.000000
 51
254.054901
  0
ARC
  8
0
  6
CONTINUOUS
 10
746.511597
 20
51.794941
 40
7.000000
 50
105.945801
 51
180.000000
  0
ARC
  8
0
  6
CONTINUOUS
 10
760.511597
 20
112.730743
 40
7.000000
 50
120.000099
 51
180.000000
  0
ARC
  8
0
  6
CONTINUOUS
 10
742.511597
 20
28.206141
 40
3.000000
 50
180.000000
 51
262.504395
  0
ARC
  8
0
  6
CONTINUOUS
 10
774.511597
 20
17.575001
 40
3.000000
 50
0.000000
 51
90.000000
  0
ARC
  8
0
  6
CONTINUOUS
 10
774.511597
 20
17.943859
 40
3.000000
 50
0.000000
 51
82.504204
  0
LINE
  8
0
  6
CONTINUOUS
 10
739.511597
 20
25.575001
 11
739.511597
 21
0.575000
  0
ARC
  8
0
  6
CONTINUOUS
 10
744.511597
 20
25.575020
 40
5.000000
 50
180.000000
 51
270.000000
  0
ARC
  8
0
  6
CONTINUOUS
 10
632.511597
 20
28.206141
 40
3.000000
 50
-82.503883
 51
0.000000
  0
ARC
  8
0
  6
CONTINUOUS
 10
630.511597
 20
25.575001
 40
5.000000
 50
-90.000000
 51
0.000000
  0
ARC
  8
0
  6
CONTINUOUS
 10
600.511597
 20
17.575020
 40
3.000000
 50
90.000000
 51
180.000000
  0
ARC
  8
0
  6
CONTINUOUS
 10
600.511597
 20
17.943899
 40
3.000000
 50
97.496292
 51
180.000000
  0
LINE
  8
0
  6
CONTINUOUS
 10
652.511597
 20
0.575000
 11
654.011597
 21
2.075000
  0
LINE
  8
0
  6
CONTINUOUS
 10
722.511597
 20
0.575000
 11
721.011597
 21
2.075000
  0
ARC
  8
0
  6
CONTINUOUS
 10
628.511597
 20
51.794861
 40
7.000000
 50
0.000000
 51
74.054688
  0
ARC
  8
0
  6
CONTINUOUS
 10
614.511597
 20
112.730782
 40
7.000000
 50
0.000000
 51
60.000092
  0
ARC
  8
0
  6
CONTINUOUS
 10
628.511597
 20
222.855103
 40
7.000000
 50
-74.054443
 51
0.000000
  0
ARC
  8
0
  6
CONTINUOUS
 10
687.511597
 20
112.074997
 40
71.000000
 50
-21.630920
 51
6.068256
  0
ARC
  8
0
  6
CONTINUOUS
 10
687.511597
 20
112.074997
 40
71.000000
 50
173.931793
 51
201.630905
  0
LINE
  8
0
  6
CONTINUOUS
 10
740.511597
 20
55.400478
 11
740.511597
 21
49.075001
  0
LINE
  8
0
  6
CONTINUOUS
 10
634.511597
 20
49.075001
 11
634.511597
 21
55.264000
  0
ARC
  8
0
  6
CONTINUOUS
 10
735.511597
 20
49.075001
 40
5.000000
 50
-36.869869
 51
0.000000
  0
ARC
  8
0
  6
CONTINUOUS
 10
639.511597
 20
49.075001
 40
5.000000
 50
180.000000
 51
216.865204
  0
LINE
  8
0
  6
CONTINUOUS
 10
357.912384
 20
159.575058
 11
357.912384
 21
171.575058
  0
LINE
  8
0
  6
CONTINUOUS
 10
365.912384
 20
159.575073
 11
365.912384
 21
171.575073
  0
LINE
  8
0
  6
CONTINUOUS
 10
365.912384
 20
159.575073
 11
357.912384
 21
159.575058
  0
LINE
  8
0
  6
CONTINUOUS
 10
365.912384
 20
171.575073
 11
357.912384
 21
171.575058
  0
ARC
  8
0
  6
CONTINUOUS
 10
342.912384
 20
165.574997
 40
20.000000
 50
17.457600
 51
342.542389
  0
LINE
  8
0
  6
CONTINUOUS
 10
547.511597
 20
145.574997
 11
547.511597
 21
185.574997
  0
LINE
  8
0
  6
CONTINUOUS
 10
612.511597
 20
185.574997
 11
547.511597
 21
185.574997
  0
LINE
  8
0
  6
CONTINUOUS
 10
612.511597
 20
145.574997
 11
547.511597
 21
145.574997
  0
LINE
  8
0
  6
CONTINUOUS
 10
612.511597
 20
188.074997
 11
612.511597
 21
143.074997
  0
LINE
  8
0
  6
CONTINUOUS
 10
614.511597
 20
188.074997
 11
612.511597
 21
188.074997
  0
LINE
  8
0
  6
CONTINUOUS
 10
614.511597
 20
143.074997
 11
612.511597
 21
143.074997
  0
ARC
  8
0
  6
CONTINUOUS
 10
601.511597
 20
165.574997
 40
6.000000
 50
-90.000000
 51
90.000000
  0
LINE
  8
0
  6
CONTINUOUS
 10
601.511597
 20
171.574997
 11
547.511597
 21
171.574997
  0
LINE
  8
0
  6
CONTINUOUS
 10
601.511597
 20
159.574997
 11
547.511597
 21
159.574997
  0
LINE
  8
0
  6
CONTINUOUS
 10
827.511597
 20
145.574997
 11
827.511597
 21
185.574997
  0
LINE
  8
0
  6
CONTINUOUS
 10
762.511597
 20
185.574997
 11
827.511597
 21
185.574997
  0
LINE
  8
0
  6
CONTINUOUS
 10
762.511597
 20
145.574997
 11
827.511597
 21
145.574997
  0
LINE
  8
0
  6
CONTINUOUS
 10
762.511597
 20
188.074997
 11
762.511597
 21
143.074997
  0
LINE
  8
0
  6
CONTINUOUS
 10
760.511597
 20
188.074997
 11
762.511597
 21
188.074997
  0
LINE
  8
0
  6
CONTINUOUS
 10
760.511597
 20
143.074997
 11
762.511597
 21
143.074997
  0
ARC
  8
0
  6
CONTINUOUS
 10
773.511597
 20
165.574997
 40
6.000000
 50
90.000000
 51
270.000000
  0
LINE
  8
0
  6
CONTINUOUS
 10
773.511597
 20
171.574997
 11
827.511597
 21
171.574997
  0
LINE
  8
0
  6
CONTINUOUS
 10
773.511597
 20
159.574997
 11
827.511597
 21
159.574997
  0
LINE
  8
0
  6
CONTINUOUS
 10
230.912384
 20
66.831001
 11
230.912384
 21
181.074997
  0
LINE
  8
0
  6
CENTER
 10
-25.150000
 20
97.074997
 11
286.402374
 21
97.074997
  0
LINE
  8
0
  6
CONTINUOUS
 10
232.912384
 20
183.074997
 11
239.912384
 21
183.074997
  0
LINE
  8
0
  6
CONTINUOUS
 10
232.912384
 20
41.075020
 11
239.912384
 21
41.075020
  0
LINE
  8
0
  6
CONTINUOUS
 10
211.912384
 20
44.075001
 11
183.412384
 21
44.075001
  0
LINE
  8
0
  6
CONTINUOUS
 10
183.412384
 20
150.074997
 11
227.912369
 21
150.074997
  0
LINE
  8
0
  6
CONTINUOUS
 10
229.412384
 20
161.208984
 11
210.824112
 21
150.476929
  0
ARC
  8
0
  6
CONTINUOUS
 10
232.912399
 20
181.074997
 40
2.000000
 50
90.000000
 51
180.000000
  0
ARC
  8
0
  6
CONTINUOUS
 10
232.912384
 20
43.075001
 40
2.000000
 50
194.477707
 51
270.000000
  0
LINE
  8
0
  6
CONTINUOUS
 10
211.912384
 20
46.075001
 11
211.912384
 21
62.831001
  0
LINE
  8
0
  6
CONTINUOUS
 10
228.912384
 20
64.831001
 11
213.912384
 21
64.831001
  0
ARC
  8
0
  6
CONTINUOUS
 10
213.912384
 20
62.831020
 40
2.000000
 50
90.000000
 51
180.000000
  0
ARC
  8
0
  6
CONTINUOUS
 10
229.039398
 20
42.075001
 40
2.000000
 50
14.477280
 51
90.000000
  0
ARC
  8
0
  6
CONTINUOUS
 10
228.912384
 20
66.831001
 40
2.000000
 50
-90.000000
 51
0.000000
  0
LINE
  8
0
  6
CONTINUOUS
 10
211.912384
 20
44.075001
 11
229.039398
 21
44.075001
  0
ARC
  8
0
  6
CONTINUOUS
 10
209.912384
 20
46.075001
 40
2.000000
 50
-90.000000
 51
0.000000
  0
ARC
  8
0
  6
CONTINUOUS
 10
227.912384
 20
153.074997
 40
3.000000
 50
-90.000000
 51
0.000000
  0
ARC
  8
0
  6
CONTINUOUS
 10
227.912384
 20
163.807037
 40
3.000000
 50
-59.999660
 51
0.000000
  0
ARC
  8
0
  6
CONTINUOUS
 10
209.324097
 20
153.074997
 40
3.000000
 50
270.000000
 51
300.000305
  0
LINE
  8
0
  6
CONTINUOUS
 10
183.412384
 20
150.074997
 11
183.412384
 21
44.075001
  0
LINE
  8
0
  6
CONTINUOUS
 10
411.781494
 20
580.259216
 11
365.912384
 21
580.259277
  0
LINE
  8
0
  6
CONTINUOUS
 10
411.780884
 20
400.259155
 11
365.912384
 21
400.259247
  0
LINE
  8
0
  6
CENTER
 10
342.912384
 20
335.870361
 11
342.913025
 21
655.337219
  0
LINE
  8
0
  6
CENTER
 10
417.766205
 20
560.260010
 11
389.398132
 21
560.260010
  0
LINE
  8
0
  6
CONTINUOUS
 10
432.912689
 20
490.259247
 11
432.004700
 21
438.259216
  0
LINE
  8
0
  6
CONTINUOUS
 10
421.235504
 20
407.001770
 11
432.004700
 21
438.259216
  0
ARC
  8
0
  6
CONTINUOUS
 10
411.781097
 20
410.259216
 40
10.000000
 50
-90.000000
 51
-19.010900
  0
ARC
  8
0
  6
CONTINUOUS
 10
402.912689
 20
560.260010
 40
7.500000
 50
-46.074883
 51
212.226791
  0
LINE
  8
0
  6
CONTINUOUS
 10
432.912689
 20
490.259247
 11
432.004883
 21
542.259216
  0
LINE
  8
0
  6
CONTINUOUS
 10
421.235901
 20
573.516602
 11
432.004883
 21
542.259216
  0
ARC
  8
0
  6
CONTINUOUS
 10
411.781494
 20
570.259216
 40
10.000000
 50
19.010900
 51
90.000000
  0
LINE
  8
0
  6
CONTINUOUS
 10
252.912689
 20
490.259430
 11
253.820496
 21
438.259491
  0
LINE
  8
0
  6
CONTINUOUS
 10
264.589508
 20
407.002014
 11
253.820496
 21
438.259491
  0
ARC
  8
0
  6
CONTINUOUS
 10
274.044098
 20
410.259460
 40
10.000000
 50
199.010895
 51
270.000000
  0
LINE
  8
0
  6
CONTINUOUS
 10
252.912689
 20
490.259430
 11
253.769226
 21
539.312012
  0
LINE
  8
0
  6
CONTINUOUS
 10
264.589905
 20
573.516785
 11
254.167511
 21
543.266052
  0
LINE
  8
0
  6
CONTINUOUS
 10
241.950500
 20
561.259399
 11
239.912903
 21
561.259399
  0
LINE
  8
0
  6
CONTINUOUS
 10
239.912903
 20
561.259399
 11
239.912491
 21
419.259491
  0
LINE
  8
0
  6
CONTINUOUS
 10
251.022491
 20
547.447571
 11
248.711899
 21
556.071167
  0
ARC
  8
0
  6
CONTINUOUS
 10
241.950500
 20
554.259399
 40
7.000000
 50
14.999900
 51
90.000000
  0
ARC
  8
0
  6
CONTINUOUS
 10
257.784088
 20
549.259399
 40
7.000000
 50
-165.000305
 51
-90.000000
  0
LINE
  8
0
  6
CONTINUOUS
 10
241.950089
 20
419.259491
 11
239.912491
 21
419.259491
  0
LINE
  8
0
  6
CONTINUOUS
 10
251.022293
 20
433.071320
 11
248.711700
 21
424.447723
  0
ARC
  8
0
  6
CONTINUOUS
 10
241.950089
 20
426.259521
 40
7.000000
 50
-90.000000
 51
-14.999900
  0
ARC
  8
0
  6
CONTINUOUS
 10
257.783905
 20
431.259491
 40
7.000000
 50
121.109207
 51
165.000336
  0
ARC
  8
0
  6
CONTINUOUS
 10
274.044098
 20
570.259827
 40
10.000000
 50
90.000000
 51
160.989105
  0
ARC
  8
0
  6
CONTINUOUS
 10
282.912506
 20
560.260681
 40
7.500000
 50
-32.232941
 51
238.076355
  0
LINE
  8
0
  6
CENTER
 10
402.912415
 20
548.458435
 11
402.912903
 21
572.334839
  0
LINE
  8
0
  6
CENTER
 10
295.923096
 20
560.260132
 11
270.345337
 21
560.260132
  0
LINE
  8
0
  6
CENTER
 10
282.912689
 20
548.458435
 11
282.912903
 21
572.335022
  0
LINE
  8
0
  6
CONTINUOUS
 10
429.056793
 20
542.259644
 11
256.768768
 21
542.259644
  0
LINE
  8
0
  6
CONTINUOUS
 10
300.131927
 20
563.259644
 11
385.692841
 21
563.259644
  0
ARC
  8
0
  6
CONTINUOUS
 10
429.056793
 20
539.259644
 40
3.000000
 50
1.000152
 51
90.000000
  0
ARC
  8
0
  6
CONTINUOUS
 10
256.768768
 20
539.259644
 40
3.000000
 50
90.000000
 51
178.999634
  0
LINE
  8
0
  6
CONTINUOUS
 10
429.056793
 20
438.259644
 11
256.768768
 21
438.259644
  0
ARC
  8
0
  6
CONTINUOUS
 10
429.056793
 20
441.259644
 40
3.000000
 50
270.000000
 51
358.999847
  0
ARC
  8
0
  6
CONTINUOUS
 10
256.768768
 20
441.259644
 40
3.000000
 50
181.000366
 51
270.000000
  0
LINE
  8
0
  6
CONTINUOUS
 10
377.912598
 20
443.259644
 11
377.912598
 21
537.259644
  0
LINE
  8
0
  6
CONTINUOUS
 10
307.912598
 20
443.259644
 11
307.912598
 21
537.259644
  0
LINE
  8
0
  6
CONTINUOUS
 10
284.192596
 20
556.259644
 11
290.912384
 21
556.259644
  0
LINE
  8
0
  6
CONTINUOUS
 10
403.912506
 20
556.259644
 11
394.912384
 21
556.259644
  0
ARC
  8
0
  6
CONTINUOUS
 10
403.912506
 20
549.259644
 40
7.000000
 50
0.000000
 51
90.000000
  0
ARC
  8
0
  6
CONTINUOUS
 10
417.912506
 20
549.259644
 40
7.000000
 50
180.000000
 51
270.000000
  0
LINE
  8
0
  6
CENTER
 10
417.766205
 20
420.260101
 11
389.398132
 21
420.260101
  0
ARC
  8
0
  6
CONTINUOUS
 10
402.912689
 20
420.260101
 40
7.500000
 50
-212.226791
 51
46.074883
  0
ARC
  8
0
  6
CONTINUOUS
 10
282.912506
 20
420.259430
 40
7.500000
 50
-226.078156
 51
32.232941
  0
LINE
  8
0
  6
CENTER
 10
402.912415
 20
432.061707
 11
402.912903
 21
408.185303
  0
LINE
  8
0
  6
CENTER
 10
295.923096
 20
420.260010
 11
270.345337
 21
420.260010
  0
LINE
  8
0
  6
CENTER
 10
282.912689
 20
432.061707
 11
282.912903
 21
408.185120
  0
LINE
  8
0
  6
CONTINUOUS
 10
300.131927
 20
417.259644
 11
385.692841
 21
417.259644
  0
LINE
  8
0
  6
CONTINUOUS
 10
281.912506
 20
424.259644
 11
290.912384
 21
424.259583
  0
ARC
  8
0
  6
CONTINUOUS
 10
281.912506
 20
431.259644
 40
7.000000
 50
180.000000
 51
270.000000
  0
ARC
  8
0
  6
CONTINUOUS
 10
267.912506
 20
431.259644
 40
7.000000
 50
0.000000
 51
90.000000
  0
LINE
  8
0
  6
CONTINUOUS
 10
403.912506
 20
424.259644
 11
394.912384
 21
424.259583
  0
ARC
  8
0
  6
CONTINUOUS
 10
403.912506
 20
431.259644
 40
7.000000
 50
-90.000000
 51
0.000000
  0
ARC
  8
0
  6
CONTINUOUS
 10
417.912506
 20
431.259644
 40
7.000000
 50
90.000000
 51
180.000000
  0
LINE
  8
0
  6
CONTINUOUS
 10
277.461945
 20
551.182678
 11
276.363068
 21
547.336609
  0
ARC
  8
0
  6
CONTINUOUS
 10
284.192596
 20
549.259644
 40
7.000000
 50
90.000000
 51
164.054611
  0
ARC
  8
0
  6
CONTINUOUS
 10
269.632385
 20
549.259644
 40
7.000000
 50
-90.000000
 51
-15.945396
  0
LINE
  8
0
  6
CONTINUOUS
 10
322.912689
 20
350.259430
 11
365.912384
 21
350.259430
  0
LINE
  8
0
  6
CONTINUOUS
 10
362.912689
 20
415.259430
 11
362.912689
 21
410.259857
  0
LINE
  8
0
  6
CONTINUOUS
 10
322.912689
 20
415.259430
 11
322.912689
 21
350.259430
  0
LINE
  8
0
  6
CONTINUOUS
 10
365.412689
 20
415.259430
 11
320.412689
 21
415.259430
  0
LINE
  8
0
  6
CONTINUOUS
 10
365.412689
 20
417.259430
 11
365.412689
 21
415.259430
  0
LINE
  8
0
  6
CONTINUOUS
 10
320.412689
 20
417.259430
 11
320.412689
 21
415.259430
  0
LINE
  8
0
  6
CONTINUOUS
 10
322.912689
 20
630.259399
 11
365.912384
 21
630.259399
  0
LINE
  8
0
  6
CONTINUOUS
 10
362.912689
 20
565.259399
 11
362.912689
 21
570.259399
  0
LINE
  8
0
  6
CONTINUOUS
 10
322.912689
 20
565.259399
 11
322.912689
 21
630.259399
  0
LINE
  8
0
  6
CONTINUOUS
 10
365.412689
 20
565.259399
 11
320.412689
 21
565.259399
  0
LINE
  8
0
  6
CONTINUOUS
 10
365.412689
 20
563.259399
 11
365.412689
 21
565.259399
  0
LINE
  8
0
  6
CONTINUOUS
 10
320.412689
 20
563.259399
 11
320.412689
 21
565.259399
  0
LINE
  8
0
  6
CONTINUOUS
 10
322.912689
 20
580.259338
 11
274.044495
 21
580.259399
  0
LINE
  8
0
  6
CONTINUOUS
 10
322.912689
 20
400.259338
 11
274.044098
 21
400.259430
  0
LINE
  8
0
  6
CONTINUOUS
 10
365.912384
 20
630.259399
 11
365.912384
 21
570.259399
  0
LINE
  8
0
  6
CONTINUOUS
 10
361.991394
 20
570.259399
 11
365.912384
 21
570.259399
  0
LINE
  8
0
  6
CONTINUOUS
 10
365.912384
 20
350.259857
 11
365.912384
 21
410.259857
  0
LINE
  8
0
  6
CONTINUOUS
 10
361.991394
 20
410.259857
 11
365.912384
 21
410.259857
  0
LINE
  8
0
  6
CONTINUOUS
 10
294.817139
 20
560.815186
 11
290.912384
 21
556.259644
  0
ARC
  8
0
  6
CONTINUOUS
 10
300.131927
 20
556.259644
 40
7.000000
 50
90.000000
 51
139.398712
  0
LINE
  8
0
  6
CONTINUOUS
 10
391.007629
 20
560.815186
 11
394.912384
 21
556.259644
  0
ARC
  8
0
  6
CONTINUOUS
 10
385.692841
 20
556.259644
 40
7.000000
 50
40.601295
 51
90.000000
  0
LINE
  8
0
  6
CONTINUOUS
 10
391.007629
 20
419.704041
 11
394.912384
 21
424.259583
  0
ARC
  8
0
  6
CONTINUOUS
 10
385.692841
 20
424.259583
 40
7.000000
 50
-90.000000
 51
-40.601295
  0
LINE
  8
0
  6
CONTINUOUS
 10
294.817139
 20
419.704041
 11
290.912384
 21
424.259583
  0
ARC
  8
0
  6
CONTINUOUS
 10
300.131927
 20
424.259583
 40
7.000000
 50
-139.398712
 51
-90.000000
  0
LINE
  8
0
  6
CONTINUOUS
 10
361.991394
 20
410.259857
 11
361.991394
 21
350.259430
  0
LINE
  8
0
  6
CONTINUOUS
 10
361.991394
 20
630.259399
 11
361.991394
 21
570.259399
  0
LINE
  8
0
  6
CENTER
 10
456.113617
 20
490.259430
 11
-25.150000
 21
490.259430
  0
LINE
  8
0
  6
CONTINUOUS
 10
232.912903
 20
561.259399
 11
239.912903
 21
561.259399
  0
LINE
  8
0
  6
CONTINUOUS
 10
230.912903
 20
421.259430
 11
230.912903
 21
559.259399
  0
LINE
  8
0
  6
CONTINUOUS
 10
232.912903
 20
419.259430
 11
239.912491
 21
419.259430
  0
LINE
  8
0
  6
CONTINUOUS
 10
183.412903
 20
543.259399
 11
230.912903
 21
543.259399
  0
LINE
  8
0
  6
CONTINUOUS
 10
183.412903
 20
437.259430
 11
230.912903
 21
437.259430
  0
LINE
  8
0
  6
CONTINUOUS
 10
183.412903
 20
543.259399
 11
183.412903
 21
437.259430
  0
ARC
  8
0
  6
CONTINUOUS
 10
232.912903
 20
559.259399
 40
2.000000
 50
90.000000
 51
180.000000
  0
ARC
  8
0
  6
CONTINUOUS
 10
232.912903
 20
421.259430
 40
2.000000
 50
180.000000
 51
270.000000
  0
ARC
  8
0
  6
CONTINUOUS
 10
230.127975
 20
490.259430
 40
20.000000
 50
141.561295
 51
180.000000
  0
LINE
  8
0
  6
CONTINUOUS
 10
230.912903
 20
523.419434
 11
214.462494
 21
502.692963
  0
ARC
  8
0
  6
CONTINUOUS
 10
230.127975
 20
490.259430
 40
20.000000
 50
-180.000000
 51
-141.561295
  0
LINE
  8
0
  6
CONTINUOUS
 10
230.912903
 20
457.099426
 11
214.462494
 21
477.825897
  0
LINE
  8
0
  6
CONTINUOUS
 10
53.412380
 20
543.259399
 11
183.412384
 21
543.259399
  0
LINE
  8
0
  6
CONTINUOUS
 10
53.412380
 20
437.259430
 11
183.412384
 21
437.259430
  0
LINE
  8
0
  6
CONTINUOUS
 10
53.412380
 20
521.759399
 11
173.412384
 21
521.759399
  0
LINE
  8
0
  6
CONTINUOUS
 10
53.412380
 20
458.759430
 11
173.412384
 21
458.759430
  0
LINE
  8
0
  6
CONTINUOUS
 10
173.412384
 20
541.259399
 11
173.412384
 21
521.759399
  0
ARC
  8
0
  6
CONTINUOUS
 10
175.412384
 20
541.259460
 40
2.000000
 50
90.000000
 51
180.000000
  0
ARC
  8
0
  6
CONTINUOUS
 10
175.412384
 20
439.259430
 40
2.000000
 50
180.000000
 51
270.000000
  0
LINE
  8
0
  6
CONTINUOUS
 10
44.912338
 20
543.259399
 11
53.412380
 21
543.259399
  0
LINE
  8
0
  6
CONTINUOUS
 10
44.912338
 20
437.259430
 11
53.412380
 21
437.259430
  0
LINE
  8
0
  6
CONTINUOUS
 10
53.412380
 20
521.759399
 11
44.912338
 21
521.759399
  0
LINE
  8
0
  6
CONTINUOUS
 10
53.412380
 20
458.759430
 11
44.912338
 21
458.759430
  0
LINE
  8
0
  6
CONTINUOUS
 10
53.412380
 20
437.259430
 11
53.412380
 21
465.259399
  0
LINE
  8
0
  6
CONTINUOUS
 10
53.412380
 20
515.259399
 11
53.412380
 21
543.259399
  0
LINE
  8
0
  6
CONTINUOUS
 10
44.912338
 20
545.259399
 11
44.912338
 21
513.759338
  0
LINE
  8
0
  6
CONTINUOUS
 10
5.912340
 20
545.259399
 11
44.912338
 21
545.259399
  0
LINE
  8
0
  6
CONTINUOUS
 10
5.912340
 20
435.259430
 11
44.912338
 21
435.259430
  0
LINE
  8
0
  6
CONTINUOUS
 10
-4.087660
 20
445.259430
 11
-4.087660
 21
535.259399
  0
LINE
  8
0
  6
CONTINUOUS
 10
0.912340
 20
520.759399
 11
44.912338
 21
520.759399
  0
LINE
  8
0
  6
CONTINUOUS
 10
0.912340
 20
459.759430
 11
44.912338
 21
459.759430
  0
ARC
  8
0
  6
CONTINUOUS
 10
5.912430
 20
535.259399
 40
10.000000
 50
90.000000
 51
180.000000
  0
ARC
  8
0
  6
CONTINUOUS
 10
5.912340
 20
445.259430
 40
10.000000
 50
180.000000
 51
270.000000
  0
LINE
  8
0
  6
CONTINUOUS
 10
44.912380
 20
152.074997
 11
44.912380
 21
42.075001
  0
LINE
  8
0
  6
CONTINUOUS
 10
44.912380
 20
150.074997
 11
53.412380
 21
150.074997
  0
LINE
  8
0
  6
CONTINUOUS
 10
44.912380
 20
44.075001
 11
53.412380
 21
44.075001
  0
LINE
  8
0
  6
CONTINUOUS
 10
44.912380
 20
139.637604
 11
53.412380
 21
139.637604
  0
LINE
  8
0
  6
CONTINUOUS
 10
44.912380
 20
54.390869
 11
53.412380
 21
54.390869
  0
LINE
  8
0
  6
CONTINUOUS
 10
5.912382
 20
152.074997
 11
44.912380
 21
152.074997
  0
LINE
  8
0
  6
CONTINUOUS
 10
5.912382
 20
42.075001
 11
44.912380
 21
42.075001
  0
LINE
  8
0
  6
CONTINUOUS
 10
-4.087618
 20
52.075001
 11
-4.087618
 21
142.074997
  0
LINE
  8
0
  6
CONTINUOUS
 10
0.912382
 20
127.574997
 11
44.912380
 21
127.574997
  0
LINE
  8
0
  6
CONTINUOUS
 10
0.912382
 20
66.574997
 11
44.912380
 21
66.574997
  0
ARC
  8
0
  6
CONTINUOUS
 10
5.912472
 20
142.074997
 40
10.000000
 50
90.000000
 51
180.000000
  0
ARC
  8
0
  6
CONTINUOUS
 10
5.912382
 20
52.075001
 40
10.000000
 50
180.000000
 51
270.000000
  0
LINE
  8
0
  6
CONTINUOUS
 10
53.412380
 20
44.075001
 11
53.412380
 21
150.074997
  0
LINE
  8
0
  6
CONTINUOUS
 10
44.912338
 20
466.759460
 11
44.912338
 21
435.259430
  0
LINE
  8
0
  6
CONTINUOUS
 10
44.412380
 20
467.259399
 11
44.412380
 21
513.259399
  0
LINE
  8
0
  6
CONTINUOUS
 10
46.412380
 20
515.259399
 11
44.412380
 21
513.259399
  0
LINE
  8
0
  6
CONTINUOUS
 10
46.412380
 20
515.259399
 11
92.412369
 21
515.259399
  0
LINE
  8
0
  6
CONTINUOUS
 10
86.912384
 20
510.759399
 11
86.912384
 21
515.259399
  0
ARC
  8
0
  6
CONTINUOUS
 10
89.912384
 20
510.759399
 40
3.000000
 50
180.000000
 51
270.000000
  0
LINE
  8
0
  6
CONTINUOUS
 10
89.912384
 20
507.759399
 11
94.412369
 21
507.759399
  0
CIRCLE
  8
0
  6
CONTINUOUS
 10
90.912384
 20
511.759399
 40
2.250000
  0
LINE
  8
0
  6
CONTINUOUS
 10
94.412376
 20
467.259399
 11
94.412369
 21
513.259399
  0
LINE
  8
0
  6
CONTINUOUS
 10
92.412369
 20
515.259399
 11
94.412369
 21
513.259399
  0
LINE
  8
0
  6
CONTINUOUS
 10
92.412376
 20
465.259399
 11
94.412376
 21
467.259399
  0
LINE
  8
0
  6
CONTINUOUS
 10
92.412376
 20
465.259399
 11
46.412380
 21
465.259399
  0
LINE
  8
0
  6
CONTINUOUS
 10
44.412380
 20
467.259399
 11
46.412380
 21
465.259399
  0
LINE
  8
0
  6
CONTINUOUS
 10
48.912380
 20
472.759399
 11
44.412392
 21
472.759399
  0
CIRCLE
  8
0
  6
CONTINUOUS
 10
47.912380
 20
468.759399
 40
2.250000
  0
ARC
  8
0
  6
CONTINUOUS
 10
48.912380
 20
469.759399
 40
3.000000
 50
0.000000
 51
90.000000
  0
LINE
  8
0
  6
CONTINUOUS
 10
51.912380
 20
469.759399
 11
51.912380
 21
465.259399
  0
LINE
  8
0
  6
CENTER
 10
69.412384
 20
457.793640
 11
69.412384
 21
521.925659
  0
LINE
  8
0
  6
CONTINUOUS
 10
45.412388
 20
472.759430
 11
45.412388
 21
507.759430
  0
LINE
  8
0
  6
CONTINUOUS
 10
86.912384
 20
514.259399
 11
51.912403
 21
514.259399
  0
LINE
  8
0
  6
CONTINUOUS
 10
93.412376
 20
507.759430
 11
93.412376
 21
472.759430
  0
LINE
  8
0
  6
CONTINUOUS
 10
51.912380
 20
466.259430
 11
86.912399
 21
466.259430
  0
ARC
  8
0
  6
CONTINUOUS
 10
48.912403
 20
510.759430
 40
3.000000
 50
-90.000000
 51
0.000000
  0
LINE
  8
0
  6
CONTINUOUS
 10
51.912403
 20
510.759430
 11
51.912403
 21
515.259399
  0
CIRCLE
  8
0
  6
CONTINUOUS
 10
47.912403
 20
511.759430
 40
2.250000
  0
LINE
  8
0
  6
CONTINUOUS
 10
48.912403
 20
507.759430
 11
44.412403
 21
507.759430
  0
CIRCLE
  8
0
  6
CONTINUOUS
 10
90.912399
 20
468.759430
 40
2.250000
  0
LINE
  8
0
  6
CONTINUOUS
 10
86.912399
 20
469.759430
 11
86.912399
 21
465.259430
  0
ARC
  8
0
  6
CONTINUOUS
 10
89.912399
 20
469.759430
 40
3.000000
 50
90.000000
 51
180.000000
  0
LINE
  8
0
  6
CONTINUOUS
 10
89.912399
 20
472.759430
 11
94.412399
 21
472.759430
  0
LINE
  8
0
  6
CONTINUOUS
 10
45.912380
 20
151.574997
 11
92.412384
 21
151.574997
  0
LINE
  8
0
  6
CONTINUOUS
 10
94.412361
 20
195.574997
 11
94.412384
 21
153.574997
  0
LINE
  8
0
  6
CONTINUOUS
 10
44.412380
 20
195.574997
 11
44.412380
 21
153.574997
  0
LINE
  8
0
  6
CONTINUOUS
 10
44.412380
 20
163.574997
 11
94.412384
 21
163.574997
  0
LINE
  8
0
  6
CONTINUOUS
 10
92.412384
 20
151.574997
 11
94.412384
 21
153.574997
  0
LINE
  8
0
  6
CONTINUOUS
 10
44.412380
 20
153.574997
 11
46.412380
 21
151.574997
  0
LINE
  8
0
  6
CONTINUOUS
 10
44.412380
 20
153.574997
 11
94.412384
 21
153.574997
  0
LINE
  8
0
  6
CONTINUOUS
 10
44.412380
 20
164.574997
 11
94.412369
 21
164.574997
  0
LINE
  8
0
  6
CONTINUOUS
 10
45.412380
 20
196.574997
 11
93.412361
 21
196.574997
  0
LINE
  8
0
  6
CONTINUOUS
 10
93.412361
 20
196.574997
 11
94.412361
 21
195.574997
  0
LINE
  8
0
  6
CONTINUOUS
 10
45.412380
 20
196.574997
 11
44.412380
 21
195.574997
  0
LINE
  8
0
  6
CONTINUOUS
 10
44.412380
 20
195.574997
 11
94.412361
 21
195.574997
  0
LINE
  8
0
  6
CENTER
 10
42.037380
 20
179.574997
 11
46.662380
 21
179.574997
  0
LINE
  8
0
  6
CONTINUOUS
 10
45.912380
 20
151.574997
 11
45.912380
 21
150.074997
  0
LINE
  8
0
  6
CONTINUOUS
 10
91.912384
 20
151.574997
 11
91.912384
 21
150.074997
  0
LINE
  8
0
  6
CONTINUOUS
 10
43.537380
 20
190.074997
 11
45.537380
 21
190.074997
  0
LINE
  8
0
  6
CONTINUOUS
 10
43.537380
 20
169.074997
 11
45.537380
 21
169.074997
  0
LINE
  8
0
  6
CENTER
 10
69.412384
 20
142.159378
 11
69.412384
 21
203.494370
  0
LINE
  8
0
  6
CONTINUOUS
 10
173.412384
 20
458.759430
 11
173.412384
 21
439.259399
  0
TEXT
  8
0
 10
-25.000000
 20
-15.000000
 40
4.000000
 41
1.000000
  1
HLM-40T-1200~1800-S90K
 50
0.000000
  0
ENDSEC
  0
EOF
