  0
SECTION
  2
HEADER
  9
$CLAYER
  8
1
  9
$LTSCALE
 40
3.0
  0
ENDSEC
  0
SECTION
  2
TABLES
  0
TABLE
  2
LTYPE
 70
     4
  0
LTYPE
  2
CONTINUOUS
  3
solid line
 70
    64
 72
    65
 73
     0
 40
0.0
  0
LTYPE
  2
DASHED
  3
__ __ __ __ __ __ __ __ __ __ __ __ __ __ __
 70
    64
 72
    65
 73
     2
 40
0.75
 49
0.5
 49
-0.25
  0
LTYPE
  2
CENTER
  3
____ _ ____ _ ____ _ ____ _ ____ _ ____ _ ____
 70
    64
 72
    65
 73
     4
 40
2.0
 49
1.25
 49
-0.25
 49
0.25
 49
-0.25
  0
LTYPE
  2
PHANTOM
  3
_____ _ _ _____ _ _ _____ _ _ _____ _ _ ____
 70
    64
 72
    65
 73
     6
 40
2.5
 49
1.25
 49
-0.25
 49
0.25
 49
-0.25
 49
0.25
 49
-0.25
  0
ENDTAB
  0
TABLE
  2
LAYER
 70
     1
  0
LAYER
  2
0
 70
    64
 62
     7
  6
CONTINUOUS
  0
ENDTAB
  0
TABLE
  2
STYLE
 70
     1
  0
STYLE
  2
STANDARD
 70
     0
 40
0.000000
 41
1.000000
 50
0.000000
 71
     0
 42
3.000000
  3
txt
  4
BIGFONT
  0
ENDTAB
  0
ENDSEC
  0
SECTION
  2
BLOCKS
  0
ENDSEC
  0
SECTION
  2
ENTITIES
  0
LINE
  8
0
  6
CONTINUOUS
 10
246.832382
 20
48.020000
 11
246.832382
 21
190.020004
  0
LINE
  8
0
  6
CENTER
 10
147.214996
 20
119.019997
 11
293.322388
 21
119.019997
  0
LINE
  8
0
  6
CENTER
 10
349.832367
 20
262.375000
 11
349.832367
 21
-6.620000
  0
LINE
  8
0
  6
CENTER
 10
275.140015
 20
172.520004
 11
424.845001
 21
172.520004
  0
LINE
  8
0
  6
CONTINUOUS
 10
259.832367
 20
7.520000
 11
439.832367
 21
7.520000
  0
LINE
  8
0
  6
CONTINUOUS
 10
259.832367
 20
27.520000
 11
439.832367
 21
27.520000
  0
LINE
  8
0
  6
CONTINUOUS
 10
318.017975
 20
250.020004
 11
381.646790
 21
250.020004
  0
LINE
  8
0
  6
CONTINUOUS
 10
439.832367
 20
205.852005
 11
439.832367
 21
7.520000
  0
LINE
  8
0
  6
CONTINUOUS
 10
259.832367
 20
205.852005
 11
259.832367
 21
7.520000
  0
LINE
  8
0
  6
CONTINUOUS
 10
246.832382
 20
190.020004
 11
254.832382
 21
190.020004
  0
LINE
  8
0
  6
CONTINUOUS
 10
246.832382
 20
48.020000
 11
254.832382
 21
48.020000
  0
LINE
  8
0
  6
CONTINUOUS
 10
387.430969
 20
248.177338
 11
435.616791
 21
214.009323
  0
LINE
  8
0
  6
CONTINUOUS
 10
264.048187
 20
214.009323
 11
312.233795
 21
248.177338
  0
ARC
  8
0
  6
CONTINUOUS
 10
429.832367
 20
205.851959
 40
10.000000
 50
0.000000
 51
54.660099
  0
ARC
  8
0
  6
CONTINUOUS
 10
381.646790
 20
240.020004
 40
10.000000
 50
54.659950
 51
90.000000
  0
ARC
  8
0
  6
CONTINUOUS
 10
318.017975
 20
240.020004
 40
10.000000
 50
90.000000
 51
125.340302
  0
ARC
  8
0
  6
CONTINUOUS
 10
269.832367
 20
205.852036
 40
10.000000
 50
125.340500
 51
180.000000
  0
ARC
  8
0
  6
CONTINUOUS
 10
254.832382
 20
195.020004
 40
5.000000
 50
-90.000000
 51
0.000000
  0
ARC
  8
0
  6
CONTINUOUS
 10
254.832382
 20
43.019981
 40
5.000000
 50
0.000000
 51
90.000000
  0
LINE
  8
0
  6
CENTER
 10
409.832367
 20
33.275002
 11
409.832367
 21
-0.695000
  0
LINE
  8
0
  6
CENTER
 10
289.832367
 20
34.459999
 11
289.832367
 21
-0.300000
  0
LINE
  8
0
  6
DASHED
 10
402.332367
 20
27.520000
 11
402.332367
 21
7.520000
  0
LINE
  8
0
  6
DASHED
 10
417.332367
 20
27.520000
 11
417.332367
 21
7.520000
  0
LINE
  8
0
  6
DASHED
 10
297.332367
 20
27.520000
 11
297.332367
 21
7.520000
  0
LINE
  8
0
  6
DASHED
 10
282.332367
 20
27.520000
 11
282.332367
 21
7.520000
  0
LINE
  8
0
  6
CONTINUOUS
 10
425.832367
 20
24.834681
 11
425.832367
 21
7.520000
  0
LINE
  8
0
  6
CONTINUOUS
 10
273.832367
 20
24.834681
 11
273.832367
 21
7.520000
  0
LINE
  8
0
  6
CONTINUOUS
 10
383.589783
 20
32.520000
 11
316.074982
 21
32.520000
  0
LINE
  8
0
  6
CONTINUOUS
 10
314.832367
 20
31.383120
 11
314.832367
 21
28.520000
  0
LINE
  8
0
  6
CONTINUOUS
 10
384.832367
 20
31.383120
 11
384.832367
 21
28.520000
  0
LINE
  8
0
  6
CONTINUOUS
 10
385.710968
 20
31.641319
 11
388.367981
 21
28.984440
  0
LINE
  8
0
  6
CONTINUOUS
 10
313.953796
 20
31.641319
 11
311.296783
 21
28.984501
  0
ARC
  8
0
  6
CONTINUOUS
 10
307.761383
 20
32.520000
 40
5.000000
 50
270.000000
 51
315.000092
  0
ARC
  8
0
  6
CONTINUOUS
 10
391.903381
 20
32.520000
 40
5.000000
 50
225.000107
 51
270.000000
  0
ARC
  8
0
  6
CONTINUOUS
 10
316.074982
 20
29.520000
 40
3.000000
 50
90.000000
 51
135.000397
  0
ARC
  8
0
  6
CONTINUOUS
 10
383.589783
 20
29.520000
 40
3.000000
 50
45.000259
 51
90.000000
  0
ARC
  8
0
  6
CONTINUOUS
 10
313.832367
 20
28.520000
 40
1.000000
 50
-90.000000
 51
0.000000
  0
ARC
  8
0
  6
CONTINUOUS
 10
385.832367
 20
28.520000
 40
1.000000
 50
180.000000
 51
270.000000
  0
CIRCLE
  8
0
  6
CONTINUOUS
 10
349.832367
 20
172.520004
 40
46.000000
  0
ARC
  8
0
  6
CONTINUOUS
 10
349.832367
 20
172.520004
 40
52.000000
 50
12.522720
 51
167.477402
  0
ARC
  8
0
  6
CONTINUOUS
 10
349.832367
 20
172.520004
 40
48.000000
 50
-192.522598
 51
12.522720
  0
ARC
  8
0
  6
CONTINUOUS
 10
319.832367
 20
102.019997
 40
34.000000
 50
167.477402
 51
270.000000
  0
ARC
  8
0
  6
CONTINUOUS
 10
319.832367
 20
102.019997
 40
38.000000
 50
167.477402
 51
270.000000
  0
ARC
  8
0
  6
CONTINUOUS
 10
379.832367
 20
102.019997
 40
34.000000
 50
-90.000000
 51
12.522730
  0
ARC
  8
0
  6
CONTINUOUS
 10
379.832367
 20
102.019997
 40
38.000000
 50
-90.000000
 51
12.522720
  0
LINE
  8
0
  6
CONTINUOUS
 10
282.736389
 20
110.259361
 11
299.069397
 21
183.794907
  0
LINE
  8
0
  6
CONTINUOUS
 10
400.595367
 20
183.794998
 11
416.928375
 21
110.259422
  0
LINE
  8
0
  6
CONTINUOUS
 10
396.690369
 20
182.927673
 11
413.023590
 21
109.392120
  0
LINE
  8
0
  6
CONTINUOUS
 10
286.641174
 20
109.392067
 11
302.974396
 21
182.927628
  0
LINE
  8
0
  6
CONTINUOUS
 10
319.832367
 20
68.019997
 11
379.832367
 21
68.019997
  0
LINE
  8
0
  6
CONTINUOUS
 10
319.832367
 20
64.019997
 11
379.832367
 21
64.019997
  0
LINE
  8
0
  6
CONTINUOUS
 10
337.605377
 20
86.019997
 11
332.664978
 21
86.019997
  0
LINE
  8
0
  6
CONTINUOUS
 10
340.332367
 20
94.295403
 11
340.332367
 21
86.019997
  0
LINE
  8
0
  6
CONTINUOUS
 10
345.082367
 20
97.301239
 11
345.082367
 21
100.269997
  0
LINE
  8
0
  6
CONTINUOUS
 10
354.582367
 20
97.301239
 11
354.582367
 21
100.269997
  0
LINE
  8
0
  6
CONTINUOUS
 10
348.904572
 20
98.525864
 11
348.904572
 21
87.578598
  0
LINE
  8
0
  6
CONTINUOUS
 10
350.685974
 20
98.525864
 11
350.685974
 21
87.578598
  0
LINE
  8
0
  6
CONTINUOUS
 10
360.037567
 20
98.525864
 11
360.037567
 21
87.504379
  0
LINE
  8
0
  6
CONTINUOUS
 10
361.670380
 20
92.681137
 11
361.670380
 21
87.504379
  0
LINE
  8
0
  6
CONTINUOUS
 10
338.078369
 20
98.377419
 11
333.500793
 21
98.377419
  0
LINE
  8
0
  6
CONTINUOUS
 10
333.500793
 20
98.377419
 11
332.428192
 21
97.047417
  0
LINE
  8
0
  6
CONTINUOUS
 10
332.557190
 20
100.269997
 11
330.832367
 21
98.061539
  0
LINE
  8
0
  6
CONTINUOUS
 10
332.428192
 20
88.837837
 11
333.517975
 21
87.689919
  0
LINE
  8
0
  6
CONTINUOUS
 10
330.832367
 20
87.869118
 11
332.664978
 21
86.019997
  0
LINE
  8
0
  6
CONTINUOUS
 10
330.832367
 20
98.061539
 11
330.832367
 21
87.869118
  0
LINE
  8
0
  6
CONTINUOUS
 10
332.428192
 20
97.047417
 11
332.428192
 21
88.837837
  0
LINE
  8
0
  6
CONTINUOUS
 10
338.959381
 20
97.525864
 11
338.060394
 21
98.377419
  0
LINE
  8
0
  6
CONTINUOUS
 10
338.944977
 20
100.269997
 11
340.332367
 21
98.730423
  0
LINE
  8
0
  6
CONTINUOUS
 10
338.959381
 20
97.301239
 11
340.332367
 21
97.301239
  0
LINE
  8
0
  6
CONTINUOUS
 10
332.557190
 20
100.269997
 11
338.944977
 21
100.269997
  0
LINE
  8
0
  6
CONTINUOUS
 10
336.472992
 20
94.295403
 11
340.332367
 21
94.295403
  0
LINE
  8
0
  6
CONTINUOUS
 10
338.959381
 20
92.736801
 11
336.472992
 21
92.736801
  0
LINE
  8
0
  6
CONTINUOUS
 10
335.990570
 20
87.689919
 11
333.517975
 21
87.689919
  0
LINE
  8
0
  6
CONTINUOUS
 10
338.959381
 20
91.252419
 11
338.959381
 21
92.439919
  0
ARC
  8
0
  6
CONTINUOUS
 10
335.990570
 20
90.658661
 40
2.968750
 50
-89.999786
 51
0.000109
  0
LINE
  8
0
  6
CONTINUOUS
 10
338.959381
 20
87.155922
 11
338.959381
 21
86.019997
  0
LINE
  8
0
  6
CONTINUOUS
 10
340.332367
 20
98.730423
 11
340.332367
 21
97.301239
  0
LINE
  8
0
  6
CONTINUOUS
 10
338.959381
 20
92.736801
 11
338.959381
 21
90.658661
  0
LINE
  8
0
  6
CONTINUOUS
 10
336.472992
 20
94.295403
 11
336.472992
 21
92.736801
  0
LINE
  8
0
  6
CONTINUOUS
 10
338.959381
 20
86.019997
 11
340.332367
 21
86.019997
  0
LINE
  8
0
  6
CONTINUOUS
 10
338.959381
 20
87.155922
 11
337.605377
 21
86.019997
  0
LINE
  8
0
  6
CONTINUOUS
 10
350.685974
 20
87.578598
 11
351.279572
 21
87.578598
  0
LINE
  8
0
  6
CONTINUOUS
 10
348.199585
 20
87.578598
 11
348.199585
 21
86.019997
  0
LINE
  8
0
  6
CONTINUOUS
 10
351.279572
 20
87.578598
 11
351.279572
 21
86.019997
  0
LINE
  8
0
  6
CONTINUOUS
 10
353.591370
 20
97.301239
 11
354.582367
 21
97.301239
  0
LINE
  8
0
  6
CONTINUOUS
 10
345.082367
 20
97.301239
 11
346.136993
 21
97.301239
  0
LINE
  8
0
  6
CONTINUOUS
 10
345.082367
 20
100.269997
 11
354.582367
 21
100.269997
  0
LINE
  8
0
  6
CONTINUOUS
 10
348.199585
 20
86.019997
 11
351.279572
 21
86.019997
  0
LINE
  8
0
  6
CONTINUOUS
 10
348.199585
 20
87.578598
 11
348.904572
 21
87.578598
  0
ARC
  8
0
  6
CONTINUOUS
 10
365.028595
 20
96.466278
 40
3.803712
 50
-73.981873
 51
90.003510
  0
ARC
  8
0
  6
CONTINUOUS
 10
365.028595
 20
96.466278
 40
2.320524
 50
-82.585274
 51
62.411850
  0
LINE
  8
0
  6
CONTINUOUS
 10
359.332367
 20
100.269997
 11
365.028595
 21
100.269997
  0
LINE
  8
0
  6
CONTINUOUS
 10
365.328186
 20
94.165161
 11
361.670380
 21
94.165161
  0
LINE
  8
0
  6
CONTINUOUS
 10
359.332367
 20
100.269997
 11
359.332367
 21
98.525864
  0
LINE
  8
0
  6
CONTINUOUS
 10
361.670380
 20
98.525864
 11
361.670380
 21
94.165161
  0
LINE
  8
0
  6
CONTINUOUS
 10
366.078186
 20
92.810257
 11
368.432587
 21
87.504379
  0
LINE
  8
0
  6
CONTINUOUS
 10
364.710968
 20
92.681137
 11
366.938782
 21
87.504379
  0
LINE
  8
0
  6
CONTINUOUS
 10
359.332367
 20
87.504379
 11
360.037567
 21
87.504379
  0
LINE
  8
0
  6
CONTINUOUS
 10
361.670380
 20
87.504379
 11
362.319794
 21
87.504379
  0
LINE
  8
0
  6
CONTINUOUS
 10
362.319794
 20
86.019997
 11
359.332367
 21
86.019997
  0
LINE
  8
0
  6
CONTINUOUS
 10
366.642975
 20
87.504379
 11
366.938782
 21
87.504379
  0
LINE
  8
0
  6
CONTINUOUS
 10
368.432587
 20
87.504379
 11
368.832367
 21
87.504379
  0
LINE
  8
0
  6
CONTINUOUS
 10
366.642975
 20
86.019997
 11
368.832367
 21
86.019997
  0
LINE
  8
0
  6
CONTINUOUS
 10
368.832367
 20
87.504379
 11
368.832367
 21
86.019997
  0
LINE
  8
0
  6
CONTINUOUS
 10
366.642975
 20
87.504379
 11
366.642975
 21
86.019997
  0
LINE
  8
0
  6
CONTINUOUS
 10
362.319794
 20
87.504379
 11
362.319794
 21
86.019997
  0
LINE
  8
0
  6
CONTINUOUS
 10
359.332367
 20
87.504379
 11
359.332367
 21
86.019997
  0
LINE
  8
0
  6
CONTINUOUS
 10
346.647186
 20
98.525864
 11
346.136993
 21
97.301239
  0
LINE
  8
0
  6
CONTINUOUS
 10
353.161194
 20
98.525864
 11
353.591370
 21
97.301239
  0
LINE
  8
0
  6
CONTINUOUS
 10
350.685974
 20
98.525864
 11
353.161194
 21
98.525864
  0
LINE
  8
0
  6
CONTINUOUS
 10
348.904572
 20
98.525864
 11
346.647186
 21
98.525864
  0
LINE
  8
0
  6
CONTINUOUS
 10
361.670380
 20
92.681137
 11
364.710968
 21
92.681137
  0
LINE
  8
0
  6
CONTINUOUS
 10
359.332367
 20
98.525864
 11
360.037567
 21
98.525864
  0
LINE
  8
0
  6
CONTINUOUS
 10
361.670380
 20
98.525864
 11
366.103394
 21
98.522980
  0
LINE
  8
0
  6
CONTINUOUS
 10
338.959381
 20
97.525864
 11
338.959381
 21
97.301239
  0
ARC
  8
0
  6
CONTINUOUS
 10
469.513977
 20
119.019997
 40
215.181595
 50
167.017899
 51
192.982101
  0
LINE
  8
0
  6
CONTINUOUS
 10
60.332382
 20
157.020004
 11
190.332382
 21
157.020004
  0
LINE
  8
0
  6
CONTINUOUS
 10
60.332382
 20
51.020000
 11
190.332382
 21
51.020000
  0
LINE
  8
0
  6
CONTINUOUS
 10
60.332382
 20
146.643341
 11
178.994141
 21
146.643341
  0
LINE
  8
0
  6
CONTINUOUS
 10
60.332382
 20
61.396641
 11
178.994141
 21
61.396641
  0
LINE
  8
0
  6
CONTINUOUS
 10
180.332382
 20
155.020004
 11
180.332382
 21
53.019981
  0
ARC
  8
0
  6
CONTINUOUS
 10
182.332382
 20
155.020020
 40
2.000000
 50
90.000000
 51
180.000000
  0
ARC
  8
0
  6
CONTINUOUS
 10
182.332382
 20
53.020000
 40
2.000000
 50
180.000000
 51
270.000000
  0
LINE
  8
0
  6
CENTER
 10
694.424072
 20
-8.990000
 11
694.424072
 21
263.165009
  0
LINE
  8
0
  6
CENTER
 10
593.621704
 20
119.019997
 11
790.331726
 21
119.019997
  0
LINE
  8
0
  6
CENTER
 10
538.612488
 20
172.520004
 11
851.860901
 21
172.520004
  0
LINE
  8
0
  6
CENTER
 10
624.424072
 20
39.200001
 11
624.424072
 21
0.490000
  0
LINE
  8
0
  6
CENTER
 10
764.424072
 20
36.435001
 11
764.424072
 21
-0.300000
  0
LINE
  8
0
  6
DASHED
 10
756.924072
 20
27.520000
 11
756.924072
 21
7.520000
  0
LINE
  8
0
  6
DASHED
 10
771.924072
 20
27.520000
 11
771.924072
 21
7.520000
  0
LINE
  8
0
  6
DASHED
 10
631.924072
 20
27.520000
 11
631.924072
 21
7.520000
  0
LINE
  8
0
  6
DASHED
 10
616.924072
 20
27.520000
 11
616.924072
 21
7.520000
  0
LINE
  8
0
  6
CONTINUOUS
 10
604.424072
 20
7.520000
 11
659.424072
 21
7.520000
  0
LINE
  8
0
  6
CONTINUOUS
 10
729.424072
 20
7.520000
 11
784.424072
 21
7.520000
  0
LINE
  8
0
  6
CONTINUOUS
 10
751.424072
 20
27.520000
 11
781.424072
 21
27.520000
  0
LINE
  8
0
  6
CONTINUOUS
 10
607.424072
 20
27.520000
 11
637.424072
 21
27.520000
  0
LINE
  8
0
  6
CONTINUOUS
 10
604.424072
 20
24.888880
 11
604.424072
 21
7.520020
  0
LINE
  8
0
  6
CONTINUOUS
 10
784.424072
 20
24.888880
 11
784.424072
 21
7.520000
  0
LINE
  8
0
  6
CONTINUOUS
 10
746.424072
 20
229.800095
 11
746.424072
 21
245.181763
  0
LINE
  8
0
  6
CONTINUOUS
 10
642.424072
 20
245.181381
 11
642.424072
 21
7.520000
  0
LINE
  8
0
  6
CONTINUOUS
 10
660.924072
 20
9.020000
 11
727.924072
 21
9.020000
  0
LINE
  8
0
  6
CONTINUOUS
 10
646.868713
 20
211.020004
 11
742.655884
 21
211.020004
  0
LINE
  8
0
  6
CONTINUOUS
 10
742.493896
 20
249.181137
 11
694.424072
 21
250.020020
  0
LINE
  8
0
  6
CONTINUOUS
 10
646.354309
 20
249.180786
 11
694.424072
 21
250.020020
  0
LINE
  8
0
  6
CONTINUOUS
 10
621.424072
 20
131.800110
 11
621.424072
 21
213.239883
  0
LINE
  8
0
  6
CONTINUOUS
 10
767.424072
 20
131.800110
 11
767.424072
 21
213.239883
  0
LINE
  8
0
  6
CONTINUOUS
 10
628.424072
 20
73.300102
 11
628.424072
 21
176.660278
  0
LINE
  8
0
  6
CONTINUOUS
 10
760.424072
 20
73.300117
 11
760.424072
 21
176.660278
  0
ARC
  8
0
  6
CONTINUOUS
 10
646.424072
 20
245.181396
 40
4.000000
 50
91.000580
 51
180.000000
  0
ARC
  8
0
  6
CONTINUOUS
 10
742.424072
 20
245.181747
 40
4.000000
 50
0.000000
 51
89.000359
  0
LINE
  8
0
  6
CONTINUOUS
 10
626.501099
 20
219.970566
 11
637.347107
 21
223.069443
  0
LINE
  8
0
  6
CONTINUOUS
 10
751.501099
 20
223.069443
 11
762.347107
 21
219.970566
  0
LINE
  8
0
  6
CONTINUOUS
 10
633.501099
 20
66.569443
 11
637.347107
 21
65.470558
  0
LINE
  8
0
  6
CONTINUOUS
 10
755.347107
 20
66.569443
 11
751.501099
 21
65.470558
  0
LINE
  8
0
  6
CONTINUOUS
 10
781.815491
 20
27.863239
 11
749.032715
 21
32.176762
  0
LINE
  8
0
  6
CONTINUOUS
 10
607.032715
 20
27.863239
 11
639.815491
 21
32.176781
  0
ARC
  8
0
  6
CONTINUOUS
 10
628.424072
 20
213.239914
 40
7.000000
 50
105.945801
 51
180.000000
  0
ARC
  8
0
  6
CONTINUOUS
 10
628.424072
 20
131.800156
 40
7.000000
 50
180.000000
 51
240.000198
  0
ARC
  8
0
  6
CONTINUOUS
 10
760.424072
 20
213.239853
 40
7.000000
 50
0.000000
 51
74.054764
  0
ARC
  8
0
  6
CONTINUOUS
 10
760.424072
 20
131.800095
 40
7.000000
 50
-59.999882
 51
0.000000
  0
ARC
  8
0
  6
CONTINUOUS
 10
635.424072
 20
73.300163
 40
7.000000
 50
180.000000
 51
254.054901
  0
ARC
  8
0
  6
CONTINUOUS
 10
753.424072
 20
73.300102
 40
7.000000
 50
-74.054497
 51
0.000000
  0
LINE
  8
0
  6
CONTINUOUS
 10
746.424072
 20
32.520000
 11
746.424072
 21
229.800095
  0
ARC
  8
0
  6
CONTINUOUS
 10
753.424072
 20
229.800156
 40
7.000000
 50
180.000000
 51
254.054901
  0
ARC
  8
0
  6
CONTINUOUS
 10
753.424072
 20
58.739941
 40
7.000000
 50
105.945801
 51
180.000000
  0
ARC
  8
0
  6
CONTINUOUS
 10
767.424072
 20
119.675743
 40
7.000000
 50
120.000099
 51
180.000000
  0
ARC
  8
0
  6
CONTINUOUS
 10
749.424072
 20
35.151138
 40
3.000000
 50
180.000000
 51
262.504395
  0
ARC
  8
0
  6
CONTINUOUS
 10
781.424072
 20
24.520000
 40
3.000000
 50
0.000000
 51
90.000000
  0
ARC
  8
0
  6
CONTINUOUS
 10
781.424072
 20
24.888861
 40
3.000000
 50
0.000000
 51
82.504204
  0
LINE
  8
0
  6
CONTINUOUS
 10
746.424072
 20
32.520000
 11
746.424072
 21
7.520000
  0
ARC
  8
0
  6
CONTINUOUS
 10
751.424072
 20
32.520020
 40
5.000000
 50
180.000000
 51
270.000000
  0
ARC
  8
0
  6
CONTINUOUS
 10
639.424072
 20
35.151138
 40
3.000000
 50
-82.503883
 51
0.000000
  0
ARC
  8
0
  6
CONTINUOUS
 10
637.424072
 20
32.520000
 40
5.000000
 50
-90.000000
 51
0.000000
  0
ARC
  8
0
  6
CONTINUOUS
 10
607.424072
 20
24.520020
 40
3.000000
 50
90.000000
 51
180.000000
  0
ARC
  8
0
  6
CONTINUOUS
 10
607.424072
 20
24.888901
 40
3.000000
 50
97.496292
 51
180.000000
  0
LINE
  8
0
  6
CONTINUOUS
 10
659.424072
 20
7.520000
 11
660.924072
 21
9.020000
  0
LINE
  8
0
  6
CONTINUOUS
 10
729.424072
 20
7.520000
 11
727.924072
 21
9.020000
  0
ARC
  8
0
  6
CONTINUOUS
 10
635.424072
 20
58.739861
 40
7.000000
 50
0.000000
 51
74.054688
  0
ARC
  8
0
  6
CONTINUOUS
 10
621.424072
 20
119.675781
 40
7.000000
 50
0.000000
 51
60.000092
  0
ARC
  8
0
  6
CONTINUOUS
 10
635.424072
 20
229.800095
 40
7.000000
 50
-74.054443
 51
0.000000
  0
ARC
  8
0
  6
CONTINUOUS
 10
694.424072
 20
119.019997
 40
71.000000
 50
-21.630920
 51
6.068256
  0
ARC
  8
0
  6
CONTINUOUS
 10
694.424072
 20
119.019997
 40
71.000000
 50
173.931793
 51
201.630905
  0
LINE
  8
0
  6
CONTINUOUS
 10
747.424072
 20
62.345482
 11
747.424072
 21
56.020000
  0
LINE
  8
0
  6
CONTINUOUS
 10
641.424072
 20
56.020000
 11
641.424072
 21
62.209000
  0
ARC
  8
0
  6
CONTINUOUS
 10
742.424072
 20
56.020000
 40
5.000000
 50
-36.869869
 51
0.000000
  0
ARC
  8
0
  6
CONTINUOUS
 10
646.424072
 20
56.020000
 40
5.000000
 50
180.000000
 51
216.865204
  0
LINE
  8
0
  6
CONTINUOUS
 10
364.832367
 20
166.520065
 11
364.832367
 21
178.520065
  0
LINE
  8
0
  6
CONTINUOUS
 10
372.832367
 20
166.520081
 11
372.832367
 21
178.520081
  0
LINE
  8
0
  6
CONTINUOUS
 10
372.832367
 20
166.520081
 11
364.832367
 21
166.520065
  0
LINE
  8
0
  6
CONTINUOUS
 10
372.832367
 20
178.520081
 11
364.832367
 21
178.520065
  0
ARC
  8
0
  6
CONTINUOUS
 10
349.832367
 20
172.520004
 40
20.000000
 50
17.457600
 51
342.542389
  0
LINE
  8
0
  6
CONTINUOUS
 10
554.424072
 20
152.520004
 11
554.424072
 21
192.520004
  0
LINE
  8
0
  6
CONTINUOUS
 10
619.424072
 20
192.520004
 11
554.424072
 21
192.520004
  0
LINE
  8
0
  6
CONTINUOUS
 10
619.424072
 20
152.520004
 11
554.424072
 21
152.520004
  0
LINE
  8
0
  6
CONTINUOUS
 10
619.424072
 20
195.020004
 11
619.424072
 21
150.020004
  0
LINE
  8
0
  6
CONTINUOUS
 10
621.424072
 20
195.020004
 11
619.424072
 21
195.020004
  0
LINE
  8
0
  6
CONTINUOUS
 10
621.424072
 20
150.020004
 11
619.424072
 21
150.020004
  0
ARC
  8
0
  6
CONTINUOUS
 10
608.424072
 20
172.520004
 40
6.000000
 50
-90.000000
 51
90.000000
  0
LINE
  8
0
  6
CONTINUOUS
 10
608.424072
 20
178.520004
 11
554.424072
 21
178.520004
  0
LINE
  8
0
  6
CONTINUOUS
 10
608.424072
 20
166.520004
 11
554.424072
 21
166.520004
  0
LINE
  8
0
  6
CONTINUOUS
 10
834.424072
 20
152.520004
 11
834.424072
 21
192.520004
  0
LINE
  8
0
  6
CONTINUOUS
 10
769.424072
 20
192.520004
 11
834.424072
 21
192.520004
  0
LINE
  8
0
  6
CONTINUOUS
 10
769.424072
 20
152.520004
 11
834.424072
 21
152.520004
  0
LINE
  8
0
  6
CONTINUOUS
 10
769.424072
 20
195.020004
 11
769.424072
 21
150.020004
  0
LINE
  8
0
  6
CONTINUOUS
 10
767.424072
 20
195.020004
 11
769.424072
 21
195.020004
  0
LINE
  8
0
  6
CONTINUOUS
 10
767.424072
 20
150.020004
 11
769.424072
 21
150.020004
  0
ARC
  8
0
  6
CONTINUOUS
 10
780.424072
 20
172.520004
 40
6.000000
 50
90.000000
 51
270.000000
  0
LINE
  8
0
  6
CONTINUOUS
 10
780.424072
 20
178.520004
 11
834.424072
 21
178.520004
  0
LINE
  8
0
  6
CONTINUOUS
 10
780.424072
 20
166.520004
 11
834.424072
 21
166.520004
  0
LINE
  8
0
  6
CONTINUOUS
 10
237.832382
 20
73.776001
 11
237.832382
 21
188.020004
  0
LINE
  8
0
  6
CENTER
 10
-18.230000
 20
104.019997
 11
293.322388
 21
104.019997
  0
LINE
  8
0
  6
CONTINUOUS
 10
239.832382
 20
190.020004
 11
246.832382
 21
190.020004
  0
LINE
  8
0
  6
CONTINUOUS
 10
239.832382
 20
48.020020
 11
246.832382
 21
48.020020
  0
LINE
  8
0
  6
CONTINUOUS
 10
218.832382
 20
51.020000
 11
190.332382
 21
51.020000
  0
LINE
  8
0
  6
CONTINUOUS
 10
190.332382
 20
157.020004
 11
234.832367
 21
157.020004
  0
LINE
  8
0
  6
CONTINUOUS
 10
236.332382
 20
168.153976
 11
217.744110
 21
157.421921
  0
ARC
  8
0
  6
CONTINUOUS
 10
239.832397
 20
188.020004
 40
2.000000
 50
90.000000
 51
180.000000
  0
ARC
  8
0
  6
CONTINUOUS
 10
239.832382
 20
50.020000
 40
2.000000
 50
194.477707
 51
270.000000
  0
LINE
  8
0
  6
CONTINUOUS
 10
218.832382
 20
53.020000
 11
218.832382
 21
69.776001
  0
LINE
  8
0
  6
CONTINUOUS
 10
235.832382
 20
71.776001
 11
220.832382
 21
71.776001
  0
ARC
  8
0
  6
CONTINUOUS
 10
220.832382
 20
69.776016
 40
2.000000
 50
90.000000
 51
180.000000
  0
ARC
  8
0
  6
CONTINUOUS
 10
235.959396
 20
49.020000
 40
2.000000
 50
14.477280
 51
90.000000
  0
ARC
  8
0
  6
CONTINUOUS
 10
235.832382
 20
73.776001
 40
2.000000
 50
-90.000000
 51
0.000000
  0
LINE
  8
0
  6
CONTINUOUS
 10
218.832382
 20
51.020000
 11
235.959396
 21
51.020000
  0
ARC
  8
0
  6
CONTINUOUS
 10
216.832382
 20
53.020000
 40
2.000000
 50
-90.000000
 51
0.000000
  0
ARC
  8
0
  6
CONTINUOUS
 10
234.832382
 20
160.020004
 40
3.000000
 50
-90.000000
 51
0.000000
  0
ARC
  8
0
  6
CONTINUOUS
 10
234.832382
 20
170.752045
 40
3.000000
 50
-59.999660
 51
0.000000
  0
ARC
  8
0
  6
CONTINUOUS
 10
216.244095
 20
160.020004
 40
3.000000
 50
270.000000
 51
300.000305
  0
LINE
  8
0
  6
CONTINUOUS
 10
190.332382
 20
157.020004
 11
190.332382
 21
51.020000
  0
LINE
  8
0
  6
CONTINUOUS
 10
418.701508
 20
587.204163
 11
372.832367
 21
587.204285
  0
LINE
  8
0
  6
CONTINUOUS
 10
418.700897
 20
407.204163
 11
372.832367
 21
407.204254
  0
LINE
  8
0
  6
CENTER
 10
349.832367
 20
342.815338
 11
349.833038
 21
662.282227
  0
LINE
  8
0
  6
CENTER
 10
424.686188
 20
567.205017
 11
396.318146
 21
567.205017
  0
LINE
  8
0
  6
CONTINUOUS
 10
439.832703
 20
497.204254
 11
438.924683
 21
445.204193
  0
LINE
  8
0
  6
CONTINUOUS
 10
428.155487
 20
413.946777
 11
438.924683
 21
445.204193
  0
ARC
  8
0
  6
CONTINUOUS
 10
418.701111
 20
417.204224
 40
10.000000
 50
-90.000000
 51
-19.010900
  0
ARC
  8
0
  6
CONTINUOUS
 10
409.832703
 20
567.205017
 40
7.500000
 50
-46.074883
 51
212.226791
  0
LINE
  8
0
  6
CONTINUOUS
 10
439.832703
 20
497.204254
 11
438.924896
 21
549.204163
  0
LINE
  8
0
  6
CONTINUOUS
 10
428.155884
 20
580.461609
 11
438.924896
 21
549.204163
  0
ARC
  8
0
  6
CONTINUOUS
 10
418.701508
 20
577.204163
 40
10.000000
 50
19.010900
 51
90.000000
  0
LINE
  8
0
  6
CONTINUOUS
 10
259.832703
 20
497.204437
 11
260.740509
 21
445.204498
  0
LINE
  8
0
  6
CONTINUOUS
 10
271.509491
 20
413.947021
 11
260.740509
 21
445.204498
  0
ARC
  8
0
  6
CONTINUOUS
 10
280.964081
 20
417.204468
 40
10.000000
 50
199.010895
 51
270.000000
  0
LINE
  8
0
  6
CONTINUOUS
 10
259.832703
 20
497.204437
 11
260.689240
 21
546.257019
  0
LINE
  8
0
  6
CONTINUOUS
 10
271.509888
 20
580.461792
 11
261.087524
 21
550.210999
  0
LINE
  8
0
  6
CONTINUOUS
 10
248.870499
 20
568.204407
 11
246.832901
 21
568.204407
  0
LINE
  8
0
  6
CONTINUOUS
 10
246.832901
 20
568.204407
 11
246.832489
 21
426.204498
  0
LINE
  8
0
  6
CONTINUOUS
 10
257.942505
 20
554.392578
 11
255.631897
 21
563.016174
  0
ARC
  8
0
  6
CONTINUOUS
 10
248.870499
 20
561.204407
 40
7.000000
 50
14.999900
 51
90.000000
  0
ARC
  8
0
  6
CONTINUOUS
 10
264.704102
 20
556.204407
 40
7.000000
 50
-165.000305
 51
-90.000000
  0
LINE
  8
0
  6
CONTINUOUS
 10
248.870102
 20
426.204498
 11
246.832489
 21
426.204498
  0
LINE
  8
0
  6
CONTINUOUS
 10
257.942291
 20
440.016296
 11
255.631699
 21
431.392731
  0
ARC
  8
0
  6
CONTINUOUS
 10
248.870102
 20
433.204529
 40
7.000000
 50
-90.000000
 51
-14.999900
  0
ARC
  8
0
  6
CONTINUOUS
 10
264.703888
 20
438.204498
 40
7.000000
 50
121.109207
 51
165.000336
  0
ARC
  8
0
  6
CONTINUOUS
 10
280.964081
 20
577.204834
 40
10.000000
 50
90.000000
 51
160.989105
  0
ARC
  8
0
  6
CONTINUOUS
 10
289.832489
 20
567.205688
 40
7.500000
 50
-32.232941
 51
238.076355
  0
LINE
  8
0
  6
CENTER
 10
409.832397
 20
555.403442
 11
409.832886
 21
579.279846
  0
LINE
  8
0
  6
CENTER
 10
302.843109
 20
567.205139
 11
277.265350
 21
567.205139
  0
LINE
  8
0
  6
CENTER
 10
289.832703
 20
555.403442
 11
289.832886
 21
579.280029
  0
LINE
  8
0
  6
CONTINUOUS
 10
435.976807
 20
549.204651
 11
263.688782
 21
549.204651
  0
LINE
  8
0
  6
CONTINUOUS
 10
307.051941
 20
570.204651
 11
392.612823
 21
570.204651
  0
ARC
  8
0
  6
CONTINUOUS
 10
435.976807
 20
546.204651
 40
3.000000
 50
1.000152
 51
90.000000
  0
ARC
  8
0
  6
CONTINUOUS
 10
263.688782
 20
546.204651
 40
3.000000
 50
90.000000
 51
178.999634
  0
LINE
  8
0
  6
CONTINUOUS
 10
435.976807
 20
445.204651
 11
263.688782
 21
445.204651
  0
ARC
  8
0
  6
CONTINUOUS
 10
435.976807
 20
448.204651
 40
3.000000
 50
270.000000
 51
358.999847
  0
ARC
  8
0
  6
CONTINUOUS
 10
263.688782
 20
448.204651
 40
3.000000
 50
181.000366
 51
270.000000
  0
LINE
  8
0
  6
CONTINUOUS
 10
384.832611
 20
450.204651
 11
384.832611
 21
544.204651
  0
LINE
  8
0
  6
CONTINUOUS
 10
314.832611
 20
450.204651
 11
314.832611
 21
544.204651
  0
LINE
  8
0
  6
CONTINUOUS
 10
291.112610
 20
563.204651
 11
297.832367
 21
563.204651
  0
LINE
  8
0
  6
CONTINUOUS
 10
410.832489
 20
563.204651
 11
401.832367
 21
563.204651
  0
ARC
  8
0
  6
CONTINUOUS
 10
410.832489
 20
556.204651
 40
7.000000
 50
0.000000
 51
90.000000
  0
ARC
  8
0
  6
CONTINUOUS
 10
424.832489
 20
556.204651
 40
7.000000
 50
180.000000
 51
270.000000
  0
LINE
  8
0
  6
CENTER
 10
424.686188
 20
427.205109
 11
396.318146
 21
427.205109
  0
ARC
  8
0
  6
CONTINUOUS
 10
409.832703
 20
427.205109
 40
7.500000
 50
-212.226791
 51
46.074883
  0
ARC
  8
0
  6
CONTINUOUS
 10
289.832489
 20
427.204437
 40
7.500000
 50
-226.078156
 51
32.232941
  0
LINE
  8
0
  6
CENTER
 10
409.832397
 20
439.006714
 11
409.832886
 21
415.130310
  0
LINE
  8
0
  6
CENTER
 10
302.843109
 20
427.205017
 11
277.265350
 21
427.205017
  0
LINE
  8
0
  6
CENTER
 10
289.832703
 20
439.006714
 11
289.832886
 21
415.130096
  0
LINE
  8
0
  6
CONTINUOUS
 10
307.051941
 20
424.204651
 11
392.612823
 21
424.204651
  0
LINE
  8
0
  6
CONTINUOUS
 10
288.832489
 20
431.204651
 11
297.832367
 21
431.204590
  0
ARC
  8
0
  6
CONTINUOUS
 10
288.832489
 20
438.204651
 40
7.000000
 50
180.000000
 51
270.000000
  0
ARC
  8
0
  6
CONTINUOUS
 10
274.832489
 20
438.204651
 40
7.000000
 50
0.000000
 51
90.000000
  0
LINE
  8
0
  6
CONTINUOUS
 10
410.832489
 20
431.204651
 11
401.832367
 21
431.204590
  0
ARC
  8
0
  6
CONTINUOUS
 10
410.832489
 20
438.204651
 40
7.000000
 50
-90.000000
 51
0.000000
  0
ARC
  8
0
  6
CONTINUOUS
 10
424.832489
 20
438.204651
 40
7.000000
 50
90.000000
 51
180.000000
  0
LINE
  8
0
  6
CONTINUOUS
 10
284.381927
 20
558.127686
 11
283.283051
 21
554.281616
  0
ARC
  8
0
  6
CONTINUOUS
 10
291.112610
 20
556.204651
 40
7.000000
 50
90.000000
 51
164.054611
  0
ARC
  8
0
  6
CONTINUOUS
 10
276.552399
 20
556.204651
 40
7.000000
 50
-90.000000
 51
-15.945396
  0
LINE
  8
0
  6
CONTINUOUS
 10
329.832703
 20
357.204437
 11
372.832367
 21
357.204437
  0
LINE
  8
0
  6
CONTINUOUS
 10
369.832703
 20
422.204437
 11
369.832703
 21
417.204865
  0
LINE
  8
0
  6
CONTINUOUS
 10
329.832703
 20
422.204437
 11
329.832703
 21
357.204437
  0
LINE
  8
0
  6
CONTINUOUS
 10
372.332703
 20
422.204437
 11
327.332703
 21
422.204437
  0
LINE
  8
0
  6
CONTINUOUS
 10
372.332703
 20
424.204437
 11
372.332703
 21
422.204437
  0
LINE
  8
0
  6
CONTINUOUS
 10
327.332703
 20
424.204437
 11
327.332703
 21
422.204437
  0
LINE
  8
0
  6
CONTINUOUS
 10
329.832703
 20
637.204407
 11
372.832367
 21
637.204407
  0
LINE
  8
0
  6
CONTINUOUS
 10
369.832703
 20
572.204407
 11
369.832703
 21
577.204407
  0
LINE
  8
0
  6
CONTINUOUS
 10
329.832703
 20
572.204407
 11
329.832703
 21
637.204407
  0
LINE
  8
0
  6
CONTINUOUS
 10
372.332703
 20
572.204407
 11
327.332703
 21
572.204407
  0
LINE
  8
0
  6
CONTINUOUS
 10
372.332703
 20
570.204407
 11
372.332703
 21
572.204407
  0
LINE
  8
0
  6
CONTINUOUS
 10
327.332703
 20
570.204407
 11
327.332703
 21
572.204407
  0
LINE
  8
0
  6
CONTINUOUS
 10
329.832703
 20
587.204346
 11
280.964508
 21
587.204407
  0
LINE
  8
0
  6
CONTINUOUS
 10
329.832703
 20
407.204346
 11
280.964081
 21
407.204437
  0
LINE
  8
0
  6
CONTINUOUS
 10
372.832367
 20
637.204407
 11
372.832367
 21
577.204407
  0
LINE
  8
0
  6
CONTINUOUS
 10
368.911377
 20
577.204407
 11
372.832367
 21
577.204407
  0
LINE
  8
0
  6
CONTINUOUS
 10
372.832367
 20
357.204865
 11
372.832367
 21
417.204865
  0
LINE
  8
0
  6
CONTINUOUS
 10
368.911377
 20
417.204865
 11
372.832367
 21
417.204865
  0
LINE
  8
0
  6
CONTINUOUS
 10
301.737122
 20
567.760193
 11
297.832367
 21
563.204651
  0
ARC
  8
0
  6
CONTINUOUS
 10
307.051941
 20
563.204651
 40
7.000000
 50
90.000000
 51
139.398712
  0
LINE
  8
0
  6
CONTINUOUS
 10
397.927643
 20
567.760193
 11
401.832367
 21
563.204651
  0
ARC
  8
0
  6
CONTINUOUS
 10
392.612823
 20
563.204651
 40
7.000000
 50
40.601295
 51
90.000000
  0
LINE
  8
0
  6
CONTINUOUS
 10
397.927643
 20
426.649048
 11
401.832367
 21
431.204590
  0
ARC
  8
0
  6
CONTINUOUS
 10
392.612823
 20
431.204590
 40
7.000000
 50
-90.000000
 51
-40.601295
  0
LINE
  8
0
  6
CONTINUOUS
 10
301.737122
 20
426.649048
 11
297.832367
 21
431.204590
  0
ARC
  8
0
  6
CONTINUOUS
 10
307.051941
 20
431.204590
 40
7.000000
 50
-139.398712
 51
-90.000000
  0
LINE
  8
0
  6
CONTINUOUS
 10
368.911377
 20
417.204865
 11
368.911377
 21
357.204437
  0
LINE
  8
0
  6
CONTINUOUS
 10
368.911377
 20
637.204407
 11
368.911377
 21
577.204407
  0
LINE
  8
0
  6
CENTER
 10
463.033630
 20
497.204437
 11
-18.230000
 21
497.204437
  0
LINE
  8
0
  6
CONTINUOUS
 10
239.832901
 20
568.204407
 11
246.832901
 21
568.204407
  0
LINE
  8
0
  6
CONTINUOUS
 10
237.832901
 20
428.204437
 11
237.832901
 21
566.204407
  0
LINE
  8
0
  6
CONTINUOUS
 10
239.832901
 20
426.204437
 11
246.832489
 21
426.204437
  0
LINE
  8
0
  6
CONTINUOUS
 10
190.332901
 20
550.204407
 11
237.832901
 21
550.204407
  0
LINE
  8
0
  6
CONTINUOUS
 10
190.332901
 20
444.204437
 11
237.832901
 21
444.204437
  0
LINE
  8
0
  6
CONTINUOUS
 10
190.332901
 20
550.204407
 11
190.332901
 21
444.204437
  0
ARC
  8
0
  6
CONTINUOUS
 10
239.832901
 20
566.204407
 40
2.000000
 50
90.000000
 51
180.000000
  0
ARC
  8
0
  6
CONTINUOUS
 10
239.832901
 20
428.204437
 40
2.000000
 50
180.000000
 51
270.000000
  0
ARC
  8
0
  6
CONTINUOUS
 10
237.047974
 20
497.204437
 40
20.000000
 50
141.561295
 51
180.000000
  0
LINE
  8
0
  6
CONTINUOUS
 10
237.832901
 20
530.364441
 11
221.382492
 21
509.637970
  0
ARC
  8
0
  6
CONTINUOUS
 10
237.047974
 20
497.204437
 40
20.000000
 50
-180.000000
 51
-141.561295
  0
LINE
  8
0
  6
CONTINUOUS
 10
237.832901
 20
464.044434
 11
221.382492
 21
484.770874
  0
LINE
  8
0
  6
CONTINUOUS
 10
60.332382
 20
550.204407
 11
190.332382
 21
550.204407
  0
LINE
  8
0
  6
CONTINUOUS
 10
60.332382
 20
444.204437
 11
190.332382
 21
444.204437
  0
LINE
  8
0
  6
CONTINUOUS
 10
60.332382
 20
528.704407
 11
180.332382
 21
528.704407
  0
LINE
  8
0
  6
CONTINUOUS
 10
60.332382
 20
465.704437
 11
180.332382
 21
465.704437
  0
LINE
  8
0
  6
CONTINUOUS
 10
180.332382
 20
548.204407
 11
180.332382
 21
528.704407
  0
ARC
  8
0
  6
CONTINUOUS
 10
182.332382
 20
548.204468
 40
2.000000
 50
90.000000
 51
180.000000
  0
ARC
  8
0
  6
CONTINUOUS
 10
182.332382
 20
446.204437
 40
2.000000
 50
180.000000
 51
270.000000
  0
LINE
  8
0
  6
CONTINUOUS
 10
51.832340
 20
550.204407
 11
60.332382
 21
550.204407
  0
LINE
  8
0
  6
CONTINUOUS
 10
51.832340
 20
444.204437
 11
60.332382
 21
444.204437
  0
LINE
  8
0
  6
CONTINUOUS
 10
60.332382
 20
528.704407
 11
51.832340
 21
528.704407
  0
LINE
  8
0
  6
CONTINUOUS
 10
60.332382
 20
465.704437
 11
51.832340
 21
465.704437
  0
LINE
  8
0
  6
CONTINUOUS
 10
60.332382
 20
444.204437
 11
60.332382
 21
472.204407
  0
LINE
  8
0
  6
CONTINUOUS
 10
60.332382
 20
522.204407
 11
60.332382
 21
550.204407
  0
LINE
  8
0
  6
CONTINUOUS
 10
51.832340
 20
552.204407
 11
51.832340
 21
520.704346
  0
LINE
  8
0
  6
CONTINUOUS
 10
12.832340
 20
552.204407
 11
51.832340
 21
552.204407
  0
LINE
  8
0
  6
CONTINUOUS
 10
12.832340
 20
442.204437
 11
51.832340
 21
442.204437
  0
LINE
  8
0
  6
CONTINUOUS
 10
2.832340
 20
452.204437
 11
2.832340
 21
542.204407
  0
LINE
  8
0
  6
CONTINUOUS
 10
7.832340
 20
527.704407
 11
51.832340
 21
527.704407
  0
LINE
  8
0
  6
CONTINUOUS
 10
7.832340
 20
466.704437
 11
51.832340
 21
466.704437
  0
ARC
  8
0
  6
CONTINUOUS
 10
12.832430
 20
542.204407
 40
10.000000
 50
90.000000
 51
180.000000
  0
ARC
  8
0
  6
CONTINUOUS
 10
12.832340
 20
452.204437
 40
10.000000
 50
180.000000
 51
270.000000
  0
LINE
  8
0
  6
CONTINUOUS
 10
51.832382
 20
159.020004
 11
51.832382
 21
49.020000
  0
LINE
  8
0
  6
CONTINUOUS
 10
51.832382
 20
157.020004
 11
60.332382
 21
157.020004
  0
LINE
  8
0
  6
CONTINUOUS
 10
51.832382
 20
51.020000
 11
60.332382
 21
51.020000
  0
LINE
  8
0
  6
CONTINUOUS
 10
51.832382
 20
146.582596
 11
60.332382
 21
146.582596
  0
LINE
  8
0
  6
CONTINUOUS
 10
51.832382
 20
61.335869
 11
60.332382
 21
61.335869
  0
LINE
  8
0
  6
CONTINUOUS
 10
12.832382
 20
159.020004
 11
51.832382
 21
159.020004
  0
LINE
  8
0
  6
CONTINUOUS
 10
12.832382
 20
49.020000
 11
51.832382
 21
49.020000
  0
LINE
  8
0
  6
CONTINUOUS
 10
2.832382
 20
59.020000
 11
2.832382
 21
149.020004
  0
LINE
  8
0
  6
CONTINUOUS
 10
7.832382
 20
134.520004
 11
51.832382
 21
134.520004
  0
LINE
  8
0
  6
CONTINUOUS
 10
7.832382
 20
73.519997
 11
51.832382
 21
73.519997
  0
ARC
  8
0
  6
CONTINUOUS
 10
12.832472
 20
149.020004
 40
10.000000
 50
90.000000
 51
180.000000
  0
ARC
  8
0
  6
CONTINUOUS
 10
12.832382
 20
59.020000
 40
10.000000
 50
180.000000
 51
270.000000
  0
LINE
  8
0
  6
CONTINUOUS
 10
60.332382
 20
51.020000
 11
60.332382
 21
157.020004
  0
LINE
  8
0
  6
CONTINUOUS
 10
50.332382
 20
504.704407
 11
51.332382
 21
504.704407
  0
ARC
  8
0
  6
CONTINUOUS
 10
50.332401
 20
503.704407
 40
1.000000
 50
90.000000
 51
180.000000
  0
LINE
  8
0
  6
CONTINUOUS
 10
45.832397
 20
501.204407
 11
45.832397
 21
493.204407
  0
LINE
  8
0
  6
CONTINUOUS
 10
45.832397
 20
501.204407
 11
49.332397
 21
502.704407
  0
LINE
  8
0
  6
CONTINUOUS
 10
45.832382
 20
493.204407
 11
49.332382
 21
491.704407
  0
LINE
  8
0
  6
CONTINUOUS
 10
49.332397
 20
503.704407
 11
49.332397
 21
490.704407
  0
LINE
  8
0
  6
CONTINUOUS
 10
50.332382
 20
489.704407
 11
51.332382
 21
489.704407
  0
ARC
  8
0
  6
CONTINUOUS
 10
50.332401
 20
490.704407
 40
1.000000
 50
-180.000000
 51
-90.000000
  0
LINE
  8
0
  6
CONTINUOUS
 10
51.332382
 20
474.204407
 11
51.332382
 21
520.204407
  0
LINE
  8
0
  6
CONTINUOUS
 10
53.332382
 20
522.204407
 11
51.332382
 21
520.204407
  0
LINE
  8
0
  6
CONTINUOUS
 10
53.332382
 20
522.204407
 11
99.332375
 21
522.204407
  0
LINE
  8
0
  6
CONTINUOUS
 10
93.832382
 20
517.704407
 11
93.832382
 21
522.204407
  0
ARC
  8
0
  6
CONTINUOUS
 10
96.832382
 20
517.704407
 40
3.000000
 50
180.000000
 51
270.000000
  0
LINE
  8
0
  6
CONTINUOUS
 10
96.832382
 20
514.704407
 11
101.332375
 21
514.704407
  0
CIRCLE
  8
0
  6
CONTINUOUS
 10
97.832382
 20
518.704407
 40
2.250000
  0
LINE
  8
0
  6
CONTINUOUS
 10
101.332375
 20
474.204407
 11
101.332375
 21
520.204407
  0
LINE
  8
0
  6
CONTINUOUS
 10
99.332375
 20
522.204407
 11
101.332375
 21
520.204407
  0
LINE
  8
0
  6
CONTINUOUS
 10
99.332375
 20
472.204407
 11
101.332375
 21
474.204407
  0
LINE
  8
0
  6
CONTINUOUS
 10
99.332375
 20
472.204407
 11
53.332382
 21
472.204407
  0
LINE
  8
0
  6
CONTINUOUS
 10
51.332382
 20
474.204407
 11
53.332382
 21
472.204407
  0
LINE
  8
0
  6
CONTINUOUS
 10
55.832382
 20
479.704407
 11
51.332394
 21
479.704407
  0
CIRCLE
  8
0
  6
CONTINUOUS
 10
54.832382
 20
475.704407
 40
2.250000
  0
ARC
  8
0
  6
CONTINUOUS
 10
55.832382
 20
476.704407
 40
3.000000
 50
0.000000
 51
90.000000
  0
LINE
  8
0
  6
CONTINUOUS
 10
58.832382
 20
476.704407
 11
58.832382
 21
472.204407
  0
LINE
  8
0
  6
CENTER
 10
76.332382
 20
464.738617
 11
76.332382
 21
528.870667
  0
LINE
  8
0
  6
CONTINUOUS
 10
53.746601
 20
521.204407
 11
52.332390
 21
519.790222
  0
LINE
  8
0
  6
CONTINUOUS
 10
52.332390
 20
479.704437
 11
52.332390
 21
519.790222
  0
LINE
  8
0
  6
CONTINUOUS
 10
93.832382
 20
521.204407
 11
53.746601
 21
521.204407
  0
LINE
  8
0
  6
CONTINUOUS
 10
100.332375
 20
514.704407
 11
100.332375
 21
474.618652
  0
LINE
  8
0
  6
CONTINUOUS
 10
58.832382
 20
473.204437
 11
98.918159
 21
473.204437
  0
LINE
  8
0
  6
CONTINUOUS
 10
98.918159
 20
473.204437
 11
100.332375
 21
474.618652
  0
LINE
  8
0
  6
CONTINUOUS
 10
51.832340
 20
473.704437
 11
51.832340
 21
442.204437
  0
LINE
  8
0
  6
CONTINUOUS
 10
52.832382
 20
158.520020
 11
99.332382
 21
158.520020
  0
LINE
  8
0
  6
CONTINUOUS
 10
101.332375
 20
188.520020
 11
101.332382
 21
160.520020
  0
LINE
  8
0
  6
CONTINUOUS
 10
51.332382
 20
188.520020
 11
51.332382
 21
160.520020
  0
LINE
  8
0
  6
CONTINUOUS
 10
49.332382
 20
170.520020
 11
101.332382
 21
170.520020
  0
LINE
  8
0
  6
CONTINUOUS
 10
99.332382
 20
158.520020
 11
101.332382
 21
160.520020
  0
LINE
  8
0
  6
CONTINUOUS
 10
51.332382
 20
160.520020
 11
53.332382
 21
158.520020
  0
LINE
  8
0
  6
CONTINUOUS
 10
51.332382
 20
160.520020
 11
101.332382
 21
160.520020
  0
LINE
  8
0
  6
CONTINUOUS
 10
52.332382
 20
189.520020
 11
100.332375
 21
189.520020
  0
LINE
  8
0
  6
CONTINUOUS
 10
100.332375
 20
189.520020
 11
101.332375
 21
188.520020
  0
LINE
  8
0
  6
CONTINUOUS
 10
52.332382
 20
189.520020
 11
51.332382
 21
188.520020
  0
LINE
  8
0
  6
CONTINUOUS
 10
51.332382
 20
188.520020
 11
101.332375
 21
188.520020
  0
LINE
  8
0
  6
CENTER
 10
43.388626
 20
180.020020
 11
55.463631
 21
180.020020
  0
LINE
  8
0
  6
CONTINUOUS
 10
49.332397
 20
186.520020
 11
49.332382
 21
170.520020
  0
LINE
  8
0
  6
CONTINUOUS
 10
50.332382
 20
187.520020
 11
51.332382
 21
187.520020
  0
ARC
  8
0
  6
CONTINUOUS
 10
50.332401
 20
186.520020
 40
1.000000
 50
90.000000
 51
180.000000
  0
LINE
  8
0
  6
CONTINUOUS
 10
45.832397
 20
184.020020
 11
45.832397
 21
176.020020
  0
LINE
  8
0
  6
CONTINUOUS
 10
45.832397
 20
184.020020
 11
49.332397
 21
185.520020
  0
LINE
  8
0
  6
CONTINUOUS
 10
45.832382
 20
176.020020
 11
49.332382
 21
174.520020
  0
LINE
  8
0
  6
CENTER
 10
76.332382
 20
150.690643
 11
76.332382
 21
198.278137
  0
LINE
  8
0
  6
CONTINUOUS
 10
52.832382
 20
158.520020
 11
52.832382
 21
157.020020
  0
LINE
  8
0
  6
CONTINUOUS
 10
98.832382
 20
158.520020
 11
98.832382
 21
157.020020
  0
LINE
  8
0
  6
CONTINUOUS
 10
180.332382
 20
465.704437
 11
180.332382
 21
446.204407
  0
TEXT
  8
0
 10
-18.000000
 20
-8.000000
 40
4.000000
 41
1.000000
  1
HLM-40T-1200~1800-S90WT
 50
0.000000
  0
ENDSEC
  0
EOF
