  0
SECTION
  2
HEADER
  9
$CLAYER
  8
1
  9
$LTSCALE
 40
3.0
  0
ENDSEC
  0
SECTION
  2
TABLES
  0
TABLE
  2
LTYPE
 70
     4
  0
LTYPE
  2
CONTINUOUS
  3
solid line
 70
    64
 72
    65
 73
     0
 40
0.0
  0
LTYPE
  2
DASHED
  3
__ __ __ __ __ __ __ __ __ __ __ __ __ __ __
 70
    64
 72
    65
 73
     2
 40
0.75
 49
0.5
 49
-0.25
  0
LTYPE
  2
CENTER
  3
____ _ ____ _ ____ _ ____ _ ____ _ ____ _ ____
 70
    64
 72
    65
 73
     4
 40
2.0
 49
1.25
 49
-0.25
 49
0.25
 49
-0.25
  0
LTYPE
  2
PHANTOM
  3
_____ _ _ _____ _ _ _____ _ _ _____ _ _ ____
 70
    64
 72
    65
 73
     6
 40
2.5
 49
1.25
 49
-0.25
 49
0.25
 49
-0.25
 49
0.25
 49
-0.25
  0
ENDTAB
  0
TABLE
  2
LAYER
 70
     1
  0
LAYER
  2
0
 70
    64
 62
     7
  6
CONTINUOUS
  0
ENDTAB
  0
TABLE
  2
STYLE
 70
     1
  0
STYLE
  2
STANDARD
 70
     0
 40
0.000000
 41
1.000000
 50
0.000000
 71
     0
 42
3.000000
  3
txt
  4
BIGFONT
  0
ENDTAB
  0
ENDSEC
  0
SECTION
  2
BLOCKS
  0
ENDSEC
  0
SECTION
  2
ENTITIES
  0
LINE
  8
0
  6
CONTINUOUS
 10
205.372375
 20
45.849998
 11
205.372375
 21
187.850006
  0
LINE
  8
0
  6
CENTER
 10
105.247498
 20
116.849998
 11
251.407501
 21
116.849998
  0
LINE
  8
0
  6
CENTER
 10
308.372375
 20
260.204987
 11
308.372375
 21
-8.790000
  0
LINE
  8
0
  6
CENTER
 10
233.679993
 20
170.350006
 11
383.385010
 21
170.350006
  0
LINE
  8
0
  6
CONTINUOUS
 10
218.372375
 20
5.350000
 11
398.372375
 21
5.350000
  0
LINE
  8
0
  6
CONTINUOUS
 10
218.372375
 20
25.350000
 11
398.372375
 21
25.350000
  0
LINE
  8
0
  6
CONTINUOUS
 10
276.557983
 20
247.850006
 11
340.186768
 21
247.850006
  0
LINE
  8
0
  6
CONTINUOUS
 10
398.372375
 20
203.682007
 11
398.372375
 21
5.350000
  0
LINE
  8
0
  6
CONTINUOUS
 10
218.372375
 20
203.682007
 11
218.372375
 21
5.350000
  0
LINE
  8
0
  6
CONTINUOUS
 10
205.372375
 20
187.850006
 11
213.372375
 21
187.850006
  0
LINE
  8
0
  6
CONTINUOUS
 10
205.372375
 20
45.849998
 11
213.372375
 21
45.849998
  0
LINE
  8
0
  6
CONTINUOUS
 10
345.970978
 20
246.007339
 11
394.156769
 21
211.839325
  0
LINE
  8
0
  6
CONTINUOUS
 10
222.588181
 20
211.839325
 11
270.773773
 21
246.007339
  0
ARC
  8
0
  6
CONTINUOUS
 10
388.372375
 20
203.681961
 40
10.000000
 50
0.000000
 51
54.660099
  0
ARC
  8
0
  6
CONTINUOUS
 10
340.186768
 20
237.850006
 40
10.000000
 50
54.659950
 51
90.000000
  0
ARC
  8
0
  6
CONTINUOUS
 10
276.557983
 20
237.850006
 40
10.000000
 50
90.000000
 51
125.340302
  0
ARC
  8
0
  6
CONTINUOUS
 10
228.372375
 20
203.682037
 40
10.000000
 50
125.340500
 51
180.000000
  0
ARC
  8
0
  6
CONTINUOUS
 10
213.372375
 20
192.850006
 40
5.000000
 50
-90.000000
 51
0.000000
  0
ARC
  8
0
  6
CONTINUOUS
 10
213.372375
 20
40.849979
 40
5.000000
 50
0.000000
 51
90.000000
  0
LINE
  8
0
  6
CENTER
 10
368.372375
 20
31.105000
 11
368.372375
 21
-2.865000
  0
LINE
  8
0
  6
CENTER
 10
248.372375
 20
32.290001
 11
248.372375
 21
-2.470000
  0
LINE
  8
0
  6
DASHED
 10
360.872375
 20
25.350000
 11
360.872375
 21
5.350000
  0
LINE
  8
0
  6
DASHED
 10
375.872375
 20
25.350000
 11
375.872375
 21
5.350000
  0
LINE
  8
0
  6
DASHED
 10
255.872375
 20
25.350000
 11
255.872375
 21
5.350000
  0
LINE
  8
0
  6
DASHED
 10
240.872375
 20
25.350000
 11
240.872375
 21
5.350000
  0
LINE
  8
0
  6
CONTINUOUS
 10
384.372375
 20
22.664680
 11
384.372375
 21
5.350000
  0
LINE
  8
0
  6
CONTINUOUS
 10
232.372375
 20
22.664680
 11
232.372375
 21
5.350000
  0
LINE
  8
0
  6
CONTINUOUS
 10
342.129791
 20
30.350000
 11
274.614990
 21
30.350000
  0
LINE
  8
0
  6
CONTINUOUS
 10
273.372375
 20
29.213120
 11
273.372375
 21
26.350000
  0
LINE
  8
0
  6
CONTINUOUS
 10
343.372375
 20
29.213120
 11
343.372375
 21
26.350000
  0
LINE
  8
0
  6
CONTINUOUS
 10
344.250977
 20
29.471319
 11
346.907990
 21
26.814440
  0
LINE
  8
0
  6
CONTINUOUS
 10
272.493774
 20
29.471319
 11
269.836792
 21
26.814501
  0
ARC
  8
0
  6
CONTINUOUS
 10
266.301392
 20
30.350000
 40
5.000000
 50
270.000000
 51
315.000092
  0
ARC
  8
0
  6
CONTINUOUS
 10
350.443390
 20
30.350000
 40
5.000000
 50
225.000107
 51
270.000000
  0
ARC
  8
0
  6
CONTINUOUS
 10
274.614990
 20
27.350000
 40
3.000000
 50
90.000000
 51
135.000397
  0
ARC
  8
0
  6
CONTINUOUS
 10
342.129791
 20
27.350000
 40
3.000000
 50
45.000259
 51
90.000000
  0
ARC
  8
0
  6
CONTINUOUS
 10
272.372375
 20
26.350000
 40
1.000000
 50
-90.000000
 51
0.000000
  0
ARC
  8
0
  6
CONTINUOUS
 10
344.372375
 20
26.350000
 40
1.000000
 50
180.000000
 51
270.000000
  0
CIRCLE
  8
0
  6
CONTINUOUS
 10
308.372375
 20
170.350006
 40
46.000000
  0
ARC
  8
0
  6
CONTINUOUS
 10
308.372375
 20
170.350006
 40
52.000000
 50
12.522720
 51
167.477402
  0
ARC
  8
0
  6
CONTINUOUS
 10
308.372375
 20
170.350006
 40
48.000000
 50
-192.522598
 51
12.522720
  0
ARC
  8
0
  6
CONTINUOUS
 10
278.372375
 20
99.849998
 40
34.000000
 50
167.477402
 51
270.000000
  0
ARC
  8
0
  6
CONTINUOUS
 10
278.372375
 20
99.849998
 40
38.000000
 50
167.477402
 51
270.000000
  0
ARC
  8
0
  6
CONTINUOUS
 10
338.372375
 20
99.849998
 40
34.000000
 50
-90.000000
 51
12.522730
  0
ARC
  8
0
  6
CONTINUOUS
 10
338.372375
 20
99.849998
 40
38.000000
 50
-90.000000
 51
12.522720
  0
LINE
  8
0
  6
CONTINUOUS
 10
241.276382
 20
108.089363
 11
257.609375
 21
181.624893
  0
LINE
  8
0
  6
CONTINUOUS
 10
359.135376
 20
181.625000
 11
375.468384
 21
108.089424
  0
LINE
  8
0
  6
CONTINUOUS
 10
355.230377
 20
180.757675
 11
371.563568
 21
107.222115
  0
LINE
  8
0
  6
CONTINUOUS
 10
245.181183
 20
107.222061
 11
261.514374
 21
180.757614
  0
LINE
  8
0
  6
CONTINUOUS
 10
278.372375
 20
65.849998
 11
338.372375
 21
65.849998
  0
LINE
  8
0
  6
CONTINUOUS
 10
278.372375
 20
61.849998
 11
338.372375
 21
61.849998
  0
LINE
  8
0
  6
CONTINUOUS
 10
296.145386
 20
83.849998
 11
291.204987
 21
83.849998
  0
LINE
  8
0
  6
CONTINUOUS
 10
298.872375
 20
92.125397
 11
298.872375
 21
83.849998
  0
LINE
  8
0
  6
CONTINUOUS
 10
303.622375
 20
95.131241
 11
303.622375
 21
98.099998
  0
LINE
  8
0
  6
CONTINUOUS
 10
313.122375
 20
95.131241
 11
313.122375
 21
98.099998
  0
LINE
  8
0
  6
CONTINUOUS
 10
307.444580
 20
96.355858
 11
307.444580
 21
85.408600
  0
LINE
  8
0
  6
CONTINUOUS
 10
309.225983
 20
96.355858
 11
309.225983
 21
85.408600
  0
LINE
  8
0
  6
CONTINUOUS
 10
318.577576
 20
96.355858
 11
318.577576
 21
85.334381
  0
LINE
  8
0
  6
CONTINUOUS
 10
320.210388
 20
90.511139
 11
320.210388
 21
85.334381
  0
LINE
  8
0
  6
CONTINUOUS
 10
296.618378
 20
96.207420
 11
292.040771
 21
96.207420
  0
LINE
  8
0
  6
CONTINUOUS
 10
292.040771
 20
96.207420
 11
290.968170
 21
94.877419
  0
LINE
  8
0
  6
CONTINUOUS
 10
291.097168
 20
98.099998
 11
289.372375
 21
95.891541
  0
LINE
  8
0
  6
CONTINUOUS
 10
290.968170
 20
86.667839
 11
292.057983
 21
85.519920
  0
LINE
  8
0
  6
CONTINUOUS
 10
289.372375
 20
85.699120
 11
291.204987
 21
83.849998
  0
LINE
  8
0
  6
CONTINUOUS
 10
289.372375
 20
95.891541
 11
289.372375
 21
85.699120
  0
LINE
  8
0
  6
CONTINUOUS
 10
290.968170
 20
94.877419
 11
290.968170
 21
86.667839
  0
LINE
  8
0
  6
CONTINUOUS
 10
297.499390
 20
95.355858
 11
296.600372
 21
96.207420
  0
LINE
  8
0
  6
CONTINUOUS
 10
297.484985
 20
98.099998
 11
298.872375
 21
96.560417
  0
LINE
  8
0
  6
CONTINUOUS
 10
297.499390
 20
95.131241
 11
298.872375
 21
95.131241
  0
LINE
  8
0
  6
CONTINUOUS
 10
291.097168
 20
98.099998
 11
297.484985
 21
98.099998
  0
LINE
  8
0
  6
CONTINUOUS
 10
295.012970
 20
92.125397
 11
298.872375
 21
92.125397
  0
LINE
  8
0
  6
CONTINUOUS
 10
297.499390
 20
90.566803
 11
295.012970
 21
90.566803
  0
LINE
  8
0
  6
CONTINUOUS
 10
294.530579
 20
85.519920
 11
292.057983
 21
85.519920
  0
LINE
  8
0
  6
CONTINUOUS
 10
297.499390
 20
89.082420
 11
297.499390
 21
90.269920
  0
ARC
  8
0
  6
CONTINUOUS
 10
294.530579
 20
88.488663
 40
2.968750
 50
-89.999786
 51
0.000109
  0
LINE
  8
0
  6
CONTINUOUS
 10
297.499390
 20
84.985924
 11
297.499390
 21
83.849998
  0
LINE
  8
0
  6
CONTINUOUS
 10
298.872375
 20
96.560417
 11
298.872375
 21
95.131241
  0
LINE
  8
0
  6
CONTINUOUS
 10
297.499390
 20
90.566803
 11
297.499390
 21
88.488663
  0
LINE
  8
0
  6
CONTINUOUS
 10
295.012970
 20
92.125397
 11
295.012970
 21
90.566803
  0
LINE
  8
0
  6
CONTINUOUS
 10
297.499390
 20
83.849998
 11
298.872375
 21
83.849998
  0
LINE
  8
0
  6
CONTINUOUS
 10
297.499390
 20
84.985924
 11
296.145386
 21
83.849998
  0
LINE
  8
0
  6
CONTINUOUS
 10
309.225983
 20
85.408600
 11
309.819580
 21
85.408600
  0
LINE
  8
0
  6
CONTINUOUS
 10
306.739594
 20
85.408600
 11
306.739594
 21
83.849998
  0
LINE
  8
0
  6
CONTINUOUS
 10
309.819580
 20
85.408600
 11
309.819580
 21
83.849998
  0
LINE
  8
0
  6
CONTINUOUS
 10
312.131378
 20
95.131241
 11
313.122375
 21
95.131241
  0
LINE
  8
0
  6
CONTINUOUS
 10
303.622375
 20
95.131241
 11
304.676971
 21
95.131241
  0
LINE
  8
0
  6
CONTINUOUS
 10
303.622375
 20
98.099998
 11
313.122375
 21
98.099998
  0
LINE
  8
0
  6
CONTINUOUS
 10
306.739594
 20
83.849998
 11
309.819580
 21
83.849998
  0
LINE
  8
0
  6
CONTINUOUS
 10
306.739594
 20
85.408600
 11
307.444580
 21
85.408600
  0
ARC
  8
0
  6
CONTINUOUS
 10
323.568573
 20
94.296280
 40
3.803712
 50
-73.981873
 51
90.003510
  0
ARC
  8
0
  6
CONTINUOUS
 10
323.568573
 20
94.296280
 40
2.320524
 50
-82.585274
 51
62.411850
  0
LINE
  8
0
  6
CONTINUOUS
 10
317.872375
 20
98.099998
 11
323.568573
 21
98.099998
  0
LINE
  8
0
  6
CONTINUOUS
 10
323.868195
 20
91.995163
 11
320.210388
 21
91.995163
  0
LINE
  8
0
  6
CONTINUOUS
 10
317.872375
 20
98.099998
 11
317.872375
 21
96.355858
  0
LINE
  8
0
  6
CONTINUOUS
 10
320.210388
 20
96.355858
 11
320.210388
 21
91.995163
  0
LINE
  8
0
  6
CONTINUOUS
 10
324.618195
 20
90.640259
 11
326.972595
 21
85.334381
  0
LINE
  8
0
  6
CONTINUOUS
 10
323.250977
 20
90.511139
 11
325.478790
 21
85.334381
  0
LINE
  8
0
  6
CONTINUOUS
 10
317.872375
 20
85.334381
 11
318.577576
 21
85.334381
  0
LINE
  8
0
  6
CONTINUOUS
 10
320.210388
 20
85.334381
 11
320.859772
 21
85.334381
  0
LINE
  8
0
  6
CONTINUOUS
 10
320.859772
 20
83.849998
 11
317.872375
 21
83.849998
  0
LINE
  8
0
  6
CONTINUOUS
 10
325.182983
 20
85.334381
 11
325.478790
 21
85.334381
  0
LINE
  8
0
  6
CONTINUOUS
 10
326.972595
 20
85.334381
 11
327.372375
 21
85.334381
  0
LINE
  8
0
  6
CONTINUOUS
 10
325.182983
 20
83.849998
 11
327.372375
 21
83.849998
  0
LINE
  8
0
  6
CONTINUOUS
 10
327.372375
 20
85.334381
 11
327.372375
 21
83.849998
  0
LINE
  8
0
  6
CONTINUOUS
 10
325.182983
 20
85.334381
 11
325.182983
 21
83.849998
  0
LINE
  8
0
  6
CONTINUOUS
 10
320.859772
 20
85.334381
 11
320.859772
 21
83.849998
  0
LINE
  8
0
  6
CONTINUOUS
 10
317.872375
 20
85.334381
 11
317.872375
 21
83.849998
  0
LINE
  8
0
  6
CONTINUOUS
 10
305.187195
 20
96.355858
 11
304.676971
 21
95.131241
  0
LINE
  8
0
  6
CONTINUOUS
 10
311.701172
 20
96.355858
 11
312.131378
 21
95.131241
  0
LINE
  8
0
  6
CONTINUOUS
 10
309.225983
 20
96.355858
 11
311.701172
 21
96.355858
  0
LINE
  8
0
  6
CONTINUOUS
 10
307.444580
 20
96.355858
 11
305.187195
 21
96.355858
  0
LINE
  8
0
  6
CONTINUOUS
 10
320.210388
 20
90.511139
 11
323.250977
 21
90.511139
  0
LINE
  8
0
  6
CONTINUOUS
 10
317.872375
 20
96.355858
 11
318.577576
 21
96.355858
  0
LINE
  8
0
  6
CONTINUOUS
 10
320.210388
 20
96.355858
 11
324.643372
 21
96.352982
  0
LINE
  8
0
  6
CONTINUOUS
 10
297.499390
 20
95.355858
 11
297.499390
 21
95.131241
  0
ARC
  8
0
  6
CONTINUOUS
 10
428.053986
 20
116.849998
 40
215.181595
 50
167.017899
 51
192.982101
  0
LINE
  8
0
  6
CONTINUOUS
 10
18.872381
 20
48.849998
 11
18.872381
 21
154.850006
  0
LINE
  8
0
  6
CONTINUOUS
 10
18.872381
 20
154.850006
 11
148.872375
 21
154.850006
  0
LINE
  8
0
  6
CONTINUOUS
 10
18.872381
 20
48.849998
 11
148.872375
 21
48.849998
  0
LINE
  8
0
  6
CONTINUOUS
 10
18.872381
 20
144.473343
 11
137.534149
 21
144.473343
  0
LINE
  8
0
  6
CONTINUOUS
 10
18.872381
 20
59.226639
 11
137.534149
 21
59.226639
  0
LINE
  8
0
  6
CONTINUOUS
 10
138.872375
 20
152.850006
 11
138.872375
 21
50.849979
  0
ARC
  8
0
  6
CONTINUOUS
 10
140.872375
 20
152.850021
 40
2.000000
 50
90.000000
 51
180.000000
  0
ARC
  8
0
  6
CONTINUOUS
 10
140.872375
 20
50.849998
 40
2.000000
 50
180.000000
 51
270.000000
  0
LINE
  8
0
  6
CONTINUOUS
 10
-1.627618
 20
101.849998
 11
-1.627618
 21
146.850006
  0
LINE
  8
0
  6
CONTINUOUS
 10
-1.627618
 20
101.849998
 11
-1.627618
 21
56.849998
  0
LINE
  8
0
  6
CONTINUOUS
 10
-1.127618
 20
150.850006
 11
-1.127618
 21
56.849998
  0
LINE
  8
0
  6
CONTINUOUS
 10
3.962561
 20
154.850006
 11
18.872381
 21
154.850006
  0
LINE
  8
0
  6
CONTINUOUS
 10
3.962561
 20
48.849998
 11
18.872381
 21
48.849998
  0
LINE
  8
0
  6
CONTINUOUS
 10
-1.127618
 20
56.849998
 11
-1.127618
 21
52.849998
  0
LINE
  8
0
  6
CONTINUOUS
 10
-0.509576
 20
152.086060
 11
-1.127618
 21
150.850006
  0
ARC
  8
0
  6
CONTINUOUS
 10
3.962561
 20
149.850021
 40
5.000000
 50
90.000000
 51
153.435196
  0
LINE
  8
0
  6
CONTINUOUS
 10
-0.509576
 20
51.613941
 11
-1.127618
 21
52.849998
  0
ARC
  8
0
  6
CONTINUOUS
 10
3.962561
 20
53.849998
 40
5.000000
 50
206.565002
 51
270.000000
  0
LINE
  8
0
  6
CONTINUOUS
 10
-1.627618
 20
56.849998
 11
-1.127618
 21
56.349998
  0
LINE
  8
0
  6
CONTINUOUS
 10
-1.627618
 20
146.850006
 11
-1.127618
 21
147.350006
  0
LINE
  8
0
  6
CONTINUOUS
 10
18.872381
 20
144.473358
 11
0.747382
 21
144.473358
  0
LINE
  8
0
  6
CONTINUOUS
 10
18.872381
 20
59.226639
 11
0.747382
 21
59.226639
  0
LINE
  8
0
  6
CONTINUOUS
 10
19.372381
 20
156.350006
 11
19.372381
 21
154.850006
  0
LINE
  8
0
  6
CONTINUOUS
 10
12.372382
 20
156.350006
 11
12.372382
 21
154.850006
  0
LINE
  8
0
  6
CONTINUOUS
 10
12.372382
 20
156.350006
 11
19.372381
 21
156.350006
  0
LINE
  8
0
  6
CONTINUOUS
 10
16.772375
 20
169.350006
 11
16.772375
 21
156.350006
  0
LINE
  8
0
  6
CONTINUOUS
 10
14.972388
 20
169.975006
 11
14.972388
 21
156.350006
  0
LINE
  8
0
  6
CONTINUOUS
 10
13.172386
 20
167.912506
 11
13.172386
 21
156.350006
  0
LINE
  8
0
  6
CONTINUOUS
 10
18.572382
 20
168.725006
 11
18.572382
 21
156.350006
  0
LINE
  8
0
  6
CONTINUOUS
 10
14.972388
 20
169.975006
 11
16.772375
 21
169.350006
  0
LINE
  8
0
  6
CONTINUOUS
 10
13.172386
 20
167.912506
 11
14.972388
 21
168.537506
  0
LINE
  8
0
  6
CONTINUOUS
 10
18.572382
 20
168.725006
 11
16.773397
 21
168.277298
  0
LINE
  8
0
  6
CENTER
 10
646.932495
 20
-11.160000
 11
646.932495
 21
260.994995
  0
LINE
  8
0
  6
CENTER
 10
546.130127
 20
116.849998
 11
742.840088
 21
116.849998
  0
LINE
  8
0
  6
CENTER
 10
491.120911
 20
170.350006
 11
804.369324
 21
170.350006
  0
LINE
  8
0
  6
CENTER
 10
576.932495
 20
37.029999
 11
576.932495
 21
-1.680000
  0
LINE
  8
0
  6
CENTER
 10
716.932495
 20
34.264999
 11
716.932495
 21
-2.470000
  0
LINE
  8
0
  6
DASHED
 10
709.432495
 20
25.350000
 11
709.432495
 21
5.350000
  0
LINE
  8
0
  6
DASHED
 10
724.432495
 20
25.350000
 11
724.432495
 21
5.350000
  0
LINE
  8
0
  6
DASHED
 10
584.432495
 20
25.350000
 11
584.432495
 21
5.350000
  0
LINE
  8
0
  6
DASHED
 10
569.432495
 20
25.350000
 11
569.432495
 21
5.350000
  0
LINE
  8
0
  6
CONTINUOUS
 10
556.932495
 20
5.350000
 11
611.932495
 21
5.350000
  0
LINE
  8
0
  6
CONTINUOUS
 10
681.932495
 20
5.350000
 11
736.932495
 21
5.350000
  0
LINE
  8
0
  6
CONTINUOUS
 10
703.932495
 20
25.350000
 11
733.932495
 21
25.350000
  0
LINE
  8
0
  6
CONTINUOUS
 10
559.932495
 20
25.350000
 11
589.932495
 21
25.350000
  0
LINE
  8
0
  6
CONTINUOUS
 10
556.932495
 20
22.718880
 11
556.932495
 21
5.350020
  0
LINE
  8
0
  6
CONTINUOUS
 10
736.932495
 20
22.718880
 11
736.932495
 21
5.350000
  0
LINE
  8
0
  6
CONTINUOUS
 10
698.932495
 20
227.630096
 11
698.932495
 21
243.011765
  0
LINE
  8
0
  6
CONTINUOUS
 10
594.932495
 20
243.011383
 11
594.932495
 21
5.350000
  0
LINE
  8
0
  6
CONTINUOUS
 10
613.432495
 20
6.850000
 11
680.432495
 21
6.850000
  0
LINE
  8
0
  6
CONTINUOUS
 10
599.377075
 20
208.850006
 11
695.164307
 21
208.850006
  0
LINE
  8
0
  6
CONTINUOUS
 10
695.002319
 20
247.011139
 11
646.932495
 21
247.850021
  0
LINE
  8
0
  6
CONTINUOUS
 10
598.862671
 20
247.010773
 11
646.932495
 21
247.850021
  0
LINE
  8
0
  6
CONTINUOUS
 10
573.932495
 20
129.630112
 11
573.932495
 21
211.069885
  0
LINE
  8
0
  6
CONTINUOUS
 10
719.932495
 20
129.630112
 11
719.932495
 21
211.069885
  0
LINE
  8
0
  6
CONTINUOUS
 10
580.932495
 20
71.130096
 11
580.932495
 21
174.490280
  0
LINE
  8
0
  6
CONTINUOUS
 10
712.932495
 20
71.130119
 11
712.932495
 21
174.490280
  0
ARC
  8
0
  6
CONTINUOUS
 10
598.932495
 20
243.011398
 40
4.000000
 50
91.000580
 51
180.000000
  0
ARC
  8
0
  6
CONTINUOUS
 10
694.932495
 20
243.011734
 40
4.000000
 50
0.000000
 51
89.000359
  0
LINE
  8
0
  6
CONTINUOUS
 10
579.009521
 20
217.800568
 11
589.855530
 21
220.899445
  0
LINE
  8
0
  6
CONTINUOUS
 10
704.009521
 20
220.899445
 11
714.855530
 21
217.800568
  0
LINE
  8
0
  6
CONTINUOUS
 10
586.009521
 20
64.399437
 11
589.855530
 21
63.300560
  0
LINE
  8
0
  6
CONTINUOUS
 10
707.855530
 20
64.399437
 11
704.009521
 21
63.300560
  0
LINE
  8
0
  6
CONTINUOUS
 10
734.323914
 20
25.693239
 11
701.541077
 21
30.006760
  0
LINE
  8
0
  6
CONTINUOUS
 10
559.541077
 20
25.693239
 11
592.323914
 21
30.006781
  0
ARC
  8
0
  6
CONTINUOUS
 10
580.932495
 20
211.069916
 40
7.000000
 50
105.945801
 51
180.000000
  0
ARC
  8
0
  6
CONTINUOUS
 10
580.932495
 20
129.630157
 40
7.000000
 50
180.000000
 51
240.000198
  0
ARC
  8
0
  6
CONTINUOUS
 10
712.932495
 20
211.069855
 40
7.000000
 50
0.000000
 51
74.054764
  0
ARC
  8
0
  6
CONTINUOUS
 10
712.932495
 20
129.630096
 40
7.000000
 50
-59.999882
 51
0.000000
  0
ARC
  8
0
  6
CONTINUOUS
 10
587.932495
 20
71.130157
 40
7.000000
 50
180.000000
 51
254.054901
  0
ARC
  8
0
  6
CONTINUOUS
 10
705.932495
 20
71.130096
 40
7.000000
 50
-74.054497
 51
0.000000
  0
LINE
  8
0
  6
CONTINUOUS
 10
698.932495
 20
30.350000
 11
698.932495
 21
227.630096
  0
ARC
  8
0
  6
CONTINUOUS
 10
705.932495
 20
227.630157
 40
7.000000
 50
180.000000
 51
254.054901
  0
ARC
  8
0
  6
CONTINUOUS
 10
705.932495
 20
56.569939
 40
7.000000
 50
105.945801
 51
180.000000
  0
ARC
  8
0
  6
CONTINUOUS
 10
719.932495
 20
117.505745
 40
7.000000
 50
120.000099
 51
180.000000
  0
ARC
  8
0
  6
CONTINUOUS
 10
701.932495
 20
32.981140
 40
3.000000
 50
180.000000
 51
262.504395
  0
ARC
  8
0
  6
CONTINUOUS
 10
733.932495
 20
22.350000
 40
3.000000
 50
0.000000
 51
90.000000
  0
ARC
  8
0
  6
CONTINUOUS
 10
733.932495
 20
22.718861
 40
3.000000
 50
0.000000
 51
82.504204
  0
LINE
  8
0
  6
CONTINUOUS
 10
698.932495
 20
30.350000
 11
698.932495
 21
5.350000
  0
ARC
  8
0
  6
CONTINUOUS
 10
703.932495
 20
30.350019
 40
5.000000
 50
180.000000
 51
270.000000
  0
ARC
  8
0
  6
CONTINUOUS
 10
591.932495
 20
32.981140
 40
3.000000
 50
-82.503883
 51
0.000000
  0
ARC
  8
0
  6
CONTINUOUS
 10
589.932495
 20
30.350000
 40
5.000000
 50
-90.000000
 51
0.000000
  0
ARC
  8
0
  6
CONTINUOUS
 10
559.932495
 20
22.350019
 40
3.000000
 50
90.000000
 51
180.000000
  0
ARC
  8
0
  6
CONTINUOUS
 10
559.932495
 20
22.718901
 40
3.000000
 50
97.496292
 51
180.000000
  0
LINE
  8
0
  6
CONTINUOUS
 10
611.932495
 20
5.350000
 11
613.432495
 21
6.850000
  0
LINE
  8
0
  6
CONTINUOUS
 10
681.932495
 20
5.350000
 11
680.432495
 21
6.850000
  0
ARC
  8
0
  6
CONTINUOUS
 10
587.932495
 20
56.569859
 40
7.000000
 50
0.000000
 51
74.054688
  0
ARC
  8
0
  6
CONTINUOUS
 10
573.932495
 20
117.505783
 40
7.000000
 50
0.000000
 51
60.000092
  0
ARC
  8
0
  6
CONTINUOUS
 10
587.932495
 20
227.630096
 40
7.000000
 50
-74.054443
 51
0.000000
  0
ARC
  8
0
  6
CONTINUOUS
 10
646.932495
 20
116.849998
 40
71.000000
 50
-21.630920
 51
6.068256
  0
ARC
  8
0
  6
CONTINUOUS
 10
646.932495
 20
116.849998
 40
71.000000
 50
173.931793
 51
201.630905
  0
LINE
  8
0
  6
CONTINUOUS
 10
699.932495
 20
60.175480
 11
699.932495
 21
53.849998
  0
LINE
  8
0
  6
CONTINUOUS
 10
593.932495
 20
53.849998
 11
593.932495
 21
60.039001
  0
ARC
  8
0
  6
CONTINUOUS
 10
694.932495
 20
53.849998
 40
5.000000
 50
-36.869869
 51
0.000000
  0
ARC
  8
0
  6
CONTINUOUS
 10
598.932495
 20
53.849998
 40
5.000000
 50
180.000000
 51
216.865204
  0
LINE
  8
0
  6
CONTINUOUS
 10
323.372375
 20
164.350067
 11
323.372375
 21
176.350067
  0
LINE
  8
0
  6
CONTINUOUS
 10
331.372375
 20
164.350082
 11
331.372375
 21
176.350082
  0
LINE
  8
0
  6
CONTINUOUS
 10
331.372375
 20
164.350082
 11
323.372375
 21
164.350067
  0
LINE
  8
0
  6
CONTINUOUS
 10
331.372375
 20
176.350082
 11
323.372375
 21
176.350067
  0
ARC
  8
0
  6
CONTINUOUS
 10
308.372375
 20
170.350006
 40
20.000000
 50
17.457600
 51
342.542389
  0
LINE
  8
0
  6
CONTINUOUS
 10
506.932495
 20
150.350006
 11
506.932495
 21
190.350006
  0
LINE
  8
0
  6
CONTINUOUS
 10
571.932495
 20
190.350006
 11
506.932495
 21
190.350006
  0
LINE
  8
0
  6
CONTINUOUS
 10
571.932495
 20
150.350006
 11
506.932495
 21
150.350006
  0
LINE
  8
0
  6
CONTINUOUS
 10
571.932495
 20
192.850006
 11
571.932495
 21
147.850006
  0
LINE
  8
0
  6
CONTINUOUS
 10
573.932495
 20
192.850006
 11
571.932495
 21
192.850006
  0
LINE
  8
0
  6
CONTINUOUS
 10
573.932495
 20
147.850006
 11
571.932495
 21
147.850006
  0
ARC
  8
0
  6
CONTINUOUS
 10
560.932495
 20
170.350006
 40
6.000000
 50
-90.000000
 51
90.000000
  0
LINE
  8
0
  6
CONTINUOUS
 10
560.932495
 20
176.350006
 11
506.932495
 21
176.350006
  0
LINE
  8
0
  6
CONTINUOUS
 10
560.932495
 20
164.350006
 11
506.932495
 21
164.350006
  0
LINE
  8
0
  6
CONTINUOUS
 10
786.932495
 20
150.350006
 11
786.932495
 21
190.350006
  0
LINE
  8
0
  6
CONTINUOUS
 10
721.932495
 20
190.350006
 11
786.932495
 21
190.350006
  0
LINE
  8
0
  6
CONTINUOUS
 10
721.932495
 20
150.350006
 11
786.932495
 21
150.350006
  0
LINE
  8
0
  6
CONTINUOUS
 10
721.932495
 20
192.850006
 11
721.932495
 21
147.850006
  0
LINE
  8
0
  6
CONTINUOUS
 10
719.932495
 20
192.850006
 11
721.932495
 21
192.850006
  0
LINE
  8
0
  6
CONTINUOUS
 10
719.932495
 20
147.850006
 11
721.932495
 21
147.850006
  0
ARC
  8
0
  6
CONTINUOUS
 10
732.932495
 20
170.350006
 40
6.000000
 50
90.000000
 51
270.000000
  0
LINE
  8
0
  6
CONTINUOUS
 10
732.932495
 20
176.350006
 11
786.932495
 21
176.350006
  0
LINE
  8
0
  6
CONTINUOUS
 10
732.932495
 20
164.350006
 11
786.932495
 21
164.350006
  0
LINE
  8
0
  6
CONTINUOUS
 10
196.372375
 20
71.606003
 11
196.372375
 21
185.850006
  0
LINE
  8
0
  6
CENTER
 10
-20.057150
 20
101.849998
 11
251.862381
 21
101.849998
  0
LINE
  8
0
  6
CONTINUOUS
 10
198.372375
 20
187.850006
 11
205.372375
 21
187.850006
  0
LINE
  8
0
  6
CONTINUOUS
 10
198.372375
 20
45.850021
 11
205.372375
 21
45.850021
  0
LINE
  8
0
  6
CONTINUOUS
 10
177.372375
 20
48.849998
 11
148.872375
 21
48.849998
  0
LINE
  8
0
  6
CONTINUOUS
 10
148.872375
 20
154.850006
 11
193.372360
 21
154.850006
  0
LINE
  8
0
  6
CONTINUOUS
 10
194.872375
 20
165.983978
 11
176.284119
 21
155.251923
  0
ARC
  8
0
  6
CONTINUOUS
 10
198.372406
 20
185.850006
 40
2.000000
 50
90.000000
 51
180.000000
  0
ARC
  8
0
  6
CONTINUOUS
 10
198.372375
 20
47.849998
 40
2.000000
 50
194.477707
 51
270.000000
  0
LINE
  8
0
  6
CONTINUOUS
 10
177.372375
 20
50.849998
 11
177.372375
 21
67.606003
  0
LINE
  8
0
  6
CONTINUOUS
 10
194.372375
 20
69.606003
 11
179.372375
 21
69.606003
  0
ARC
  8
0
  6
CONTINUOUS
 10
179.372375
 20
67.606018
 40
2.000000
 50
90.000000
 51
180.000000
  0
ARC
  8
0
  6
CONTINUOUS
 10
194.499405
 20
46.849998
 40
2.000000
 50
14.477280
 51
90.000000
  0
ARC
  8
0
  6
CONTINUOUS
 10
194.372375
 20
71.606003
 40
2.000000
 50
-90.000000
 51
0.000000
  0
LINE
  8
0
  6
CONTINUOUS
 10
177.372375
 20
48.849998
 11
194.499405
 21
48.849998
  0
ARC
  8
0
  6
CONTINUOUS
 10
175.372375
 20
50.849998
 40
2.000000
 50
-90.000000
 51
0.000000
  0
ARC
  8
0
  6
CONTINUOUS
 10
193.372375
 20
157.850006
 40
3.000000
 50
-90.000000
 51
0.000000
  0
ARC
  8
0
  6
CONTINUOUS
 10
193.372375
 20
168.582047
 40
3.000000
 50
-59.999660
 51
0.000000
  0
ARC
  8
0
  6
CONTINUOUS
 10
174.784103
 20
157.850006
 40
3.000000
 50
270.000000
 51
300.000305
  0
LINE
  8
0
  6
CONTINUOUS
 10
148.872375
 20
154.850006
 11
148.872375
 21
48.849998
  0
LINE
  8
0
  6
CONTINUOUS
 10
377.241486
 20
585.034180
 11
331.372375
 21
585.034241
  0
LINE
  8
0
  6
CONTINUOUS
 10
377.240906
 20
405.034180
 11
331.372375
 21
405.034241
  0
LINE
  8
0
  6
CENTER
 10
308.372375
 20
340.645355
 11
308.373016
 21
660.112244
  0
LINE
  8
0
  6
CENTER
 10
383.226196
 20
565.035034
 11
354.858154
 21
565.035034
  0
LINE
  8
0
  6
CONTINUOUS
 10
398.372711
 20
495.034241
 11
397.464691
 21
443.034210
  0
LINE
  8
0
  6
CONTINUOUS
 10
386.695496
 20
411.776764
 11
397.464691
 21
443.034210
  0
ARC
  8
0
  6
CONTINUOUS
 10
377.241089
 20
415.034241
 40
10.000000
 50
-90.000000
 51
-19.010900
  0
ARC
  8
0
  6
CONTINUOUS
 10
368.372711
 20
565.035034
 40
7.500000
 50
-46.074883
 51
212.226791
  0
LINE
  8
0
  6
CONTINUOUS
 10
398.372711
 20
495.034241
 11
397.464905
 21
547.034180
  0
LINE
  8
0
  6
CONTINUOUS
 10
386.695892
 20
578.291565
 11
397.464905
 21
547.034180
  0
ARC
  8
0
  6
CONTINUOUS
 10
377.241486
 20
575.034180
 40
10.000000
 50
19.010900
 51
90.000000
  0
LINE
  8
0
  6
CONTINUOUS
 10
218.372696
 20
495.034424
 11
219.280502
 21
443.034485
  0
LINE
  8
0
  6
CONTINUOUS
 10
230.049500
 20
411.777039
 11
219.280502
 21
443.034485
  0
ARC
  8
0
  6
CONTINUOUS
 10
239.504089
 20
415.034454
 40
10.000000
 50
199.010895
 51
270.000000
  0
LINE
  8
0
  6
CONTINUOUS
 10
218.372696
 20
495.034424
 11
219.229233
 21
544.087036
  0
LINE
  8
0
  6
CONTINUOUS
 10
230.049896
 20
578.291809
 11
219.627518
 21
548.041016
  0
LINE
  8
0
  6
CONTINUOUS
 10
207.410492
 20
566.034363
 11
205.372894
 21
566.034363
  0
LINE
  8
0
  6
CONTINUOUS
 10
205.372894
 20
566.034363
 11
205.372498
 21
424.034485
  0
LINE
  8
0
  6
CONTINUOUS
 10
216.482498
 20
552.222595
 11
214.171890
 21
560.846191
  0
ARC
  8
0
  6
CONTINUOUS
 10
207.410492
 20
559.034363
 40
7.000000
 50
14.999900
 51
90.000000
  0
ARC
  8
0
  6
CONTINUOUS
 10
223.244095
 20
554.034363
 40
7.000000
 50
-165.000305
 51
-90.000000
  0
LINE
  8
0
  6
CONTINUOUS
 10
207.410095
 20
424.034485
 11
205.372498
 21
424.034485
  0
LINE
  8
0
  6
CONTINUOUS
 10
216.482300
 20
437.846313
 11
214.171692
 21
429.222717
  0
ARC
  8
0
  6
CONTINUOUS
 10
207.410095
 20
431.034515
 40
7.000000
 50
-90.000000
 51
-14.999900
  0
ARC
  8
0
  6
CONTINUOUS
 10
223.243896
 20
436.034485
 40
7.000000
 50
121.109207
 51
165.000336
  0
ARC
  8
0
  6
CONTINUOUS
 10
239.504089
 20
575.034851
 40
10.000000
 50
90.000000
 51
160.989105
  0
ARC
  8
0
  6
CONTINUOUS
 10
248.372498
 20
565.035706
 40
7.500000
 50
-32.232941
 51
238.076355
  0
LINE
  8
0
  6
CENTER
 10
368.372406
 20
553.233398
 11
368.372894
 21
577.109802
  0
LINE
  8
0
  6
CENTER
 10
261.383087
 20
565.035156
 11
235.805344
 21
565.035156
  0
LINE
  8
0
  6
CENTER
 10
248.372696
 20
553.233398
 11
248.372894
 21
577.110046
  0
LINE
  8
0
  6
CONTINUOUS
 10
394.516815
 20
547.034668
 11
222.228775
 21
547.034668
  0
LINE
  8
0
  6
CONTINUOUS
 10
265.591919
 20
568.034668
 11
351.152832
 21
568.034668
  0
ARC
  8
0
  6
CONTINUOUS
 10
394.516815
 20
544.034668
 40
3.000000
 50
1.000152
 51
90.000000
  0
ARC
  8
0
  6
CONTINUOUS
 10
222.228775
 20
544.034668
 40
3.000000
 50
90.000000
 51
178.999634
  0
LINE
  8
0
  6
CONTINUOUS
 10
394.516815
 20
443.034637
 11
222.228775
 21
443.034637
  0
ARC
  8
0
  6
CONTINUOUS
 10
394.516815
 20
446.034637
 40
3.000000
 50
270.000000
 51
358.999847
  0
ARC
  8
0
  6
CONTINUOUS
 10
222.228775
 20
446.034637
 40
3.000000
 50
181.000366
 51
270.000000
  0
LINE
  8
0
  6
CONTINUOUS
 10
343.372589
 20
448.034637
 11
343.372589
 21
542.034668
  0
LINE
  8
0
  6
CONTINUOUS
 10
273.372589
 20
448.034637
 11
273.372589
 21
542.034668
  0
LINE
  8
0
  6
CONTINUOUS
 10
249.652603
 20
561.034668
 11
256.372375
 21
561.034668
  0
LINE
  8
0
  6
CONTINUOUS
 10
369.372498
 20
561.034668
 11
360.372375
 21
561.034668
  0
ARC
  8
0
  6
CONTINUOUS
 10
369.372498
 20
554.034668
 40
7.000000
 50
0.000000
 51
90.000000
  0
ARC
  8
0
  6
CONTINUOUS
 10
383.372498
 20
554.034668
 40
7.000000
 50
180.000000
 51
270.000000
  0
LINE
  8
0
  6
CENTER
 10
383.226196
 20
425.035095
 11
354.858154
 21
425.035095
  0
ARC
  8
0
  6
CONTINUOUS
 10
368.372711
 20
425.035095
 40
7.500000
 50
-212.226791
 51
46.074883
  0
ARC
  8
0
  6
CONTINUOUS
 10
248.372498
 20
425.034424
 40
7.500000
 50
-226.078156
 51
32.232941
  0
LINE
  8
0
  6
CENTER
 10
368.372406
 20
436.836700
 11
368.372894
 21
412.960297
  0
LINE
  8
0
  6
CENTER
 10
261.383087
 20
425.035004
 11
235.805344
 21
425.035004
  0
LINE
  8
0
  6
CENTER
 10
248.372696
 20
436.836700
 11
248.372894
 21
412.960114
  0
LINE
  8
0
  6
CONTINUOUS
 10
265.591919
 20
422.034637
 11
351.152832
 21
422.034637
  0
LINE
  8
0
  6
CONTINUOUS
 10
247.372498
 20
429.034637
 11
256.372375
 21
429.034576
  0
ARC
  8
0
  6
CONTINUOUS
 10
247.372498
 20
436.034637
 40
7.000000
 50
180.000000
 51
270.000000
  0
ARC
  8
0
  6
CONTINUOUS
 10
233.372498
 20
436.034637
 40
7.000000
 50
0.000000
 51
90.000000
  0
LINE
  8
0
  6
CONTINUOUS
 10
369.372498
 20
429.034637
 11
360.372375
 21
429.034576
  0
ARC
  8
0
  6
CONTINUOUS
 10
369.372498
 20
436.034637
 40
7.000000
 50
-90.000000
 51
0.000000
  0
ARC
  8
0
  6
CONTINUOUS
 10
383.372498
 20
436.034637
 40
7.000000
 50
90.000000
 51
180.000000
  0
LINE
  8
0
  6
CONTINUOUS
 10
242.921936
 20
555.957703
 11
241.823059
 21
552.111572
  0
ARC
  8
0
  6
CONTINUOUS
 10
249.652603
 20
554.034668
 40
7.000000
 50
90.000000
 51
164.054611
  0
ARC
  8
0
  6
CONTINUOUS
 10
235.092392
 20
554.034668
 40
7.000000
 50
-90.000000
 51
-15.945396
  0
LINE
  8
0
  6
CONTINUOUS
 10
288.372681
 20
355.034424
 11
331.372375
 21
355.034424
  0
LINE
  8
0
  6
CONTINUOUS
 10
328.372681
 20
420.034424
 11
328.372681
 21
415.034882
  0
LINE
  8
0
  6
CONTINUOUS
 10
288.372681
 20
420.034424
 11
288.372681
 21
355.034424
  0
LINE
  8
0
  6
CONTINUOUS
 10
330.872681
 20
420.034424
 11
285.872681
 21
420.034424
  0
LINE
  8
0
  6
CONTINUOUS
 10
330.872681
 20
422.034424
 11
330.872681
 21
420.034424
  0
LINE
  8
0
  6
CONTINUOUS
 10
285.872681
 20
422.034424
 11
285.872681
 21
420.034424
  0
LINE
  8
0
  6
CONTINUOUS
 10
288.372681
 20
635.034424
 11
331.372375
 21
635.034424
  0
LINE
  8
0
  6
CONTINUOUS
 10
328.372681
 20
570.034424
 11
328.372681
 21
575.034424
  0
LINE
  8
0
  6
CONTINUOUS
 10
288.372681
 20
570.034424
 11
288.372681
 21
635.034424
  0
LINE
  8
0
  6
CONTINUOUS
 10
330.872681
 20
570.034424
 11
285.872681
 21
570.034424
  0
LINE
  8
0
  6
CONTINUOUS
 10
330.872681
 20
568.034424
 11
330.872681
 21
570.034424
  0
LINE
  8
0
  6
CONTINUOUS
 10
285.872681
 20
568.034424
 11
285.872681
 21
570.034424
  0
LINE
  8
0
  6
CONTINUOUS
 10
288.372681
 20
585.034302
 11
239.504501
 21
585.034363
  0
LINE
  8
0
  6
CONTINUOUS
 10
288.372681
 20
405.034332
 11
239.504089
 21
405.034424
  0
LINE
  8
0
  6
CONTINUOUS
 10
331.372375
 20
635.034424
 11
331.372375
 21
575.034424
  0
LINE
  8
0
  6
CONTINUOUS
 10
327.451385
 20
575.034424
 11
331.372375
 21
575.034424
  0
LINE
  8
0
  6
CONTINUOUS
 10
331.372375
 20
355.034882
 11
331.372375
 21
415.034882
  0
LINE
  8
0
  6
CONTINUOUS
 10
327.451385
 20
415.034882
 11
331.372375
 21
415.034882
  0
LINE
  8
0
  6
CONTINUOUS
 10
260.277130
 20
565.590210
 11
256.372375
 21
561.034668
  0
ARC
  8
0
  6
CONTINUOUS
 10
265.591919
 20
561.034668
 40
7.000000
 50
90.000000
 51
139.398712
  0
LINE
  8
0
  6
CONTINUOUS
 10
356.467621
 20
565.590210
 11
360.372375
 21
561.034668
  0
ARC
  8
0
  6
CONTINUOUS
 10
351.152832
 20
561.034668
 40
7.000000
 50
40.601295
 51
90.000000
  0
LINE
  8
0
  6
CONTINUOUS
 10
356.467621
 20
424.479034
 11
360.372375
 21
429.034576
  0
ARC
  8
0
  6
CONTINUOUS
 10
351.152832
 20
429.034576
 40
7.000000
 50
-90.000000
 51
-40.601295
  0
LINE
  8
0
  6
CONTINUOUS
 10
260.277130
 20
424.479034
 11
256.372375
 21
429.034576
  0
ARC
  8
0
  6
CONTINUOUS
 10
265.591919
 20
429.034576
 40
7.000000
 50
-139.398712
 51
-90.000000
  0
LINE
  8
0
  6
CONTINUOUS
 10
327.451385
 20
415.034882
 11
327.451385
 21
355.034424
  0
LINE
  8
0
  6
CONTINUOUS
 10
327.451385
 20
635.034424
 11
327.451385
 21
575.034424
  0
LINE
  8
0
  6
CENTER
 10
421.573639
 20
495.034424
 11
-22.872774
 21
495.034424
  0
LINE
  8
0
  6
CONTINUOUS
 10
198.372894
 20
566.034424
 11
205.372894
 21
566.034424
  0
LINE
  8
0
  6
CONTINUOUS
 10
196.372894
 20
426.034424
 11
196.372894
 21
564.034424
  0
LINE
  8
0
  6
CONTINUOUS
 10
198.372894
 20
424.034424
 11
205.372498
 21
424.034424
  0
LINE
  8
0
  6
CONTINUOUS
 10
148.872894
 20
548.034424
 11
196.372894
 21
548.034424
  0
LINE
  8
0
  6
CONTINUOUS
 10
148.872894
 20
442.034424
 11
196.372894
 21
442.034424
  0
LINE
  8
0
  6
CONTINUOUS
 10
148.872894
 20
548.034424
 11
148.872894
 21
442.034424
  0
ARC
  8
0
  6
CONTINUOUS
 10
198.372894
 20
564.034424
 40
2.000000
 50
90.000000
 51
180.000000
  0
ARC
  8
0
  6
CONTINUOUS
 10
198.372894
 20
426.034424
 40
2.000000
 50
180.000000
 51
270.000000
  0
ARC
  8
0
  6
CONTINUOUS
 10
195.587967
 20
495.034424
 40
20.000000
 50
141.561295
 51
180.000000
  0
LINE
  8
0
  6
CONTINUOUS
 10
196.372894
 20
528.194397
 11
179.922501
 21
507.467957
  0
ARC
  8
0
  6
CONTINUOUS
 10
195.587967
 20
495.034424
 40
20.000000
 50
-180.000000
 51
-141.561295
  0
LINE
  8
0
  6
CONTINUOUS
 10
196.372894
 20
461.874420
 11
179.922501
 21
482.600891
  0
LINE
  8
0
  6
CONTINUOUS
 10
18.872381
 20
442.034424
 11
18.872381
 21
488.168396
  0
LINE
  8
0
  6
CONTINUOUS
 10
18.872381
 20
548.034424
 11
148.872375
 21
548.034424
  0
LINE
  8
0
  6
CONTINUOUS
 10
18.872381
 20
442.034424
 11
148.872375
 21
442.034424
  0
LINE
  8
0
  6
CONTINUOUS
 10
18.872381
 20
526.534424
 11
138.872375
 21
526.534424
  0
LINE
  8
0
  6
CONTINUOUS
 10
18.872381
 20
463.534424
 11
138.872375
 21
463.534424
  0
LINE
  8
0
  6
CONTINUOUS
 10
138.872375
 20
546.034424
 11
138.872375
 21
526.534424
  0
ARC
  8
0
  6
CONTINUOUS
 10
140.872375
 20
546.034424
 40
2.000000
 50
90.000000
 51
180.000000
  0
ARC
  8
0
  6
CONTINUOUS
 10
140.872375
 20
444.034424
 40
2.000000
 50
180.000000
 51
270.000000
  0
LINE
  8
0
  6
CONTINUOUS
 10
-1.627618
 20
495.034424
 11
-1.627618
 21
540.034424
  0
LINE
  8
0
  6
CONTINUOUS
 10
-1.627618
 20
495.034424
 11
-1.627618
 21
450.034424
  0
LINE
  8
0
  6
CONTINUOUS
 10
-1.127618
 20
544.034424
 11
-1.127618
 21
450.034424
  0
LINE
  8
0
  6
CONTINUOUS
 10
3.962561
 20
548.034424
 11
18.872381
 21
548.034424
  0
LINE
  8
0
  6
CONTINUOUS
 10
3.962561
 20
442.034424
 11
18.872381
 21
442.034424
  0
LINE
  8
0
  6
CONTINUOUS
 10
-1.127618
 20
450.034424
 11
-1.127618
 21
446.034424
  0
LINE
  8
0
  6
CONTINUOUS
 10
-0.509576
 20
545.270508
 11
-1.127618
 21
544.034424
  0
ARC
  8
0
  6
CONTINUOUS
 10
3.962561
 20
543.034424
 40
5.000000
 50
90.000000
 51
153.435196
  0
LINE
  8
0
  6
CONTINUOUS
 10
-0.509576
 20
444.798370
 11
-1.127618
 21
446.034424
  0
ARC
  8
0
  6
CONTINUOUS
 10
3.962561
 20
447.034424
 40
5.000000
 50
206.565002
 51
270.000000
  0
LINE
  8
0
  6
CONTINUOUS
 10
-1.627618
 20
450.034424
 11
-1.127618
 21
449.534424
  0
LINE
  8
0
  6
CONTINUOUS
 10
-1.627618
 20
540.034424
 11
-1.127618
 21
540.534424
  0
LINE
  8
0
  6
CONTINUOUS
 10
18.872381
 20
526.534424
 11
0.747382
 21
526.534424
  0
LINE
  8
0
  6
CONTINUOUS
 10
18.872381
 20
463.534424
 11
0.747382
 21
463.534424
  0
LINE
  8
0
  6
CONTINUOUS
 10
12.372382
 20
489.034424
 11
12.372382
 21
501.034424
  0
LINE
  8
0
  6
CONTINUOUS
 10
19.372381
 20
489.034424
 11
19.372381
 21
501.034424
  0
LINE
  8
0
  6
CONTINUOUS
 10
13.372382
 20
502.034424
 11
18.372381
 21
502.034424
  0
LINE
  8
0
  6
CONTINUOUS
 10
18.372381
 20
488.034424
 11
13.372382
 21
488.034424
  0
ARC
  8
0
  6
CONTINUOUS
 10
18.372381
 20
501.034424
 40
1.000000
 50
0.000000
 51
90.000000
  0
ARC
  8
0
  6
CONTINUOUS
 10
13.372382
 20
501.034424
 40
1.000000
 50
90.000000
 51
180.000000
  0
ARC
  8
0
  6
CONTINUOUS
 10
13.372382
 20
489.034424
 40
1.000000
 50
180.000000
 51
270.000000
  0
ARC
  8
0
  6
CONTINUOUS
 10
18.372381
 20
489.034424
 40
1.000000
 50
-90.000000
 51
0.000000
  0
LINE
  8
0
  6
CONTINUOUS
 10
16.872381
 20
491.534424
 11
16.872381
 21
498.534424
  0
LINE
  8
0
  6
CONTINUOUS
 10
14.872382
 20
491.534424
 11
14.872382
 21
498.534424
  0
ARC
  8
0
  6
CONTINUOUS
 10
15.872382
 20
498.534424
 40
1.000000
 50
90.000000
 51
180.000000
  0
ARC
  8
0
  6
CONTINUOUS
 10
15.872382
 20
498.534424
 40
1.000000
 50
0.000000
 51
90.000000
  0
ARC
  8
0
  6
CONTINUOUS
 10
15.872382
 20
491.534424
 40
1.000000
 50
180.000000
 51
270.000000
  0
ARC
  8
0
  6
CONTINUOUS
 10
15.872382
 20
491.534424
 40
1.000000
 50
-90.000000
 51
0.000000
  0
LINE
  8
0
  6
CONTINUOUS
 10
18.872381
 20
501.900452
 11
18.872381
 21
548.034424
  0
LINE
  8
0
  6
CONTINUOUS
 10
138.872375
 20
463.534424
 11
138.872375
 21
444.034393
  0
TEXT
  8
0
 10
-22.000000
 20
-11.000000
 40
4.000000
 41
1.000000
  1
HLM-40T-1200~1800-T90
 50
0.000000
  0
ENDSEC
  0
EOF
