  0
SECTION
  2
HEADER
  9
$CLAYER
  8
1
  9
$LTSCALE
 40
3.0
  0
ENDSEC
  0
SECTION
  2
TABLES
  0
TABLE
  2
LTYPE
 70
     4
  0
LTYPE
  2
CONTINUOUS
  3
solid line
 70
    64
 72
    65
 73
     0
 40
0.0
  0
LTYPE
  2
DASHED
  3
__ __ __ __ __ __ __ __ __ __ __ __ __ __ __
 70
    64
 72
    65
 73
     2
 40
0.75
 49
0.5
 49
-0.25
  0
LTYPE
  2
CENTER
  3
____ _ ____ _ ____ _ ____ _ ____ _ ____ _ ____
 70
    64
 72
    65
 73
     4
 40
2.0
 49
1.25
 49
-0.25
 49
0.25
 49
-0.25
  0
LTYPE
  2
PHANTOM
  3
_____ _ _ _____ _ _ _____ _ _ _____ _ _ ____
 70
    64
 72
    65
 73
     6
 40
2.5
 49
1.25
 49
-0.25
 49
0.25
 49
-0.25
 49
0.25
 49
-0.25
  0
ENDTAB
  0
TABLE
  2
LAYER
 70
     1
  0
LAYER
  2
0
 70
    64
 62
     7
  6
CONTINUOUS
  0
ENDTAB
  0
TABLE
  2
STYLE
 70
     1
  0
STYLE
  2
STANDARD
 70
     0
 40
0.000000
 41
1.000000
 50
0.000000
 71
     0
 42
3.000000
  3
txt
  4
BIGFONT
  0
ENDTAB
  0
ENDSEC
  0
SECTION
  2
BLOCKS
  0
ENDSEC
  0
SECTION
  2
ENTITIES
  0
LINE
  8
0
  6
CONTINUOUS
 10
205.147385
 20
45.185001
 11
205.147385
 21
187.184998
  0
LINE
  8
0
  6
CENTER
 10
105.022499
 20
116.184998
 11
251.182495
 21
116.184998
  0
LINE
  8
0
  6
CENTER
 10
308.147369
 20
259.540009
 11
308.147369
 21
-9.455000
  0
LINE
  8
0
  6
CENTER
 10
233.455002
 20
169.684998
 11
383.160004
 21
169.684998
  0
LINE
  8
0
  6
CONTINUOUS
 10
218.147385
 20
4.685000
 11
398.147369
 21
4.685000
  0
LINE
  8
0
  6
CONTINUOUS
 10
218.147385
 20
24.684999
 11
398.147369
 21
24.684999
  0
LINE
  8
0
  6
CONTINUOUS
 10
276.332977
 20
247.184998
 11
339.961792
 21
247.184998
  0
LINE
  8
0
  6
CONTINUOUS
 10
398.147369
 20
203.016998
 11
398.147369
 21
4.685000
  0
LINE
  8
0
  6
CONTINUOUS
 10
218.147385
 20
203.016998
 11
218.147385
 21
4.685000
  0
LINE
  8
0
  6
CONTINUOUS
 10
205.147385
 20
187.184998
 11
213.147385
 21
187.184998
  0
LINE
  8
0
  6
CONTINUOUS
 10
205.147385
 20
45.185001
 11
213.147385
 21
45.185001
  0
LINE
  8
0
  6
CONTINUOUS
 10
345.745972
 20
245.342346
 11
393.931793
 21
211.174316
  0
LINE
  8
0
  6
CONTINUOUS
 10
222.363174
 20
211.174316
 11
270.548767
 21
245.342346
  0
ARC
  8
0
  6
CONTINUOUS
 10
388.147369
 20
203.016953
 40
10.000000
 50
0.000000
 51
54.660099
  0
ARC
  8
0
  6
CONTINUOUS
 10
339.961792
 20
237.184998
 40
10.000000
 50
54.659950
 51
90.000000
  0
ARC
  8
0
  6
CONTINUOUS
 10
276.332977
 20
237.184998
 40
10.000000
 50
90.000000
 51
125.340302
  0
ARC
  8
0
  6
CONTINUOUS
 10
228.147385
 20
203.017044
 40
10.000000
 50
125.340500
 51
180.000000
  0
ARC
  8
0
  6
CONTINUOUS
 10
213.147385
 20
192.184998
 40
5.000000
 50
-90.000000
 51
0.000000
  0
ARC
  8
0
  6
CONTINUOUS
 10
213.147385
 20
40.184978
 40
5.000000
 50
0.000000
 51
90.000000
  0
LINE
  8
0
  6
CENTER
 10
368.147369
 20
30.440001
 11
368.147369
 21
-3.530000
  0
LINE
  8
0
  6
CENTER
 10
248.147385
 20
31.625000
 11
248.147385
 21
-3.135000
  0
LINE
  8
0
  6
DASHED
 10
360.647369
 20
24.684999
 11
360.647369
 21
4.685000
  0
LINE
  8
0
  6
DASHED
 10
375.647369
 20
24.684999
 11
375.647369
 21
4.685000
  0
LINE
  8
0
  6
DASHED
 10
255.647385
 20
24.684999
 11
255.647385
 21
4.685000
  0
LINE
  8
0
  6
DASHED
 10
240.647385
 20
24.684999
 11
240.647385
 21
4.685000
  0
LINE
  8
0
  6
CONTINUOUS
 10
384.147369
 20
21.999680
 11
384.147369
 21
4.685000
  0
LINE
  8
0
  6
CONTINUOUS
 10
232.147385
 20
21.999680
 11
232.147385
 21
4.685000
  0
LINE
  8
0
  6
CONTINUOUS
 10
341.904785
 20
29.684999
 11
274.389984
 21
29.684999
  0
LINE
  8
0
  6
CONTINUOUS
 10
273.147369
 20
28.548120
 11
273.147369
 21
25.684999
  0
LINE
  8
0
  6
CONTINUOUS
 10
343.147369
 20
28.548120
 11
343.147369
 21
25.684999
  0
LINE
  8
0
  6
CONTINUOUS
 10
344.025970
 20
28.806320
 11
346.682983
 21
26.149441
  0
LINE
  8
0
  6
CONTINUOUS
 10
272.268768
 20
28.806320
 11
269.611786
 21
26.149500
  0
ARC
  8
0
  6
CONTINUOUS
 10
266.076385
 20
29.684999
 40
5.000000
 50
270.000000
 51
315.000092
  0
ARC
  8
0
  6
CONTINUOUS
 10
350.218384
 20
29.684999
 40
5.000000
 50
225.000107
 51
270.000000
  0
ARC
  8
0
  6
CONTINUOUS
 10
274.389984
 20
26.684999
 40
3.000000
 50
90.000000
 51
135.000397
  0
ARC
  8
0
  6
CONTINUOUS
 10
341.904785
 20
26.684999
 40
3.000000
 50
45.000259
 51
90.000000
  0
ARC
  8
0
  6
CONTINUOUS
 10
272.147369
 20
25.684999
 40
1.000000
 50
-90.000000
 51
0.000000
  0
ARC
  8
0
  6
CONTINUOUS
 10
344.147369
 20
25.684999
 40
1.000000
 50
180.000000
 51
270.000000
  0
CIRCLE
  8
0
  6
CONTINUOUS
 10
308.147369
 20
169.684998
 40
46.000000
  0
ARC
  8
0
  6
CONTINUOUS
 10
308.147369
 20
169.684998
 40
52.000000
 50
12.522720
 51
167.477402
  0
ARC
  8
0
  6
CONTINUOUS
 10
308.147369
 20
169.684998
 40
48.000000
 50
-192.522598
 51
12.522720
  0
ARC
  8
0
  6
CONTINUOUS
 10
278.147369
 20
99.184998
 40
34.000000
 50
167.477402
 51
270.000000
  0
ARC
  8
0
  6
CONTINUOUS
 10
278.147369
 20
99.184998
 40
38.000000
 50
167.477402
 51
270.000000
  0
ARC
  8
0
  6
CONTINUOUS
 10
338.147369
 20
99.184998
 40
34.000000
 50
-90.000000
 51
12.522730
  0
ARC
  8
0
  6
CONTINUOUS
 10
338.147369
 20
99.184998
 40
38.000000
 50
-90.000000
 51
12.522720
  0
LINE
  8
0
  6
CONTINUOUS
 10
241.051376
 20
107.424362
 11
257.384369
 21
180.959900
  0
LINE
  8
0
  6
CONTINUOUS
 10
358.910370
 20
180.960007
 11
375.243378
 21
107.424423
  0
LINE
  8
0
  6
CONTINUOUS
 10
355.005371
 20
180.092682
 11
371.338593
 21
106.557121
  0
LINE
  8
0
  6
CONTINUOUS
 10
244.956177
 20
106.557060
 11
261.289368
 21
180.092621
  0
LINE
  8
0
  6
CONTINUOUS
 10
278.147369
 20
65.184998
 11
338.147369
 21
65.184998
  0
LINE
  8
0
  6
CONTINUOUS
 10
278.147369
 20
61.185001
 11
338.147369
 21
61.185001
  0
LINE
  8
0
  6
CONTINUOUS
 10
295.920380
 20
83.184998
 11
290.979980
 21
83.184998
  0
LINE
  8
0
  6
CONTINUOUS
 10
298.647369
 20
91.460403
 11
298.647369
 21
83.184998
  0
LINE
  8
0
  6
CONTINUOUS
 10
303.397369
 20
94.466240
 11
303.397369
 21
97.434998
  0
LINE
  8
0
  6
CONTINUOUS
 10
312.897369
 20
94.466240
 11
312.897369
 21
97.434998
  0
LINE
  8
0
  6
CONTINUOUS
 10
307.219574
 20
95.690857
 11
307.219574
 21
84.743599
  0
LINE
  8
0
  6
CONTINUOUS
 10
309.000977
 20
95.690857
 11
309.000977
 21
84.743599
  0
LINE
  8
0
  6
CONTINUOUS
 10
318.352570
 20
95.690857
 11
318.352570
 21
84.669380
  0
LINE
  8
0
  6
CONTINUOUS
 10
319.985382
 20
89.846138
 11
319.985382
 21
84.669380
  0
LINE
  8
0
  6
CONTINUOUS
 10
296.393372
 20
95.542419
 11
291.815796
 21
95.542419
  0
LINE
  8
0
  6
CONTINUOUS
 10
291.815796
 20
95.542419
 11
290.743195
 21
94.212418
  0
LINE
  8
0
  6
CONTINUOUS
 10
290.872192
 20
97.434998
 11
289.147369
 21
95.226540
  0
LINE
  8
0
  6
CONTINUOUS
 10
290.743195
 20
86.002838
 11
291.832977
 21
84.854919
  0
LINE
  8
0
  6
CONTINUOUS
 10
289.147369
 20
85.034119
 11
290.979980
 21
83.184998
  0
LINE
  8
0
  6
CONTINUOUS
 10
289.147369
 20
95.226540
 11
289.147369
 21
85.034119
  0
LINE
  8
0
  6
CONTINUOUS
 10
290.743195
 20
94.212418
 11
290.743195
 21
86.002838
  0
LINE
  8
0
  6
CONTINUOUS
 10
297.274384
 20
94.690857
 11
296.375397
 21
95.542419
  0
LINE
  8
0
  6
CONTINUOUS
 10
297.259979
 20
97.434998
 11
298.647369
 21
95.895416
  0
LINE
  8
0
  6
CONTINUOUS
 10
297.274384
 20
94.466240
 11
298.647369
 21
94.466240
  0
LINE
  8
0
  6
CONTINUOUS
 10
290.872192
 20
97.434998
 11
297.259979
 21
97.434998
  0
LINE
  8
0
  6
CONTINUOUS
 10
294.787994
 20
91.460403
 11
298.647369
 21
91.460403
  0
LINE
  8
0
  6
CONTINUOUS
 10
297.274384
 20
89.901802
 11
294.787994
 21
89.901802
  0
LINE
  8
0
  6
CONTINUOUS
 10
294.305573
 20
84.854919
 11
291.832977
 21
84.854919
  0
LINE
  8
0
  6
CONTINUOUS
 10
297.274384
 20
88.417419
 11
297.274384
 21
89.604919
  0
ARC
  8
0
  6
CONTINUOUS
 10
294.305573
 20
87.823662
 40
2.968750
 50
-89.999786
 51
0.000109
  0
LINE
  8
0
  6
CONTINUOUS
 10
297.274384
 20
84.320923
 11
297.274384
 21
83.184998
  0
LINE
  8
0
  6
CONTINUOUS
 10
298.647369
 20
95.895416
 11
298.647369
 21
94.466240
  0
LINE
  8
0
  6
CONTINUOUS
 10
297.274384
 20
89.901802
 11
297.274384
 21
87.823662
  0
LINE
  8
0
  6
CONTINUOUS
 10
294.787994
 20
91.460403
 11
294.787994
 21
89.901802
  0
LINE
  8
0
  6
CONTINUOUS
 10
297.274384
 20
83.184998
 11
298.647369
 21
83.184998
  0
LINE
  8
0
  6
CONTINUOUS
 10
297.274384
 20
84.320923
 11
295.920380
 21
83.184998
  0
LINE
  8
0
  6
CONTINUOUS
 10
309.000977
 20
84.743599
 11
309.594574
 21
84.743599
  0
LINE
  8
0
  6
CONTINUOUS
 10
306.514587
 20
84.743599
 11
306.514587
 21
83.184998
  0
LINE
  8
0
  6
CONTINUOUS
 10
309.594574
 20
84.743599
 11
309.594574
 21
83.184998
  0
LINE
  8
0
  6
CONTINUOUS
 10
311.906372
 20
94.466240
 11
312.897369
 21
94.466240
  0
LINE
  8
0
  6
CONTINUOUS
 10
303.397369
 20
94.466240
 11
304.451996
 21
94.466240
  0
LINE
  8
0
  6
CONTINUOUS
 10
303.397369
 20
97.434998
 11
312.897369
 21
97.434998
  0
LINE
  8
0
  6
CONTINUOUS
 10
306.514587
 20
83.184998
 11
309.594574
 21
83.184998
  0
LINE
  8
0
  6
CONTINUOUS
 10
306.514587
 20
84.743599
 11
307.219574
 21
84.743599
  0
ARC
  8
0
  6
CONTINUOUS
 10
323.343567
 20
93.631279
 40
3.803712
 50
-73.981873
 51
90.003510
  0
ARC
  8
0
  6
CONTINUOUS
 10
323.343567
 20
93.631279
 40
2.320524
 50
-82.585274
 51
62.411850
  0
LINE
  8
0
  6
CONTINUOUS
 10
317.647369
 20
97.434998
 11
323.343567
 21
97.434998
  0
LINE
  8
0
  6
CONTINUOUS
 10
323.643188
 20
91.330162
 11
319.985382
 21
91.330162
  0
LINE
  8
0
  6
CONTINUOUS
 10
317.647369
 20
97.434998
 11
317.647369
 21
95.690857
  0
LINE
  8
0
  6
CONTINUOUS
 10
319.985382
 20
95.690857
 11
319.985382
 21
91.330162
  0
LINE
  8
0
  6
CONTINUOUS
 10
324.393188
 20
89.975258
 11
326.747589
 21
84.669380
  0
LINE
  8
0
  6
CONTINUOUS
 10
323.025970
 20
89.846138
 11
325.253784
 21
84.669380
  0
LINE
  8
0
  6
CONTINUOUS
 10
317.647369
 20
84.669380
 11
318.352570
 21
84.669380
  0
LINE
  8
0
  6
CONTINUOUS
 10
319.985382
 20
84.669380
 11
320.634796
 21
84.669380
  0
LINE
  8
0
  6
CONTINUOUS
 10
320.634796
 20
83.184998
 11
317.647369
 21
83.184998
  0
LINE
  8
0
  6
CONTINUOUS
 10
324.957977
 20
84.669380
 11
325.253784
 21
84.669380
  0
LINE
  8
0
  6
CONTINUOUS
 10
326.747589
 20
84.669380
 11
327.147369
 21
84.669380
  0
LINE
  8
0
  6
CONTINUOUS
 10
324.957977
 20
83.184998
 11
327.147369
 21
83.184998
  0
LINE
  8
0
  6
CONTINUOUS
 10
327.147369
 20
84.669380
 11
327.147369
 21
83.184998
  0
LINE
  8
0
  6
CONTINUOUS
 10
324.957977
 20
84.669380
 11
324.957977
 21
83.184998
  0
LINE
  8
0
  6
CONTINUOUS
 10
320.634796
 20
84.669380
 11
320.634796
 21
83.184998
  0
LINE
  8
0
  6
CONTINUOUS
 10
317.647369
 20
84.669380
 11
317.647369
 21
83.184998
  0
LINE
  8
0
  6
CONTINUOUS
 10
304.962189
 20
95.690857
 11
304.451996
 21
94.466240
  0
LINE
  8
0
  6
CONTINUOUS
 10
311.476196
 20
95.690857
 11
311.906372
 21
94.466240
  0
LINE
  8
0
  6
CONTINUOUS
 10
309.000977
 20
95.690857
 11
311.476196
 21
95.690857
  0
LINE
  8
0
  6
CONTINUOUS
 10
307.219574
 20
95.690857
 11
304.962189
 21
95.690857
  0
LINE
  8
0
  6
CONTINUOUS
 10
319.985382
 20
89.846138
 11
323.025970
 21
89.846138
  0
LINE
  8
0
  6
CONTINUOUS
 10
317.647369
 20
95.690857
 11
318.352570
 21
95.690857
  0
LINE
  8
0
  6
CONTINUOUS
 10
319.985382
 20
95.690857
 11
324.418396
 21
95.687981
  0
LINE
  8
0
  6
CONTINUOUS
 10
297.274384
 20
94.690857
 11
297.274384
 21
94.466240
  0
ARC
  8
0
  6
CONTINUOUS
 10
427.828979
 20
116.184998
 40
215.181595
 50
167.017899
 51
192.982101
  0
LINE
  8
0
  6
CONTINUOUS
 10
18.647383
 20
48.185001
 11
18.647383
 21
154.184998
  0
LINE
  8
0
  6
CONTINUOUS
 10
18.647383
 20
154.184998
 11
148.647385
 21
154.184998
  0
LINE
  8
0
  6
CONTINUOUS
 10
18.647383
 20
48.185001
 11
148.647385
 21
48.185001
  0
LINE
  8
0
  6
CONTINUOUS
 10
18.647383
 20
143.808334
 11
137.309143
 21
143.808334
  0
LINE
  8
0
  6
CONTINUOUS
 10
18.647383
 20
58.561642
 11
137.309143
 21
58.561642
  0
LINE
  8
0
  6
CONTINUOUS
 10
138.647385
 20
152.184998
 11
138.647385
 21
50.184978
  0
ARC
  8
0
  6
CONTINUOUS
 10
140.647385
 20
152.185013
 40
2.000000
 50
90.000000
 51
180.000000
  0
ARC
  8
0
  6
CONTINUOUS
 10
140.647385
 20
50.185001
 40
2.000000
 50
180.000000
 51
270.000000
  0
LINE
  8
0
  6
CONTINUOUS
 10
-1.852618
 20
101.184998
 11
-1.852618
 21
146.184998
  0
LINE
  8
0
  6
CONTINUOUS
 10
-1.852618
 20
101.184998
 11
-1.852618
 21
56.185001
  0
LINE
  8
0
  6
CONTINUOUS
 10
-1.352618
 20
150.184998
 11
-1.352618
 21
56.185001
  0
LINE
  8
0
  6
CONTINUOUS
 10
3.737561
 20
154.184998
 11
18.647383
 21
154.184998
  0
LINE
  8
0
  6
CONTINUOUS
 10
3.737561
 20
48.185001
 11
18.647383
 21
48.185001
  0
LINE
  8
0
  6
CONTINUOUS
 10
-1.352618
 20
56.185001
 11
-1.352618
 21
52.185001
  0
LINE
  8
0
  6
CONTINUOUS
 10
-0.734576
 20
151.421066
 11
-1.352618
 21
150.184998
  0
ARC
  8
0
  6
CONTINUOUS
 10
3.737561
 20
149.185013
 40
5.000000
 50
90.000000
 51
153.435196
  0
LINE
  8
0
  6
CONTINUOUS
 10
-0.734576
 20
50.948940
 11
-1.352618
 21
52.185001
  0
ARC
  8
0
  6
CONTINUOUS
 10
3.737561
 20
53.185001
 40
5.000000
 50
206.565002
 51
270.000000
  0
LINE
  8
0
  6
CONTINUOUS
 10
-1.852618
 20
56.185001
 11
-1.352618
 21
55.685001
  0
LINE
  8
0
  6
CONTINUOUS
 10
-1.852618
 20
146.184998
 11
-1.352618
 21
146.684998
  0
LINE
  8
0
  6
CONTINUOUS
 10
18.647383
 20
143.808365
 11
0.522382
 21
143.808365
  0
LINE
  8
0
  6
CONTINUOUS
 10
18.647383
 20
58.561642
 11
0.522382
 21
58.561642
  0
LINE
  8
0
  6
CENTER
 10
656.836609
 20
-11.825000
 11
656.836609
 21
260.329987
  0
LINE
  8
0
  6
CENTER
 10
556.034241
 20
116.184998
 11
752.744202
 21
116.184998
  0
LINE
  8
0
  6
CENTER
 10
501.024994
 20
169.684998
 11
814.273376
 21
169.684998
  0
LINE
  8
0
  6
CENTER
 10
586.836609
 20
36.365002
 11
586.836609
 21
-2.345000
  0
LINE
  8
0
  6
CENTER
 10
726.836609
 20
33.599998
 11
726.836609
 21
-3.135000
  0
LINE
  8
0
  6
DASHED
 10
719.336609
 20
24.684999
 11
719.336609
 21
4.685000
  0
LINE
  8
0
  6
DASHED
 10
734.336609
 20
24.684999
 11
734.336609
 21
4.685000
  0
LINE
  8
0
  6
DASHED
 10
594.336609
 20
24.684999
 11
594.336609
 21
4.685000
  0
LINE
  8
0
  6
DASHED
 10
579.336609
 20
24.684999
 11
579.336609
 21
4.685000
  0
LINE
  8
0
  6
CONTINUOUS
 10
566.836609
 20
4.685000
 11
621.836609
 21
4.685000
  0
LINE
  8
0
  6
CONTINUOUS
 10
691.836609
 20
4.685000
 11
746.836609
 21
4.685000
  0
LINE
  8
0
  6
CONTINUOUS
 10
713.836609
 20
24.684999
 11
743.836609
 21
24.684999
  0
LINE
  8
0
  6
CONTINUOUS
 10
569.836609
 20
24.684999
 11
599.836609
 21
24.684999
  0
LINE
  8
0
  6
CONTINUOUS
 10
566.836609
 20
22.053881
 11
566.836609
 21
4.685020
  0
LINE
  8
0
  6
CONTINUOUS
 10
746.836609
 20
22.053881
 11
746.836609
 21
4.685000
  0
LINE
  8
0
  6
CONTINUOUS
 10
708.836609
 20
226.965103
 11
708.836609
 21
242.346756
  0
LINE
  8
0
  6
CONTINUOUS
 10
604.836609
 20
242.346375
 11
604.836609
 21
4.685000
  0
LINE
  8
0
  6
CONTINUOUS
 10
623.336609
 20
6.185000
 11
690.336609
 21
6.185000
  0
LINE
  8
0
  6
CONTINUOUS
 10
609.281189
 20
208.184998
 11
705.068420
 21
208.184998
  0
LINE
  8
0
  6
CONTINUOUS
 10
704.906372
 20
246.346146
 11
656.836609
 21
247.185013
  0
LINE
  8
0
  6
CONTINUOUS
 10
608.766785
 20
246.345779
 11
656.836609
 21
247.185013
  0
LINE
  8
0
  6
CONTINUOUS
 10
583.836609
 20
128.965103
 11
583.836609
 21
210.404877
  0
LINE
  8
0
  6
CONTINUOUS
 10
729.836609
 20
128.965103
 11
729.836609
 21
210.404877
  0
LINE
  8
0
  6
CONTINUOUS
 10
590.836609
 20
70.465103
 11
590.836609
 21
173.825287
  0
LINE
  8
0
  6
CONTINUOUS
 10
722.836609
 20
70.465118
 11
722.836609
 21
173.825287
  0
ARC
  8
0
  6
CONTINUOUS
 10
608.836609
 20
242.346405
 40
4.000000
 50
91.000580
 51
180.000000
  0
ARC
  8
0
  6
CONTINUOUS
 10
704.836609
 20
242.346741
 40
4.000000
 50
0.000000
 51
89.000359
  0
LINE
  8
0
  6
CONTINUOUS
 10
588.913574
 20
217.135559
 11
599.759583
 21
220.234436
  0
LINE
  8
0
  6
CONTINUOUS
 10
713.913574
 20
220.234436
 11
724.759583
 21
217.135559
  0
LINE
  8
0
  6
CONTINUOUS
 10
595.913574
 20
63.734440
 11
599.759583
 21
62.635559
  0
LINE
  8
0
  6
CONTINUOUS
 10
717.759583
 20
63.734440
 11
713.913574
 21
62.635559
  0
LINE
  8
0
  6
CONTINUOUS
 10
744.228027
 20
25.028240
 11
711.445190
 21
29.341761
  0
LINE
  8
0
  6
CONTINUOUS
 10
569.445190
 20
25.028240
 11
602.228027
 21
29.341780
  0
ARC
  8
0
  6
CONTINUOUS
 10
590.836609
 20
210.404922
 40
7.000000
 50
105.945801
 51
180.000000
  0
ARC
  8
0
  6
CONTINUOUS
 10
590.836609
 20
128.965149
 40
7.000000
 50
180.000000
 51
240.000198
  0
ARC
  8
0
  6
CONTINUOUS
 10
722.836609
 20
210.404861
 40
7.000000
 50
0.000000
 51
74.054764
  0
ARC
  8
0
  6
CONTINUOUS
 10
722.836609
 20
128.965103
 40
7.000000
 50
-59.999882
 51
0.000000
  0
ARC
  8
0
  6
CONTINUOUS
 10
597.836609
 20
70.465157
 40
7.000000
 50
180.000000
 51
254.054901
  0
ARC
  8
0
  6
CONTINUOUS
 10
715.836609
 20
70.465103
 40
7.000000
 50
-74.054497
 51
0.000000
  0
LINE
  8
0
  6
CONTINUOUS
 10
708.836609
 20
29.684999
 11
708.836609
 21
226.965103
  0
ARC
  8
0
  6
CONTINUOUS
 10
715.836609
 20
226.965164
 40
7.000000
 50
180.000000
 51
254.054901
  0
ARC
  8
0
  6
CONTINUOUS
 10
715.836609
 20
55.904942
 40
7.000000
 50
105.945801
 51
180.000000
  0
ARC
  8
0
  6
CONTINUOUS
 10
729.836609
 20
116.840744
 40
7.000000
 50
120.000099
 51
180.000000
  0
ARC
  8
0
  6
CONTINUOUS
 10
711.836609
 20
32.316139
 40
3.000000
 50
180.000000
 51
262.504395
  0
ARC
  8
0
  6
CONTINUOUS
 10
743.836609
 20
21.684999
 40
3.000000
 50
0.000000
 51
90.000000
  0
ARC
  8
0
  6
CONTINUOUS
 10
743.836609
 20
22.053860
 40
3.000000
 50
0.000000
 51
82.504204
  0
LINE
  8
0
  6
CONTINUOUS
 10
708.836609
 20
29.684999
 11
708.836609
 21
4.685000
  0
ARC
  8
0
  6
CONTINUOUS
 10
713.836609
 20
29.685020
 40
5.000000
 50
180.000000
 51
270.000000
  0
ARC
  8
0
  6
CONTINUOUS
 10
601.836609
 20
32.316139
 40
3.000000
 50
-82.503883
 51
0.000000
  0
ARC
  8
0
  6
CONTINUOUS
 10
599.836609
 20
29.684999
 40
5.000000
 50
-90.000000
 51
0.000000
  0
ARC
  8
0
  6
CONTINUOUS
 10
569.836609
 20
21.685020
 40
3.000000
 50
90.000000
 51
180.000000
  0
ARC
  8
0
  6
CONTINUOUS
 10
569.836609
 20
22.053900
 40
3.000000
 50
97.496292
 51
180.000000
  0
LINE
  8
0
  6
CONTINUOUS
 10
621.836609
 20
4.685000
 11
623.336609
 21
6.185000
  0
LINE
  8
0
  6
CONTINUOUS
 10
691.836609
 20
4.685000
 11
690.336609
 21
6.185000
  0
ARC
  8
0
  6
CONTINUOUS
 10
597.836609
 20
55.904861
 40
7.000000
 50
0.000000
 51
74.054688
  0
ARC
  8
0
  6
CONTINUOUS
 10
583.836609
 20
116.840782
 40
7.000000
 50
0.000000
 51
60.000092
  0
ARC
  8
0
  6
CONTINUOUS
 10
597.836609
 20
226.965103
 40
7.000000
 50
-74.054443
 51
0.000000
  0
ARC
  8
0
  6
CONTINUOUS
 10
656.836609
 20
116.184998
 40
71.000000
 50
-21.630920
 51
6.068256
  0
ARC
  8
0
  6
CONTINUOUS
 10
656.836609
 20
116.184998
 40
71.000000
 50
173.931793
 51
201.630905
  0
LINE
  8
0
  6
CONTINUOUS
 10
709.836609
 20
59.510479
 11
709.836609
 21
53.185001
  0
LINE
  8
0
  6
CONTINUOUS
 10
603.836609
 20
53.185001
 11
603.836609
 21
59.374001
  0
ARC
  8
0
  6
CONTINUOUS
 10
704.836609
 20
53.185001
 40
5.000000
 50
-36.869869
 51
0.000000
  0
ARC
  8
0
  6
CONTINUOUS
 10
608.836609
 20
53.185001
 40
5.000000
 50
180.000000
 51
216.865204
  0
LINE
  8
0
  6
CONTINUOUS
 10
323.147369
 20
163.685059
 11
323.147369
 21
175.685059
  0
LINE
  8
0
  6
CONTINUOUS
 10
331.147369
 20
163.685074
 11
331.147369
 21
175.685074
  0
LINE
  8
0
  6
CONTINUOUS
 10
331.147369
 20
163.685074
 11
323.147369
 21
163.685059
  0
LINE
  8
0
  6
CONTINUOUS
 10
331.147369
 20
175.685074
 11
323.147369
 21
175.685059
  0
ARC
  8
0
  6
CONTINUOUS
 10
308.147369
 20
169.684998
 40
20.000000
 50
17.457600
 51
342.542389
  0
LINE
  8
0
  6
CONTINUOUS
 10
516.836609
 20
149.684998
 11
516.836609
 21
189.684998
  0
LINE
  8
0
  6
CONTINUOUS
 10
581.836609
 20
189.684998
 11
516.836609
 21
189.684998
  0
LINE
  8
0
  6
CONTINUOUS
 10
581.836609
 20
149.684998
 11
516.836609
 21
149.684998
  0
LINE
  8
0
  6
CONTINUOUS
 10
581.836609
 20
192.184998
 11
581.836609
 21
147.184998
  0
LINE
  8
0
  6
CONTINUOUS
 10
583.836609
 20
192.184998
 11
581.836609
 21
192.184998
  0
LINE
  8
0
  6
CONTINUOUS
 10
583.836609
 20
147.184998
 11
581.836609
 21
147.184998
  0
ARC
  8
0
  6
CONTINUOUS
 10
570.836609
 20
169.684998
 40
6.000000
 50
-90.000000
 51
90.000000
  0
LINE
  8
0
  6
CONTINUOUS
 10
570.836609
 20
175.684998
 11
516.836609
 21
175.684998
  0
LINE
  8
0
  6
CONTINUOUS
 10
570.836609
 20
163.684998
 11
516.836609
 21
163.684998
  0
LINE
  8
0
  6
CONTINUOUS
 10
796.836609
 20
149.684998
 11
796.836609
 21
189.684998
  0
LINE
  8
0
  6
CONTINUOUS
 10
731.836609
 20
189.684998
 11
796.836609
 21
189.684998
  0
LINE
  8
0
  6
CONTINUOUS
 10
731.836609
 20
149.684998
 11
796.836609
 21
149.684998
  0
LINE
  8
0
  6
CONTINUOUS
 10
731.836609
 20
192.184998
 11
731.836609
 21
147.184998
  0
LINE
  8
0
  6
CONTINUOUS
 10
729.836609
 20
192.184998
 11
731.836609
 21
192.184998
  0
LINE
  8
0
  6
CONTINUOUS
 10
729.836609
 20
147.184998
 11
731.836609
 21
147.184998
  0
ARC
  8
0
  6
CONTINUOUS
 10
742.836609
 20
169.684998
 40
6.000000
 50
90.000000
 51
270.000000
  0
LINE
  8
0
  6
CONTINUOUS
 10
742.836609
 20
175.684998
 11
796.836609
 21
175.684998
  0
LINE
  8
0
  6
CONTINUOUS
 10
742.836609
 20
163.684998
 11
796.836609
 21
163.684998
  0
LINE
  8
0
  6
CONTINUOUS
 10
196.147385
 20
70.941002
 11
196.147385
 21
185.184998
  0
LINE
  8
0
  6
CENTER
 10
-20.282148
 20
101.184998
 11
251.637375
 21
101.184998
  0
LINE
  8
0
  6
CONTINUOUS
 10
198.147385
 20
187.184998
 11
205.147385
 21
187.184998
  0
LINE
  8
0
  6
CONTINUOUS
 10
198.147385
 20
45.185020
 11
205.147385
 21
45.185020
  0
LINE
  8
0
  6
CONTINUOUS
 10
177.147385
 20
48.185001
 11
148.647385
 21
48.185001
  0
LINE
  8
0
  6
CONTINUOUS
 10
148.647385
 20
154.184998
 11
193.147369
 21
154.184998
  0
LINE
  8
0
  6
CONTINUOUS
 10
194.647385
 20
165.318985
 11
176.059113
 21
154.586929
  0
ARC
  8
0
  6
CONTINUOUS
 10
198.147400
 20
185.184998
 40
2.000000
 50
90.000000
 51
180.000000
  0
ARC
  8
0
  6
CONTINUOUS
 10
198.147385
 20
47.185001
 40
2.000000
 50
194.477707
 51
270.000000
  0
LINE
  8
0
  6
CONTINUOUS
 10
177.147385
 20
50.185001
 11
177.147385
 21
66.941002
  0
LINE
  8
0
  6
CONTINUOUS
 10
194.147385
 20
68.941002
 11
179.147385
 21
68.941002
  0
ARC
  8
0
  6
CONTINUOUS
 10
179.147385
 20
66.941017
 40
2.000000
 50
90.000000
 51
180.000000
  0
ARC
  8
0
  6
CONTINUOUS
 10
194.274399
 20
46.185001
 40
2.000000
 50
14.477280
 51
90.000000
  0
ARC
  8
0
  6
CONTINUOUS
 10
194.147385
 20
70.941002
 40
2.000000
 50
-90.000000
 51
0.000000
  0
LINE
  8
0
  6
CONTINUOUS
 10
177.147385
 20
48.185001
 11
194.274399
 21
48.185001
  0
ARC
  8
0
  6
CONTINUOUS
 10
175.147385
 20
50.185001
 40
2.000000
 50
-90.000000
 51
0.000000
  0
ARC
  8
0
  6
CONTINUOUS
 10
193.147385
 20
157.184998
 40
3.000000
 50
-90.000000
 51
0.000000
  0
ARC
  8
0
  6
CONTINUOUS
 10
193.147385
 20
167.917038
 40
3.000000
 50
-59.999660
 51
0.000000
  0
ARC
  8
0
  6
CONTINUOUS
 10
174.559097
 20
157.184998
 40
3.000000
 50
270.000000
 51
300.000305
  0
LINE
  8
0
  6
CONTINUOUS
 10
148.647385
 20
154.184998
 11
148.647385
 21
48.185001
  0
LINE
  8
0
  6
CONTINUOUS
 10
377.016510
 20
584.369202
 11
331.147369
 21
584.369263
  0
LINE
  8
0
  6
CONTINUOUS
 10
377.015900
 20
404.369171
 11
331.147369
 21
404.369263
  0
LINE
  8
0
  6
CENTER
 10
308.147369
 20
339.980347
 11
308.148041
 21
659.447205
  0
LINE
  8
0
  6
CENTER
 10
383.001190
 20
564.369995
 11
354.633148
 21
564.369995
  0
LINE
  8
0
  6
CONTINUOUS
 10
398.147705
 20
494.369263
 11
397.239685
 21
442.369202
  0
LINE
  8
0
  6
CONTINUOUS
 10
386.470490
 20
411.111755
 11
397.239685
 21
442.369202
  0
ARC
  8
0
  6
CONTINUOUS
 10
377.016083
 20
414.369232
 40
10.000000
 50
-90.000000
 51
-19.010900
  0
ARC
  8
0
  6
CONTINUOUS
 10
368.147705
 20
564.369995
 40
7.500000
 50
-46.074883
 51
212.226791
  0
LINE
  8
0
  6
CONTINUOUS
 10
398.147705
 20
494.369263
 11
397.239899
 21
546.369202
  0
LINE
  8
0
  6
CONTINUOUS
 10
386.470886
 20
577.626587
 11
397.239899
 21
546.369202
  0
ARC
  8
0
  6
CONTINUOUS
 10
377.016510
 20
574.369202
 40
10.000000
 50
19.010900
 51
90.000000
  0
LINE
  8
0
  6
CONTINUOUS
 10
218.147690
 20
494.369415
 11
219.055496
 21
442.369476
  0
LINE
  8
0
  6
CONTINUOUS
 10
229.824493
 20
411.112030
 11
219.055496
 21
442.369476
  0
ARC
  8
0
  6
CONTINUOUS
 10
239.279099
 20
414.369476
 40
10.000000
 50
199.010895
 51
270.000000
  0
LINE
  8
0
  6
CONTINUOUS
 10
218.147690
 20
494.369415
 11
219.004227
 21
543.421997
  0
LINE
  8
0
  6
CONTINUOUS
 10
229.824890
 20
577.626770
 11
219.402512
 21
547.376038
  0
LINE
  8
0
  6
CONTINUOUS
 10
207.185501
 20
565.369385
 11
205.147903
 21
565.369385
  0
LINE
  8
0
  6
CONTINUOUS
 10
205.147903
 20
565.369385
 11
205.147491
 21
423.369476
  0
LINE
  8
0
  6
CONTINUOUS
 10
216.257492
 20
551.557617
 11
213.946899
 21
560.181213
  0
ARC
  8
0
  6
CONTINUOUS
 10
207.185501
 20
558.369385
 40
7.000000
 50
14.999900
 51
90.000000
  0
ARC
  8
0
  6
CONTINUOUS
 10
223.019089
 20
553.369385
 40
7.000000
 50
-165.000305
 51
-90.000000
  0
LINE
  8
0
  6
CONTINUOUS
 10
207.185089
 20
423.369476
 11
205.147491
 21
423.369476
  0
LINE
  8
0
  6
CONTINUOUS
 10
216.257294
 20
437.181305
 11
213.946701
 21
428.557739
  0
ARC
  8
0
  6
CONTINUOUS
 10
207.185089
 20
430.369537
 40
7.000000
 50
-90.000000
 51
-14.999900
  0
ARC
  8
0
  6
CONTINUOUS
 10
223.018890
 20
435.369476
 40
7.000000
 50
121.109207
 51
165.000336
  0
ARC
  8
0
  6
CONTINUOUS
 10
239.279099
 20
574.369812
 40
10.000000
 50
90.000000
 51
160.989105
  0
ARC
  8
0
  6
CONTINUOUS
 10
248.147491
 20
564.370728
 40
7.500000
 50
-32.232941
 51
238.076355
  0
LINE
  8
0
  6
CENTER
 10
368.147400
 20
552.568420
 11
368.147888
 21
576.444824
  0
LINE
  8
0
  6
CENTER
 10
261.158081
 20
564.370117
 11
235.580353
 21
564.370117
  0
LINE
  8
0
  6
CENTER
 10
248.147690
 20
552.568420
 11
248.147903
 21
576.445007
  0
LINE
  8
0
  6
CONTINUOUS
 10
394.291809
 20
546.369629
 11
222.003769
 21
546.369629
  0
LINE
  8
0
  6
CONTINUOUS
 10
265.366913
 20
567.369629
 11
350.927826
 21
567.369629
  0
ARC
  8
0
  6
CONTINUOUS
 10
394.291809
 20
543.369629
 40
3.000000
 50
1.000152
 51
90.000000
  0
ARC
  8
0
  6
CONTINUOUS
 10
222.003769
 20
543.369629
 40
3.000000
 50
90.000000
 51
178.999634
  0
LINE
  8
0
  6
CONTINUOUS
 10
394.291809
 20
442.369659
 11
222.003769
 21
442.369659
  0
ARC
  8
0
  6
CONTINUOUS
 10
394.291809
 20
445.369659
 40
3.000000
 50
270.000000
 51
358.999847
  0
ARC
  8
0
  6
CONTINUOUS
 10
222.003769
 20
445.369659
 40
3.000000
 50
181.000366
 51
270.000000
  0
LINE
  8
0
  6
CONTINUOUS
 10
343.147614
 20
447.369659
 11
343.147614
 21
541.369629
  0
LINE
  8
0
  6
CONTINUOUS
 10
273.147614
 20
447.369659
 11
273.147614
 21
541.369629
  0
LINE
  8
0
  6
CONTINUOUS
 10
249.427612
 20
560.369629
 11
256.147369
 21
560.369629
  0
LINE
  8
0
  6
CONTINUOUS
 10
369.147491
 20
560.369629
 11
360.147369
 21
560.369629
  0
ARC
  8
0
  6
CONTINUOUS
 10
369.147491
 20
553.369629
 40
7.000000
 50
0.000000
 51
90.000000
  0
ARC
  8
0
  6
CONTINUOUS
 10
383.147491
 20
553.369629
 40
7.000000
 50
180.000000
 51
270.000000
  0
LINE
  8
0
  6
CENTER
 10
383.001190
 20
424.370117
 11
354.633148
 21
424.370117
  0
ARC
  8
0
  6
CONTINUOUS
 10
368.147705
 20
424.370117
 40
7.500000
 50
-212.226791
 51
46.074883
  0
ARC
  8
0
  6
CONTINUOUS
 10
248.147491
 20
424.369415
 40
7.500000
 50
-226.078156
 51
32.232941
  0
LINE
  8
0
  6
CENTER
 10
368.147400
 20
436.171722
 11
368.147888
 21
412.295319
  0
LINE
  8
0
  6
CENTER
 10
261.158081
 20
424.369995
 11
235.580353
 21
424.369995
  0
LINE
  8
0
  6
CENTER
 10
248.147690
 20
436.171722
 11
248.147903
 21
412.295105
  0
LINE
  8
0
  6
CONTINUOUS
 10
265.366913
 20
421.369659
 11
350.927826
 21
421.369659
  0
LINE
  8
0
  6
CONTINUOUS
 10
247.147491
 20
428.369659
 11
256.147369
 21
428.369568
  0
ARC
  8
0
  6
CONTINUOUS
 10
247.147491
 20
435.369659
 40
7.000000
 50
180.000000
 51
270.000000
  0
ARC
  8
0
  6
CONTINUOUS
 10
233.147491
 20
435.369659
 40
7.000000
 50
0.000000
 51
90.000000
  0
LINE
  8
0
  6
CONTINUOUS
 10
369.147491
 20
428.369659
 11
360.147369
 21
428.369568
  0
ARC
  8
0
  6
CONTINUOUS
 10
369.147491
 20
435.369659
 40
7.000000
 50
-90.000000
 51
0.000000
  0
ARC
  8
0
  6
CONTINUOUS
 10
383.147491
 20
435.369659
 40
7.000000
 50
90.000000
 51
180.000000
  0
LINE
  8
0
  6
CONTINUOUS
 10
242.696945
 20
555.292725
 11
241.598053
 21
551.446594
  0
ARC
  8
0
  6
CONTINUOUS
 10
249.427612
 20
553.369629
 40
7.000000
 50
90.000000
 51
164.054611
  0
ARC
  8
0
  6
CONTINUOUS
 10
234.867386
 20
553.369629
 40
7.000000
 50
-90.000000
 51
-15.945396
  0
LINE
  8
0
  6
CONTINUOUS
 10
288.147705
 20
354.369415
 11
331.147369
 21
354.369415
  0
LINE
  8
0
  6
CONTINUOUS
 10
328.147705
 20
419.369415
 11
328.147705
 21
414.369873
  0
LINE
  8
0
  6
CONTINUOUS
 10
288.147705
 20
419.369415
 11
288.147705
 21
354.369415
  0
LINE
  8
0
  6
CONTINUOUS
 10
330.647705
 20
419.369415
 11
285.647705
 21
419.369415
  0
LINE
  8
0
  6
CONTINUOUS
 10
330.647705
 20
421.369415
 11
330.647705
 21
419.369415
  0
LINE
  8
0
  6
CONTINUOUS
 10
285.647705
 20
421.369415
 11
285.647705
 21
419.369415
  0
LINE
  8
0
  6
CONTINUOUS
 10
288.147705
 20
634.369446
 11
331.147369
 21
634.369446
  0
LINE
  8
0
  6
CONTINUOUS
 10
328.147705
 20
569.369446
 11
328.147705
 21
574.369446
  0
LINE
  8
0
  6
CONTINUOUS
 10
288.147705
 20
569.369446
 11
288.147705
 21
634.369446
  0
LINE
  8
0
  6
CONTINUOUS
 10
330.647705
 20
569.369446
 11
285.647705
 21
569.369446
  0
LINE
  8
0
  6
CONTINUOUS
 10
330.647705
 20
567.369446
 11
330.647705
 21
569.369446
  0
LINE
  8
0
  6
CONTINUOUS
 10
285.647705
 20
567.369446
 11
285.647705
 21
569.369446
  0
LINE
  8
0
  6
CONTINUOUS
 10
288.147705
 20
584.369324
 11
239.279495
 21
584.369385
  0
LINE
  8
0
  6
CONTINUOUS
 10
288.147705
 20
404.369324
 11
239.279099
 21
404.369415
  0
LINE
  8
0
  6
CONTINUOUS
 10
331.147369
 20
634.369446
 11
331.147369
 21
574.369446
  0
LINE
  8
0
  6
CONTINUOUS
 10
327.226379
 20
574.369446
 11
331.147369
 21
574.369446
  0
LINE
  8
0
  6
CONTINUOUS
 10
331.147369
 20
354.369873
 11
331.147369
 21
414.369873
  0
LINE
  8
0
  6
CONTINUOUS
 10
327.226379
 20
414.369873
 11
331.147369
 21
414.369873
  0
LINE
  8
0
  6
CONTINUOUS
 10
260.052124
 20
564.925171
 11
256.147369
 21
560.369629
  0
ARC
  8
0
  6
CONTINUOUS
 10
265.366913
 20
560.369629
 40
7.000000
 50
90.000000
 51
139.398712
  0
LINE
  8
0
  6
CONTINUOUS
 10
356.242645
 20
564.925171
 11
360.147369
 21
560.369629
  0
ARC
  8
0
  6
CONTINUOUS
 10
350.927826
 20
560.369629
 40
7.000000
 50
40.601295
 51
90.000000
  0
LINE
  8
0
  6
CONTINUOUS
 10
356.242645
 20
423.814026
 11
360.147369
 21
428.369568
  0
ARC
  8
0
  6
CONTINUOUS
 10
350.927826
 20
428.369568
 40
7.000000
 50
-90.000000
 51
-40.601295
  0
LINE
  8
0
  6
CONTINUOUS
 10
260.052124
 20
423.814026
 11
256.147369
 21
428.369568
  0
ARC
  8
0
  6
CONTINUOUS
 10
265.366913
 20
428.369568
 40
7.000000
 50
-139.398712
 51
-90.000000
  0
LINE
  8
0
  6
CONTINUOUS
 10
327.226379
 20
414.369873
 11
327.226379
 21
354.369415
  0
LINE
  8
0
  6
CONTINUOUS
 10
327.226379
 20
634.369446
 11
327.226379
 21
574.369446
  0
LINE
  8
0
  6
CENTER
 10
421.348633
 20
494.369415
 11
-23.097775
 21
494.369415
  0
LINE
  8
0
  6
CONTINUOUS
 10
198.147903
 20
565.369446
 11
205.147903
 21
565.369446
  0
LINE
  8
0
  6
CONTINUOUS
 10
196.147903
 20
425.369415
 11
196.147903
 21
563.369446
  0
LINE
  8
0
  6
CONTINUOUS
 10
198.147903
 20
423.369415
 11
205.147491
 21
423.369415
  0
LINE
  8
0
  6
CONTINUOUS
 10
148.647903
 20
547.369446
 11
196.147903
 21
547.369446
  0
LINE
  8
0
  6
CONTINUOUS
 10
148.647903
 20
441.369415
 11
196.147903
 21
441.369415
  0
LINE
  8
0
  6
CONTINUOUS
 10
148.647903
 20
547.369446
 11
148.647903
 21
441.369415
  0
ARC
  8
0
  6
CONTINUOUS
 10
198.147903
 20
563.369446
 40
2.000000
 50
90.000000
 51
180.000000
  0
ARC
  8
0
  6
CONTINUOUS
 10
198.147903
 20
425.369415
 40
2.000000
 50
180.000000
 51
270.000000
  0
ARC
  8
0
  6
CONTINUOUS
 10
195.362976
 20
494.369415
 40
20.000000
 50
141.561295
 51
180.000000
  0
LINE
  8
0
  6
CONTINUOUS
 10
196.147903
 20
527.529419
 11
179.697495
 21
506.802979
  0
ARC
  8
0
  6
CONTINUOUS
 10
195.362976
 20
494.369415
 40
20.000000
 50
-180.000000
 51
-141.561295
  0
LINE
  8
0
  6
CONTINUOUS
 10
196.147903
 20
461.209442
 11
179.697495
 21
481.935883
  0
LINE
  8
0
  6
CONTINUOUS
 10
18.647383
 20
441.369415
 11
18.647383
 21
469.369415
  0
LINE
  8
0
  6
CONTINUOUS
 10
18.647383
 20
547.369446
 11
148.647385
 21
547.369446
  0
LINE
  8
0
  6
CONTINUOUS
 10
18.647383
 20
441.369415
 11
148.647385
 21
441.369415
  0
LINE
  8
0
  6
CONTINUOUS
 10
18.647383
 20
525.869385
 11
138.647385
 21
525.869385
  0
LINE
  8
0
  6
CONTINUOUS
 10
18.647383
 20
462.869415
 11
138.647385
 21
462.869415
  0
LINE
  8
0
  6
CONTINUOUS
 10
138.647385
 20
545.369446
 11
138.647385
 21
525.869385
  0
ARC
  8
0
  6
CONTINUOUS
 10
140.647385
 20
545.369446
 40
2.000000
 50
90.000000
 51
180.000000
  0
ARC
  8
0
  6
CONTINUOUS
 10
140.647385
 20
443.369415
 40
2.000000
 50
180.000000
 51
270.000000
  0
LINE
  8
0
  6
CONTINUOUS
 10
-1.852618
 20
494.369415
 11
-1.852618
 21
539.369446
  0
LINE
  8
0
  6
CONTINUOUS
 10
-1.852618
 20
494.369415
 11
-1.852618
 21
449.369415
  0
LINE
  8
0
  6
CONTINUOUS
 10
-1.352618
 20
543.369446
 11
-1.352618
 21
449.369415
  0
LINE
  8
0
  6
CONTINUOUS
 10
3.737561
 20
547.369446
 11
18.647383
 21
547.369446
  0
LINE
  8
0
  6
CONTINUOUS
 10
3.737561
 20
441.369415
 11
18.647383
 21
441.369415
  0
LINE
  8
0
  6
CONTINUOUS
 10
-1.352618
 20
449.369415
 11
-1.352618
 21
445.369415
  0
LINE
  8
0
  6
CONTINUOUS
 10
-0.734576
 20
544.605469
 11
-1.352618
 21
543.369446
  0
ARC
  8
0
  6
CONTINUOUS
 10
3.737561
 20
542.369446
 40
5.000000
 50
90.000000
 51
153.435196
  0
LINE
  8
0
  6
CONTINUOUS
 10
-0.734576
 20
444.133362
 11
-1.352618
 21
445.369415
  0
ARC
  8
0
  6
CONTINUOUS
 10
3.737561
 20
446.369415
 40
5.000000
 50
206.565002
 51
270.000000
  0
LINE
  8
0
  6
CONTINUOUS
 10
-1.852618
 20
449.369415
 11
-1.352618
 21
448.869415
  0
LINE
  8
0
  6
CONTINUOUS
 10
-1.852618
 20
539.369446
 11
-1.352618
 21
539.869446
  0
LINE
  8
0
  6
CONTINUOUS
 10
18.647383
 20
525.869446
 11
0.522382
 21
525.869446
  0
LINE
  8
0
  6
CONTINUOUS
 10
18.647383
 20
462.869415
 11
0.522382
 21
462.869415
  0
LINE
  8
0
  6
CONTINUOUS
 10
18.647383
 20
519.369385
 11
18.647383
 21
547.369446
  0
LINE
  8
0
  6
CONTINUOUS
 10
9.647382
 20
471.369415
 11
9.647382
 21
517.369385
  0
LINE
  8
0
  6
CONTINUOUS
 10
11.647382
 20
519.369385
 11
9.647382
 21
517.369385
  0
LINE
  8
0
  6
CONTINUOUS
 10
11.647382
 20
519.369385
 11
57.647373
 21
519.369385
  0
LINE
  8
0
  6
CONTINUOUS
 10
52.147381
 20
514.869385
 11
52.147381
 21
519.369385
  0
ARC
  8
0
  6
CONTINUOUS
 10
55.147381
 20
514.869385
 40
3.000000
 50
180.000000
 51
270.000000
  0
LINE
  8
0
  6
CONTINUOUS
 10
55.147381
 20
511.869415
 11
59.647373
 21
511.869415
  0
CIRCLE
  8
0
  6
CONTINUOUS
 10
56.147381
 20
515.869385
 40
2.250000
  0
LINE
  8
0
  6
CONTINUOUS
 10
59.647377
 20
471.369415
 11
59.647373
 21
517.369385
  0
LINE
  8
0
  6
CONTINUOUS
 10
57.647373
 20
519.369385
 11
59.647373
 21
517.369385
  0
LINE
  8
0
  6
CONTINUOUS
 10
57.647377
 20
469.369415
 11
59.647377
 21
471.369415
  0
LINE
  8
0
  6
CONTINUOUS
 10
57.647377
 20
469.369415
 11
11.647382
 21
469.369415
  0
LINE
  8
0
  6
CONTINUOUS
 10
9.647382
 20
471.369415
 11
11.647382
 21
469.369415
  0
LINE
  8
0
  6
CONTINUOUS
 10
14.147382
 20
476.869415
 11
9.647392
 21
476.869415
  0
CIRCLE
  8
0
  6
CONTINUOUS
 10
13.147382
 20
472.869415
 40
2.250000
  0
ARC
  8
0
  6
CONTINUOUS
 10
14.147382
 20
473.869415
 40
3.000000
 50
0.000000
 51
90.000000
  0
LINE
  8
0
  6
CONTINUOUS
 10
17.147383
 20
473.869415
 11
17.147383
 21
469.369415
  0
LINE
  8
0
  6
CENTER
 10
34.647381
 20
461.903625
 11
34.647381
 21
526.035645
  0
LINE
  8
0
  6
CONTINUOUS
 10
10.647388
 20
476.869415
 11
10.647388
 21
511.869415
  0
LINE
  8
0
  6
CONTINUOUS
 10
52.147381
 20
518.369446
 11
17.147402
 21
518.369446
  0
LINE
  8
0
  6
CONTINUOUS
 10
58.647377
 20
511.869415
 11
58.647377
 21
476.869415
  0
LINE
  8
0
  6
CONTINUOUS
 10
17.147383
 20
470.369415
 11
52.147404
 21
470.369415
  0
ARC
  8
0
  6
CONTINUOUS
 10
14.147402
 20
514.869446
 40
3.000000
 50
-90.000000
 51
0.000000
  0
LINE
  8
0
  6
CONTINUOUS
 10
17.147402
 20
514.869446
 11
17.147402
 21
519.369446
  0
CIRCLE
  8
0
  6
CONTINUOUS
 10
13.147402
 20
515.869446
 40
2.250000
  0
LINE
  8
0
  6
CONTINUOUS
 10
14.147402
 20
511.869415
 11
9.647402
 21
511.869415
  0
CIRCLE
  8
0
  6
CONTINUOUS
 10
56.147404
 20
472.869415
 40
2.250000
  0
LINE
  8
0
  6
CONTINUOUS
 10
52.147404
 20
473.869415
 11
52.147404
 21
469.369446
  0
ARC
  8
0
  6
CONTINUOUS
 10
55.147404
 20
473.869415
 40
3.000000
 50
90.000000
 51
180.000000
  0
LINE
  8
0
  6
CONTINUOUS
 10
55.147404
 20
476.869415
 11
59.647404
 21
476.869415
  0
LINE
  8
0
  6
CONTINUOUS
 10
11.147382
 20
155.684998
 11
57.647381
 21
155.684998
  0
LINE
  8
0
  6
CONTINUOUS
 10
59.647362
 20
199.684998
 11
59.647381
 21
157.684998
  0
LINE
  8
0
  6
CONTINUOUS
 10
9.647382
 20
199.684998
 11
9.647382
 21
157.684998
  0
LINE
  8
0
  6
CONTINUOUS
 10
9.647382
 20
167.684998
 11
59.647381
 21
167.684998
  0
LINE
  8
0
  6
CONTINUOUS
 10
57.647381
 20
155.684998
 11
59.647381
 21
157.684998
  0
LINE
  8
0
  6
CONTINUOUS
 10
9.647382
 20
157.684998
 11
11.647382
 21
155.684998
  0
LINE
  8
0
  6
CONTINUOUS
 10
9.647382
 20
157.684998
 11
59.647381
 21
157.684998
  0
LINE
  8
0
  6
CONTINUOUS
 10
9.647382
 20
168.684998
 11
59.647373
 21
168.684998
  0
LINE
  8
0
  6
CONTINUOUS
 10
10.647382
 20
200.684998
 11
58.647362
 21
200.684998
  0
LINE
  8
0
  6
CONTINUOUS
 10
58.647362
 20
200.684998
 11
59.647362
 21
199.684998
  0
LINE
  8
0
  6
CONTINUOUS
 10
10.647382
 20
200.684998
 11
9.647382
 21
199.684998
  0
LINE
  8
0
  6
CONTINUOUS
 10
9.647382
 20
199.684998
 11
59.647362
 21
199.684998
  0
LINE
  8
0
  6
CENTER
 10
7.272382
 20
183.684998
 11
11.897382
 21
183.684998
  0
LINE
  8
0
  6
CONTINUOUS
 10
11.147382
 20
155.684998
 11
11.147382
 21
154.184998
  0
LINE
  8
0
  6
CONTINUOUS
 10
57.147381
 20
155.684998
 11
57.147381
 21
154.184998
  0
LINE
  8
0
  6
CONTINUOUS
 10
8.772382
 20
194.184998
 11
10.772382
 21
194.184998
  0
LINE
  8
0
  6
CONTINUOUS
 10
8.772382
 20
173.184998
 11
10.772382
 21
173.184998
  0
LINE
  8
0
  6
CENTER
 10
34.647381
 20
146.269379
 11
34.647381
 21
207.604370
  0
LINE
  8
0
  6
CONTINUOUS
 10
138.647385
 20
462.869415
 11
138.647385
 21
443.369415
  0
TEXT
  8
0
 10
-23.000000
 20
-11.000000
 40
4.000000
 41
1.000000
  1
HLM-40T-1200~1800-T90K
 50
0.000000
  0
ENDSEC
  0
EOF
