  0
SECTION
  2
HEADER
  9
$CLAYER
  8
1
  9
$LTSCALE
 40
3.0
  0
ENDSEC
  0
SECTION
  2
TABLES
  0
TABLE
  2
LTYPE
 70
     4
  0
LTYPE
  2
CONTINUOUS
  3
solid line
 70
    64
 72
    65
 73
     0
 40
0.0
  0
LTYPE
  2
DASHED
  3
__ __ __ __ __ __ __ __ __ __ __ __ __ __ __
 70
    64
 72
    65
 73
     2
 40
0.75
 49
0.5
 49
-0.25
  0
LTYPE
  2
CENTER
  3
____ _ ____ _ ____ _ ____ _ ____ _ ____ _ ____
 70
    64
 72
    65
 73
     4
 40
2.0
 49
1.25
 49
-0.25
 49
0.25
 49
-0.25
  0
LTYPE
  2
PHANTOM
  3
_____ _ _ _____ _ _ _____ _ _ _____ _ _ ____
 70
    64
 72
    65
 73
     6
 40
2.5
 49
1.25
 49
-0.25
 49
0.25
 49
-0.25
 49
0.25
 49
-0.25
  0
ENDTAB
  0
TABLE
  2
LAYER
 70
     1
  0
LAYER
  2
0
 70
    64
 62
     7
  6
CONTINUOUS
  0
ENDTAB
  0
TABLE
  2
STYLE
 70
     1
  0
STYLE
  2
STANDARD
 70
     0
 40
0.000000
 41
1.000000
 50
0.000000
 71
     0
 42
3.000000
  3
txt
  4
BIGFONT
  0
ENDTAB
  0
ENDSEC
  0
SECTION
  2
BLOCKS
  0
ENDSEC
  0
SECTION
  2
ENTITIES
  0
LINE
  8
0
  6
CONTINUOUS
 10
200.314880
 20
46.195000
 11
200.314880
 21
188.195007
  0
LINE
  8
0
  6
CENTER
 10
100.190002
 20
117.195000
 11
246.350006
 21
117.195000
  0
LINE
  8
0
  6
CENTER
 10
303.314880
 20
260.549988
 11
303.314880
 21
-8.445000
  0
LINE
  8
0
  6
CENTER
 10
228.622498
 20
170.695007
 11
378.327515
 21
170.695007
  0
LINE
  8
0
  6
CONTINUOUS
 10
213.314880
 20
5.695000
 11
393.314880
 21
5.695000
  0
LINE
  8
0
  6
CONTINUOUS
 10
213.314880
 20
25.695000
 11
393.314880
 21
25.695000
  0
LINE
  8
0
  6
CONTINUOUS
 10
271.500488
 20
248.195007
 11
335.129272
 21
248.195007
  0
LINE
  8
0
  6
CONTINUOUS
 10
393.314880
 20
204.026993
 11
393.314880
 21
5.695000
  0
LINE
  8
0
  6
CONTINUOUS
 10
213.314880
 20
204.026993
 11
213.314880
 21
5.695000
  0
LINE
  8
0
  6
CONTINUOUS
 10
200.314880
 20
188.195007
 11
208.314880
 21
188.195007
  0
LINE
  8
0
  6
CONTINUOUS
 10
200.314880
 20
46.195000
 11
208.314880
 21
46.195000
  0
LINE
  8
0
  6
CONTINUOUS
 10
340.913483
 20
246.352341
 11
389.099274
 21
212.184326
  0
LINE
  8
0
  6
CONTINUOUS
 10
217.530685
 20
212.184326
 11
265.716278
 21
246.352341
  0
ARC
  8
0
  6
CONTINUOUS
 10
383.314880
 20
204.026962
 40
10.000000
 50
0.000000
 51
54.660099
  0
ARC
  8
0
  6
CONTINUOUS
 10
335.129272
 20
238.195007
 40
10.000000
 50
54.659950
 51
90.000000
  0
ARC
  8
0
  6
CONTINUOUS
 10
271.500488
 20
238.195007
 40
10.000000
 50
90.000000
 51
125.340302
  0
ARC
  8
0
  6
CONTINUOUS
 10
223.314880
 20
204.027039
 40
10.000000
 50
125.340500
 51
180.000000
  0
ARC
  8
0
  6
CONTINUOUS
 10
208.314880
 20
193.195007
 40
5.000000
 50
-90.000000
 51
0.000000
  0
ARC
  8
0
  6
CONTINUOUS
 10
208.314880
 20
41.194981
 40
5.000000
 50
0.000000
 51
90.000000
  0
LINE
  8
0
  6
CENTER
 10
363.314880
 20
31.450001
 11
363.314880
 21
-2.520000
  0
LINE
  8
0
  6
CENTER
 10
243.314880
 20
32.634998
 11
243.314880
 21
-2.125000
  0
LINE
  8
0
  6
DASHED
 10
355.814880
 20
25.695000
 11
355.814880
 21
5.695000
  0
LINE
  8
0
  6
DASHED
 10
370.814880
 20
25.695000
 11
370.814880
 21
5.695000
  0
LINE
  8
0
  6
DASHED
 10
250.814880
 20
25.695000
 11
250.814880
 21
5.695000
  0
LINE
  8
0
  6
DASHED
 10
235.814880
 20
25.695000
 11
235.814880
 21
5.695000
  0
LINE
  8
0
  6
CONTINUOUS
 10
379.314880
 20
23.009680
 11
379.314880
 21
5.695000
  0
LINE
  8
0
  6
CONTINUOUS
 10
227.314880
 20
23.009680
 11
227.314880
 21
5.695000
  0
LINE
  8
0
  6
CONTINUOUS
 10
337.072296
 20
30.695000
 11
269.557495
 21
30.695000
  0
LINE
  8
0
  6
CONTINUOUS
 10
268.314880
 20
29.558121
 11
268.314880
 21
26.695000
  0
LINE
  8
0
  6
CONTINUOUS
 10
338.314880
 20
29.558121
 11
338.314880
 21
26.695000
  0
LINE
  8
0
  6
CONTINUOUS
 10
339.193481
 20
29.816320
 11
341.850494
 21
27.159439
  0
LINE
  8
0
  6
CONTINUOUS
 10
267.436279
 20
29.816320
 11
264.779297
 21
27.159500
  0
ARC
  8
0
  6
CONTINUOUS
 10
261.243896
 20
30.695000
 40
5.000000
 50
270.000000
 51
315.000092
  0
ARC
  8
0
  6
CONTINUOUS
 10
345.385895
 20
30.695000
 40
5.000000
 50
225.000107
 51
270.000000
  0
ARC
  8
0
  6
CONTINUOUS
 10
269.557495
 20
27.695000
 40
3.000000
 50
90.000000
 51
135.000397
  0
ARC
  8
0
  6
CONTINUOUS
 10
337.072296
 20
27.695000
 40
3.000000
 50
45.000259
 51
90.000000
  0
ARC
  8
0
  6
CONTINUOUS
 10
267.314880
 20
26.695000
 40
1.000000
 50
-90.000000
 51
0.000000
  0
ARC
  8
0
  6
CONTINUOUS
 10
339.314880
 20
26.695000
 40
1.000000
 50
180.000000
 51
270.000000
  0
CIRCLE
  8
0
  6
CONTINUOUS
 10
303.314880
 20
170.695007
 40
46.000000
  0
ARC
  8
0
  6
CONTINUOUS
 10
303.314880
 20
170.695007
 40
52.000000
 50
12.522720
 51
167.477402
  0
ARC
  8
0
  6
CONTINUOUS
 10
303.314880
 20
170.695007
 40
48.000000
 50
-192.522598
 51
12.522720
  0
ARC
  8
0
  6
CONTINUOUS
 10
273.314880
 20
100.195000
 40
34.000000
 50
167.477402
 51
270.000000
  0
ARC
  8
0
  6
CONTINUOUS
 10
273.314880
 20
100.195000
 40
38.000000
 50
167.477402
 51
270.000000
  0
ARC
  8
0
  6
CONTINUOUS
 10
333.314880
 20
100.195000
 40
34.000000
 50
-90.000000
 51
12.522730
  0
ARC
  8
0
  6
CONTINUOUS
 10
333.314880
 20
100.195000
 40
38.000000
 50
-90.000000
 51
12.522720
  0
LINE
  8
0
  6
CONTINUOUS
 10
236.218887
 20
108.434364
 11
252.551880
 21
181.969894
  0
LINE
  8
0
  6
CONTINUOUS
 10
354.077881
 20
181.970001
 11
370.410889
 21
108.434425
  0
LINE
  8
0
  6
CONTINUOUS
 10
350.172882
 20
181.102676
 11
366.506073
 21
107.567116
  0
LINE
  8
0
  6
CONTINUOUS
 10
240.123688
 20
107.567062
 11
256.456879
 21
181.102615
  0
LINE
  8
0
  6
CONTINUOUS
 10
273.314880
 20
66.195000
 11
333.314880
 21
66.195000
  0
LINE
  8
0
  6
CONTINUOUS
 10
273.314880
 20
62.195000
 11
333.314880
 21
62.195000
  0
LINE
  8
0
  6
CONTINUOUS
 10
291.087891
 20
84.195000
 11
286.147491
 21
84.195000
  0
LINE
  8
0
  6
CONTINUOUS
 10
293.814880
 20
92.470398
 11
293.814880
 21
84.195000
  0
LINE
  8
0
  6
CONTINUOUS
 10
298.564880
 20
95.476242
 11
298.564880
 21
98.445000
  0
LINE
  8
0
  6
CONTINUOUS
 10
308.064880
 20
95.476242
 11
308.064880
 21
98.445000
  0
LINE
  8
0
  6
CONTINUOUS
 10
302.387085
 20
96.700859
 11
302.387085
 21
85.753601
  0
LINE
  8
0
  6
CONTINUOUS
 10
304.168488
 20
96.700859
 11
304.168488
 21
85.753601
  0
LINE
  8
0
  6
CONTINUOUS
 10
313.520081
 20
96.700859
 11
313.520081
 21
85.679382
  0
LINE
  8
0
  6
CONTINUOUS
 10
315.152893
 20
90.856140
 11
315.152893
 21
85.679382
  0
LINE
  8
0
  6
CONTINUOUS
 10
291.560883
 20
96.552422
 11
286.983276
 21
96.552422
  0
LINE
  8
0
  6
CONTINUOUS
 10
286.983276
 20
96.552422
 11
285.910675
 21
95.222420
  0
LINE
  8
0
  6
CONTINUOUS
 10
286.039673
 20
98.445000
 11
284.314880
 21
96.236542
  0
LINE
  8
0
  6
CONTINUOUS
 10
285.910675
 20
87.012840
 11
287.000488
 21
85.864922
  0
LINE
  8
0
  6
CONTINUOUS
 10
284.314880
 20
86.044121
 11
286.147491
 21
84.195000
  0
LINE
  8
0
  6
CONTINUOUS
 10
284.314880
 20
96.236542
 11
284.314880
 21
86.044121
  0
LINE
  8
0
  6
CONTINUOUS
 10
285.910675
 20
95.222420
 11
285.910675
 21
87.012840
  0
LINE
  8
0
  6
CONTINUOUS
 10
292.441895
 20
95.700859
 11
291.542877
 21
96.552422
  0
LINE
  8
0
  6
CONTINUOUS
 10
292.427490
 20
98.445000
 11
293.814880
 21
96.905418
  0
LINE
  8
0
  6
CONTINUOUS
 10
292.441895
 20
95.476242
 11
293.814880
 21
95.476242
  0
LINE
  8
0
  6
CONTINUOUS
 10
286.039673
 20
98.445000
 11
292.427490
 21
98.445000
  0
LINE
  8
0
  6
CONTINUOUS
 10
289.955475
 20
92.470398
 11
293.814880
 21
92.470398
  0
LINE
  8
0
  6
CONTINUOUS
 10
292.441895
 20
90.911797
 11
289.955475
 21
90.911797
  0
LINE
  8
0
  6
CONTINUOUS
 10
289.473083
 20
85.864922
 11
287.000488
 21
85.864922
  0
LINE
  8
0
  6
CONTINUOUS
 10
292.441895
 20
89.427422
 11
292.441895
 21
90.614922
  0
ARC
  8
0
  6
CONTINUOUS
 10
289.473083
 20
88.833656
 40
2.968750
 50
-89.999786
 51
0.000109
  0
LINE
  8
0
  6
CONTINUOUS
 10
292.441895
 20
85.330917
 11
292.441895
 21
84.195000
  0
LINE
  8
0
  6
CONTINUOUS
 10
293.814880
 20
96.905418
 11
293.814880
 21
95.476242
  0
LINE
  8
0
  6
CONTINUOUS
 10
292.441895
 20
90.911797
 11
292.441895
 21
88.833656
  0
LINE
  8
0
  6
CONTINUOUS
 10
289.955475
 20
92.470398
 11
289.955475
 21
90.911797
  0
LINE
  8
0
  6
CONTINUOUS
 10
292.441895
 20
84.195000
 11
293.814880
 21
84.195000
  0
LINE
  8
0
  6
CONTINUOUS
 10
292.441895
 20
85.330917
 11
291.087891
 21
84.195000
  0
LINE
  8
0
  6
CONTINUOUS
 10
304.168488
 20
85.753601
 11
304.762085
 21
85.753601
  0
LINE
  8
0
  6
CONTINUOUS
 10
301.682068
 20
85.753601
 11
301.682068
 21
84.195000
  0
LINE
  8
0
  6
CONTINUOUS
 10
304.762085
 20
85.753601
 11
304.762085
 21
84.195000
  0
LINE
  8
0
  6
CONTINUOUS
 10
307.073883
 20
95.476242
 11
308.064880
 21
95.476242
  0
LINE
  8
0
  6
CONTINUOUS
 10
298.564880
 20
95.476242
 11
299.619476
 21
95.476242
  0
LINE
  8
0
  6
CONTINUOUS
 10
298.564880
 20
98.445000
 11
308.064880
 21
98.445000
  0
LINE
  8
0
  6
CONTINUOUS
 10
301.682068
 20
84.195000
 11
304.762085
 21
84.195000
  0
LINE
  8
0
  6
CONTINUOUS
 10
301.682068
 20
85.753601
 11
302.387085
 21
85.753601
  0
ARC
  8
0
  6
CONTINUOUS
 10
318.511078
 20
94.641281
 40
3.803712
 50
-73.981873
 51
90.003510
  0
ARC
  8
0
  6
CONTINUOUS
 10
318.511078
 20
94.641281
 40
2.320524
 50
-82.585274
 51
62.411850
  0
LINE
  8
0
  6
CONTINUOUS
 10
312.814880
 20
98.445000
 11
318.511078
 21
98.445000
  0
LINE
  8
0
  6
CONTINUOUS
 10
318.810669
 20
92.340157
 11
315.152893
 21
92.340157
  0
LINE
  8
0
  6
CONTINUOUS
 10
312.814880
 20
98.445000
 11
312.814880
 21
96.700859
  0
LINE
  8
0
  6
CONTINUOUS
 10
315.152893
 20
96.700859
 11
315.152893
 21
92.340157
  0
LINE
  8
0
  6
CONTINUOUS
 10
319.560669
 20
90.985260
 11
321.915070
 21
85.679382
  0
LINE
  8
0
  6
CONTINUOUS
 10
318.193481
 20
90.856140
 11
320.421295
 21
85.679382
  0
LINE
  8
0
  6
CONTINUOUS
 10
312.814880
 20
85.679382
 11
313.520081
 21
85.679382
  0
LINE
  8
0
  6
CONTINUOUS
 10
315.152893
 20
85.679382
 11
315.802277
 21
85.679382
  0
LINE
  8
0
  6
CONTINUOUS
 10
315.802277
 20
84.195000
 11
312.814880
 21
84.195000
  0
LINE
  8
0
  6
CONTINUOUS
 10
320.125488
 20
85.679382
 11
320.421295
 21
85.679382
  0
LINE
  8
0
  6
CONTINUOUS
 10
321.915070
 20
85.679382
 11
322.314880
 21
85.679382
  0
LINE
  8
0
  6
CONTINUOUS
 10
320.125488
 20
84.195000
 11
322.314880
 21
84.195000
  0
LINE
  8
0
  6
CONTINUOUS
 10
322.314880
 20
85.679382
 11
322.314880
 21
84.195000
  0
LINE
  8
0
  6
CONTINUOUS
 10
320.125488
 20
85.679382
 11
320.125488
 21
84.195000
  0
LINE
  8
0
  6
CONTINUOUS
 10
315.802277
 20
85.679382
 11
315.802277
 21
84.195000
  0
LINE
  8
0
  6
CONTINUOUS
 10
312.814880
 20
85.679382
 11
312.814880
 21
84.195000
  0
LINE
  8
0
  6
CONTINUOUS
 10
300.129669
 20
96.700859
 11
299.619476
 21
95.476242
  0
LINE
  8
0
  6
CONTINUOUS
 10
306.643677
 20
96.700859
 11
307.073883
 21
95.476242
  0
LINE
  8
0
  6
CONTINUOUS
 10
304.168488
 20
96.700859
 11
306.643677
 21
96.700859
  0
LINE
  8
0
  6
CONTINUOUS
 10
302.387085
 20
96.700859
 11
300.129669
 21
96.700859
  0
LINE
  8
0
  6
CONTINUOUS
 10
315.152893
 20
90.856140
 11
318.193481
 21
90.856140
  0
LINE
  8
0
  6
CONTINUOUS
 10
312.814880
 20
96.700859
 11
313.520081
 21
96.700859
  0
LINE
  8
0
  6
CONTINUOUS
 10
315.152893
 20
96.700859
 11
319.585876
 21
96.697983
  0
LINE
  8
0
  6
CONTINUOUS
 10
292.441895
 20
95.700859
 11
292.441895
 21
95.476242
  0
ARC
  8
0
  6
CONTINUOUS
 10
422.996490
 20
117.195000
 40
215.181595
 50
167.017899
 51
192.982101
  0
LINE
  8
0
  6
CONTINUOUS
 10
13.814882
 20
49.195000
 11
13.814882
 21
155.195007
  0
LINE
  8
0
  6
CONTINUOUS
 10
13.814882
 20
155.195007
 11
143.814880
 21
155.195007
  0
LINE
  8
0
  6
CONTINUOUS
 10
13.814882
 20
49.195000
 11
143.814880
 21
49.195000
  0
LINE
  8
0
  6
CONTINUOUS
 10
13.814882
 20
144.818344
 11
132.476639
 21
144.818344
  0
LINE
  8
0
  6
CONTINUOUS
 10
13.814882
 20
59.571640
 11
132.476639
 21
59.571640
  0
LINE
  8
0
  6
CONTINUOUS
 10
133.814880
 20
153.195007
 11
133.814880
 21
51.194981
  0
ARC
  8
0
  6
CONTINUOUS
 10
135.814880
 20
153.195023
 40
2.000000
 50
90.000000
 51
180.000000
  0
ARC
  8
0
  6
CONTINUOUS
 10
135.814880
 20
51.195000
 40
2.000000
 50
180.000000
 51
270.000000
  0
LINE
  8
0
  6
CONTINUOUS
 10
-6.685118
 20
102.195000
 11
-6.685118
 21
147.195007
  0
LINE
  8
0
  6
CONTINUOUS
 10
-6.685118
 20
102.195000
 11
-6.685118
 21
57.195000
  0
LINE
  8
0
  6
CONTINUOUS
 10
-6.185118
 20
151.195007
 11
-6.185118
 21
57.195000
  0
LINE
  8
0
  6
CONTINUOUS
 10
-1.094939
 20
155.195007
 11
13.814882
 21
155.195007
  0
LINE
  8
0
  6
CONTINUOUS
 10
-1.094939
 20
49.195000
 11
13.814882
 21
49.195000
  0
LINE
  8
0
  6
CONTINUOUS
 10
-6.185118
 20
57.195000
 11
-6.185118
 21
53.195000
  0
LINE
  8
0
  6
CONTINUOUS
 10
-5.567076
 20
152.431061
 11
-6.185118
 21
151.195007
  0
ARC
  8
0
  6
CONTINUOUS
 10
-1.094939
 20
150.195023
 40
5.000000
 50
90.000000
 51
153.435196
  0
LINE
  8
0
  6
CONTINUOUS
 10
-5.567076
 20
51.958939
 11
-6.185118
 21
53.195000
  0
ARC
  8
0
  6
CONTINUOUS
 10
-1.094939
 20
54.195000
 40
5.000000
 50
206.565002
 51
270.000000
  0
LINE
  8
0
  6
CONTINUOUS
 10
-6.685118
 20
57.195000
 11
-6.185118
 21
56.695000
  0
LINE
  8
0
  6
CONTINUOUS
 10
-6.685118
 20
147.195007
 11
-6.185118
 21
147.695007
  0
LINE
  8
0
  6
CONTINUOUS
 10
13.814882
 20
144.818359
 11
-4.310118
 21
144.818359
  0
LINE
  8
0
  6
CONTINUOUS
 10
13.814882
 20
59.571640
 11
-4.310118
 21
59.571640
  0
LINE
  8
0
  6
CENTER
 10
649.709106
 20
-10.815000
 11
649.709106
 21
261.339996
  0
LINE
  8
0
  6
CENTER
 10
548.906738
 20
117.195000
 11
745.616699
 21
117.195000
  0
LINE
  8
0
  6
CENTER
 10
493.897491
 20
170.695007
 11
807.145874
 21
170.695007
  0
LINE
  8
0
  6
CENTER
 10
579.709106
 20
37.375000
 11
579.709106
 21
-1.335000
  0
LINE
  8
0
  6
CENTER
 10
719.709106
 20
34.610001
 11
719.709106
 21
-2.125000
  0
LINE
  8
0
  6
DASHED
 10
712.209106
 20
25.695000
 11
712.209106
 21
5.695000
  0
LINE
  8
0
  6
DASHED
 10
727.209106
 20
25.695000
 11
727.209106
 21
5.695000
  0
LINE
  8
0
  6
DASHED
 10
587.209106
 20
25.695000
 11
587.209106
 21
5.695000
  0
LINE
  8
0
  6
DASHED
 10
572.209106
 20
25.695000
 11
572.209106
 21
5.695000
  0
LINE
  8
0
  6
CONTINUOUS
 10
559.709106
 20
5.695000
 11
614.709106
 21
5.695000
  0
LINE
  8
0
  6
CONTINUOUS
 10
684.709106
 20
5.695000
 11
739.709106
 21
5.695000
  0
LINE
  8
0
  6
CONTINUOUS
 10
706.709106
 20
25.695000
 11
736.709106
 21
25.695000
  0
LINE
  8
0
  6
CONTINUOUS
 10
562.709106
 20
25.695000
 11
592.709106
 21
25.695000
  0
LINE
  8
0
  6
CONTINUOUS
 10
559.709106
 20
23.063881
 11
559.709106
 21
5.695020
  0
LINE
  8
0
  6
CONTINUOUS
 10
739.709106
 20
23.063881
 11
739.709106
 21
5.695000
  0
LINE
  8
0
  6
CONTINUOUS
 10
701.709106
 20
227.975098
 11
701.709106
 21
243.356766
  0
LINE
  8
0
  6
CONTINUOUS
 10
597.709106
 20
243.356384
 11
597.709106
 21
5.695000
  0
LINE
  8
0
  6
CONTINUOUS
 10
616.209106
 20
7.195000
 11
683.209106
 21
7.195000
  0
LINE
  8
0
  6
CONTINUOUS
 10
602.153687
 20
209.195007
 11
697.940918
 21
209.195007
  0
LINE
  8
0
  6
CONTINUOUS
 10
697.778870
 20
247.356140
 11
649.709106
 21
248.195023
  0
LINE
  8
0
  6
CONTINUOUS
 10
601.639282
 20
247.355774
 11
649.709106
 21
248.195023
  0
LINE
  8
0
  6
CONTINUOUS
 10
576.709106
 20
129.975113
 11
576.709106
 21
211.414886
  0
LINE
  8
0
  6
CONTINUOUS
 10
722.709106
 20
129.975113
 11
722.709106
 21
211.414886
  0
LINE
  8
0
  6
CONTINUOUS
 10
583.709106
 20
71.475098
 11
583.709106
 21
174.835281
  0
LINE
  8
0
  6
CONTINUOUS
 10
715.709106
 20
71.475121
 11
715.709106
 21
174.835281
  0
ARC
  8
0
  6
CONTINUOUS
 10
601.709106
 20
243.356400
 40
4.000000
 50
91.000580
 51
180.000000
  0
ARC
  8
0
  6
CONTINUOUS
 10
697.709106
 20
243.356735
 40
4.000000
 50
0.000000
 51
89.000359
  0
LINE
  8
0
  6
CONTINUOUS
 10
581.786072
 20
218.145554
 11
592.632080
 21
221.244446
  0
LINE
  8
0
  6
CONTINUOUS
 10
706.786072
 20
221.244446
 11
717.632080
 21
218.145554
  0
LINE
  8
0
  6
CONTINUOUS
 10
588.786072
 20
64.744438
 11
592.632080
 21
63.645561
  0
LINE
  8
0
  6
CONTINUOUS
 10
710.632080
 20
64.744438
 11
706.786072
 21
63.645561
  0
LINE
  8
0
  6
CONTINUOUS
 10
737.100525
 20
26.038240
 11
704.317688
 21
30.351761
  0
LINE
  8
0
  6
CONTINUOUS
 10
562.317688
 20
26.038240
 11
595.100525
 21
30.351780
  0
ARC
  8
0
  6
CONTINUOUS
 10
583.709106
 20
211.414917
 40
7.000000
 50
105.945801
 51
180.000000
  0
ARC
  8
0
  6
CONTINUOUS
 10
583.709106
 20
129.975159
 40
7.000000
 50
180.000000
 51
240.000198
  0
ARC
  8
0
  6
CONTINUOUS
 10
715.709106
 20
211.414856
 40
7.000000
 50
0.000000
 51
74.054764
  0
ARC
  8
0
  6
CONTINUOUS
 10
715.709106
 20
129.975098
 40
7.000000
 50
-59.999882
 51
0.000000
  0
ARC
  8
0
  6
CONTINUOUS
 10
590.709106
 20
71.475159
 40
7.000000
 50
180.000000
 51
254.054901
  0
ARC
  8
0
  6
CONTINUOUS
 10
708.709106
 20
71.475098
 40
7.000000
 50
-74.054497
 51
0.000000
  0
LINE
  8
0
  6
CONTINUOUS
 10
701.709106
 20
30.695000
 11
701.709106
 21
227.975098
  0
ARC
  8
0
  6
CONTINUOUS
 10
708.709106
 20
227.975159
 40
7.000000
 50
180.000000
 51
254.054901
  0
ARC
  8
0
  6
CONTINUOUS
 10
708.709106
 20
56.914940
 40
7.000000
 50
105.945801
 51
180.000000
  0
ARC
  8
0
  6
CONTINUOUS
 10
722.709106
 20
117.850746
 40
7.000000
 50
120.000099
 51
180.000000
  0
ARC
  8
0
  6
CONTINUOUS
 10
704.709106
 20
33.326141
 40
3.000000
 50
180.000000
 51
262.504395
  0
ARC
  8
0
  6
CONTINUOUS
 10
736.709106
 20
22.695000
 40
3.000000
 50
0.000000
 51
90.000000
  0
ARC
  8
0
  6
CONTINUOUS
 10
736.709106
 20
23.063860
 40
3.000000
 50
0.000000
 51
82.504204
  0
LINE
  8
0
  6
CONTINUOUS
 10
701.709106
 20
30.695000
 11
701.709106
 21
5.695000
  0
ARC
  8
0
  6
CONTINUOUS
 10
706.709106
 20
30.695021
 40
5.000000
 50
180.000000
 51
270.000000
  0
ARC
  8
0
  6
CONTINUOUS
 10
594.709106
 20
33.326141
 40
3.000000
 50
-82.503883
 51
0.000000
  0
ARC
  8
0
  6
CONTINUOUS
 10
592.709106
 20
30.695000
 40
5.000000
 50
-90.000000
 51
0.000000
  0
ARC
  8
0
  6
CONTINUOUS
 10
562.709106
 20
22.695021
 40
3.000000
 50
90.000000
 51
180.000000
  0
ARC
  8
0
  6
CONTINUOUS
 10
562.709106
 20
23.063900
 40
3.000000
 50
97.496292
 51
180.000000
  0
LINE
  8
0
  6
CONTINUOUS
 10
614.709106
 20
5.695000
 11
616.209106
 21
7.195000
  0
LINE
  8
0
  6
CONTINUOUS
 10
684.709106
 20
5.695000
 11
683.209106
 21
7.195000
  0
ARC
  8
0
  6
CONTINUOUS
 10
590.709106
 20
56.914860
 40
7.000000
 50
0.000000
 51
74.054688
  0
ARC
  8
0
  6
CONTINUOUS
 10
576.709106
 20
117.850777
 40
7.000000
 50
0.000000
 51
60.000092
  0
ARC
  8
0
  6
CONTINUOUS
 10
590.709106
 20
227.975098
 40
7.000000
 50
-74.054443
 51
0.000000
  0
ARC
  8
0
  6
CONTINUOUS
 10
649.709106
 20
117.195000
 40
71.000000
 50
-21.630920
 51
6.068256
  0
ARC
  8
0
  6
CONTINUOUS
 10
649.709106
 20
117.195000
 40
71.000000
 50
173.931793
 51
201.630905
  0
LINE
  8
0
  6
CONTINUOUS
 10
702.709106
 20
60.520481
 11
702.709106
 21
54.195000
  0
LINE
  8
0
  6
CONTINUOUS
 10
596.709106
 20
54.195000
 11
596.709106
 21
60.383999
  0
ARC
  8
0
  6
CONTINUOUS
 10
697.709106
 20
54.195000
 40
5.000000
 50
-36.869869
 51
0.000000
  0
ARC
  8
0
  6
CONTINUOUS
 10
601.709106
 20
54.195000
 40
5.000000
 50
180.000000
 51
216.865204
  0
LINE
  8
0
  6
CONTINUOUS
 10
318.314880
 20
164.695053
 11
318.314880
 21
176.695053
  0
LINE
  8
0
  6
CONTINUOUS
 10
326.314880
 20
164.695084
 11
326.314880
 21
176.695084
  0
LINE
  8
0
  6
CONTINUOUS
 10
326.314880
 20
164.695084
 11
318.314880
 21
164.695053
  0
LINE
  8
0
  6
CONTINUOUS
 10
326.314880
 20
176.695084
 11
318.314880
 21
176.695053
  0
ARC
  8
0
  6
CONTINUOUS
 10
303.314880
 20
170.695007
 40
20.000000
 50
17.457600
 51
342.542389
  0
LINE
  8
0
  6
CONTINUOUS
 10
509.709106
 20
150.695007
 11
509.709106
 21
190.695007
  0
LINE
  8
0
  6
CONTINUOUS
 10
574.709106
 20
190.695007
 11
509.709106
 21
190.695007
  0
LINE
  8
0
  6
CONTINUOUS
 10
574.709106
 20
150.695007
 11
509.709106
 21
150.695007
  0
LINE
  8
0
  6
CONTINUOUS
 10
574.709106
 20
193.195007
 11
574.709106
 21
148.195007
  0
LINE
  8
0
  6
CONTINUOUS
 10
576.709106
 20
193.195007
 11
574.709106
 21
193.195007
  0
LINE
  8
0
  6
CONTINUOUS
 10
576.709106
 20
148.195007
 11
574.709106
 21
148.195007
  0
ARC
  8
0
  6
CONTINUOUS
 10
563.709106
 20
170.695007
 40
6.000000
 50
-90.000000
 51
90.000000
  0
LINE
  8
0
  6
CONTINUOUS
 10
563.709106
 20
176.695007
 11
509.709106
 21
176.695007
  0
LINE
  8
0
  6
CONTINUOUS
 10
563.709106
 20
164.695007
 11
509.709106
 21
164.695007
  0
LINE
  8
0
  6
CONTINUOUS
 10
789.709106
 20
150.695007
 11
789.709106
 21
190.695007
  0
LINE
  8
0
  6
CONTINUOUS
 10
724.709106
 20
190.695007
 11
789.709106
 21
190.695007
  0
LINE
  8
0
  6
CONTINUOUS
 10
724.709106
 20
150.695007
 11
789.709106
 21
150.695007
  0
LINE
  8
0
  6
CONTINUOUS
 10
724.709106
 20
193.195007
 11
724.709106
 21
148.195007
  0
LINE
  8
0
  6
CONTINUOUS
 10
722.709106
 20
193.195007
 11
724.709106
 21
193.195007
  0
LINE
  8
0
  6
CONTINUOUS
 10
722.709106
 20
148.195007
 11
724.709106
 21
148.195007
  0
ARC
  8
0
  6
CONTINUOUS
 10
735.709106
 20
170.695007
 40
6.000000
 50
90.000000
 51
270.000000
  0
LINE
  8
0
  6
CONTINUOUS
 10
735.709106
 20
176.695007
 11
789.709106
 21
176.695007
  0
LINE
  8
0
  6
CONTINUOUS
 10
735.709106
 20
164.695007
 11
789.709106
 21
164.695007
  0
LINE
  8
0
  6
CONTINUOUS
 10
191.314880
 20
71.950996
 11
191.314880
 21
186.195007
  0
LINE
  8
0
  6
CENTER
 10
-25.114649
 20
102.195000
 11
246.804886
 21
102.195000
  0
LINE
  8
0
  6
CONTINUOUS
 10
193.314880
 20
188.195007
 11
200.314880
 21
188.195007
  0
LINE
  8
0
  6
CONTINUOUS
 10
193.314880
 20
46.195019
 11
200.314880
 21
46.195019
  0
LINE
  8
0
  6
CONTINUOUS
 10
172.314880
 20
49.195000
 11
143.814880
 21
49.195000
  0
LINE
  8
0
  6
CONTINUOUS
 10
143.814880
 20
155.195007
 11
188.314865
 21
155.195007
  0
LINE
  8
0
  6
CONTINUOUS
 10
189.814880
 20
166.328979
 11
171.226624
 21
155.596924
  0
ARC
  8
0
  6
CONTINUOUS
 10
193.314896
 20
186.195007
 40
2.000000
 50
90.000000
 51
180.000000
  0
ARC
  8
0
  6
CONTINUOUS
 10
193.314880
 20
48.195000
 40
2.000000
 50
194.477707
 51
270.000000
  0
LINE
  8
0
  6
CONTINUOUS
 10
172.314880
 20
51.195000
 11
172.314880
 21
67.950996
  0
LINE
  8
0
  6
CONTINUOUS
 10
189.314880
 20
69.950996
 11
174.314880
 21
69.950996
  0
ARC
  8
0
  6
CONTINUOUS
 10
174.314880
 20
67.951019
 40
2.000000
 50
90.000000
 51
180.000000
  0
ARC
  8
0
  6
CONTINUOUS
 10
189.441895
 20
47.195000
 40
2.000000
 50
14.477280
 51
90.000000
  0
ARC
  8
0
  6
CONTINUOUS
 10
189.314880
 20
71.950996
 40
2.000000
 50
-90.000000
 51
0.000000
  0
LINE
  8
0
  6
CONTINUOUS
 10
172.314880
 20
49.195000
 11
189.441895
 21
49.195000
  0
ARC
  8
0
  6
CONTINUOUS
 10
170.314880
 20
51.195000
 40
2.000000
 50
-90.000000
 51
0.000000
  0
ARC
  8
0
  6
CONTINUOUS
 10
188.314880
 20
158.195007
 40
3.000000
 50
-90.000000
 51
0.000000
  0
ARC
  8
0
  6
CONTINUOUS
 10
188.314880
 20
168.927032
 40
3.000000
 50
-59.999660
 51
0.000000
  0
ARC
  8
0
  6
CONTINUOUS
 10
169.726608
 20
158.195007
 40
3.000000
 50
270.000000
 51
300.000305
  0
LINE
  8
0
  6
CONTINUOUS
 10
143.814880
 20
155.195007
 11
143.814880
 21
49.195000
  0
LINE
  8
0
  6
CONTINUOUS
 10
372.183990
 20
585.379211
 11
326.314880
 21
585.379272
  0
LINE
  8
0
  6
CONTINUOUS
 10
372.183411
 20
405.379181
 11
326.314880
 21
405.379242
  0
LINE
  8
0
  6
CENTER
 10
303.314880
 20
340.990356
 11
303.315521
 21
660.457214
  0
LINE
  8
0
  6
CENTER
 10
378.168701
 20
565.380005
 11
349.800659
 21
565.380005
  0
LINE
  8
0
  6
CONTINUOUS
 10
393.315186
 20
495.379242
 11
392.407196
 21
443.379211
  0
LINE
  8
0
  6
CONTINUOUS
 10
381.638000
 20
412.121765
 11
392.407196
 21
443.379211
  0
ARC
  8
0
  6
CONTINUOUS
 10
372.183594
 20
415.379242
 40
10.000000
 50
-90.000000
 51
-19.010900
  0
ARC
  8
0
  6
CONTINUOUS
 10
363.315186
 20
565.380005
 40
7.500000
 50
-46.074883
 51
212.226791
  0
LINE
  8
0
  6
CONTINUOUS
 10
393.315186
 20
495.379242
 11
392.407410
 21
547.379211
  0
LINE
  8
0
  6
CONTINUOUS
 10
381.638397
 20
578.636597
 11
392.407410
 21
547.379211
  0
ARC
  8
0
  6
CONTINUOUS
 10
372.183990
 20
575.379211
 40
10.000000
 50
19.010900
 51
90.000000
  0
LINE
  8
0
  6
CONTINUOUS
 10
213.315201
 20
495.379425
 11
214.222992
 21
443.379486
  0
LINE
  8
0
  6
CONTINUOUS
 10
224.991989
 20
412.122040
 11
214.222992
 21
443.379486
  0
ARC
  8
0
  6
CONTINUOUS
 10
234.446594
 20
415.379456
 40
10.000000
 50
199.010895
 51
270.000000
  0
LINE
  8
0
  6
CONTINUOUS
 10
213.315201
 20
495.379425
 11
214.171722
 21
544.432007
  0
LINE
  8
0
  6
CONTINUOUS
 10
224.992401
 20
578.636780
 11
214.570023
 21
548.386047
  0
LINE
  8
0
  6
CONTINUOUS
 10
202.352997
 20
566.379395
 11
200.315399
 21
566.379395
  0
LINE
  8
0
  6
CONTINUOUS
 10
200.315399
 20
566.379395
 11
200.314987
 21
424.379486
  0
LINE
  8
0
  6
CONTINUOUS
 10
211.425003
 20
552.567566
 11
209.114395
 21
561.191162
  0
ARC
  8
0
  6
CONTINUOUS
 10
202.352997
 20
559.379395
 40
7.000000
 50
14.999900
 51
90.000000
  0
ARC
  8
0
  6
CONTINUOUS
 10
218.186600
 20
554.379395
 40
7.000000
 50
-165.000305
 51
-90.000000
  0
LINE
  8
0
  6
CONTINUOUS
 10
202.352600
 20
424.379486
 11
200.314987
 21
424.379486
  0
LINE
  8
0
  6
CONTINUOUS
 10
211.424789
 20
438.191315
 11
209.114197
 21
429.567719
  0
ARC
  8
0
  6
CONTINUOUS
 10
202.352600
 20
431.379517
 40
7.000000
 50
-90.000000
 51
-14.999900
  0
ARC
  8
0
  6
CONTINUOUS
 10
218.186401
 20
436.379486
 40
7.000000
 50
121.109207
 51
165.000336
  0
ARC
  8
0
  6
CONTINUOUS
 10
234.446594
 20
575.379822
 40
10.000000
 50
90.000000
 51
160.989105
  0
ARC
  8
0
  6
CONTINUOUS
 10
243.315002
 20
565.380676
 40
7.500000
 50
-32.232941
 51
238.076355
  0
LINE
  8
0
  6
CENTER
 10
363.314911
 20
553.578430
 11
363.315399
 21
577.454834
  0
LINE
  8
0
  6
CENTER
 10
256.325592
 20
565.380127
 11
230.747849
 21
565.380127
  0
LINE
  8
0
  6
CENTER
 10
243.315201
 20
553.578430
 11
243.315399
 21
577.455017
  0
LINE
  8
0
  6
CONTINUOUS
 10
389.459290
 20
547.379639
 11
217.171280
 21
547.379639
  0
LINE
  8
0
  6
CONTINUOUS
 10
260.534424
 20
568.379639
 11
346.095337
 21
568.379639
  0
ARC
  8
0
  6
CONTINUOUS
 10
389.459290
 20
544.379639
 40
3.000000
 50
1.000152
 51
90.000000
  0
ARC
  8
0
  6
CONTINUOUS
 10
217.171280
 20
544.379639
 40
3.000000
 50
90.000000
 51
178.999634
  0
LINE
  8
0
  6
CONTINUOUS
 10
389.459290
 20
443.379639
 11
217.171280
 21
443.379639
  0
ARC
  8
0
  6
CONTINUOUS
 10
389.459290
 20
446.379639
 40
3.000000
 50
270.000000
 51
358.999847
  0
ARC
  8
0
  6
CONTINUOUS
 10
217.171280
 20
446.379639
 40
3.000000
 50
181.000366
 51
270.000000
  0
LINE
  8
0
  6
CONTINUOUS
 10
338.315094
 20
448.379639
 11
338.315094
 21
542.379639
  0
LINE
  8
0
  6
CONTINUOUS
 10
268.315094
 20
448.379639
 11
268.315094
 21
542.379639
  0
LINE
  8
0
  6
CONTINUOUS
 10
244.595108
 20
561.379639
 11
251.314880
 21
561.379639
  0
LINE
  8
0
  6
CONTINUOUS
 10
364.315002
 20
561.379639
 11
355.314880
 21
561.379639
  0
ARC
  8
0
  6
CONTINUOUS
 10
364.315002
 20
554.379639
 40
7.000000
 50
0.000000
 51
90.000000
  0
ARC
  8
0
  6
CONTINUOUS
 10
378.315002
 20
554.379639
 40
7.000000
 50
180.000000
 51
270.000000
  0
LINE
  8
0
  6
CENTER
 10
378.168701
 20
425.380096
 11
349.800659
 21
425.380096
  0
ARC
  8
0
  6
CONTINUOUS
 10
363.315186
 20
425.380096
 40
7.500000
 50
-212.226791
 51
46.074883
  0
ARC
  8
0
  6
CONTINUOUS
 10
243.315002
 20
425.379425
 40
7.500000
 50
-226.078156
 51
32.232941
  0
LINE
  8
0
  6
CENTER
 10
363.314911
 20
437.181702
 11
363.315399
 21
413.305298
  0
LINE
  8
0
  6
CENTER
 10
256.325592
 20
425.380005
 11
230.747849
 21
425.380005
  0
LINE
  8
0
  6
CENTER
 10
243.315201
 20
437.181702
 11
243.315399
 21
413.305115
  0
LINE
  8
0
  6
CONTINUOUS
 10
260.534424
 20
422.379639
 11
346.095337
 21
422.379639
  0
LINE
  8
0
  6
CONTINUOUS
 10
242.315002
 20
429.379639
 11
251.314880
 21
429.379578
  0
ARC
  8
0
  6
CONTINUOUS
 10
242.315002
 20
436.379639
 40
7.000000
 50
180.000000
 51
270.000000
  0
ARC
  8
0
  6
CONTINUOUS
 10
228.315002
 20
436.379639
 40
7.000000
 50
0.000000
 51
90.000000
  0
LINE
  8
0
  6
CONTINUOUS
 10
364.315002
 20
429.379639
 11
355.314880
 21
429.379578
  0
ARC
  8
0
  6
CONTINUOUS
 10
364.315002
 20
436.379639
 40
7.000000
 50
-90.000000
 51
0.000000
  0
ARC
  8
0
  6
CONTINUOUS
 10
378.315002
 20
436.379639
 40
7.000000
 50
90.000000
 51
180.000000
  0
LINE
  8
0
  6
CONTINUOUS
 10
237.864441
 20
556.302673
 11
236.765549
 21
552.456604
  0
ARC
  8
0
  6
CONTINUOUS
 10
244.595108
 20
554.379639
 40
7.000000
 50
90.000000
 51
164.054611
  0
ARC
  8
0
  6
CONTINUOUS
 10
230.034882
 20
554.379639
 40
7.000000
 50
-90.000000
 51
-15.945396
  0
LINE
  8
0
  6
CONTINUOUS
 10
283.315186
 20
355.379425
 11
326.314880
 21
355.379425
  0
LINE
  8
0
  6
CONTINUOUS
 10
323.315186
 20
420.379425
 11
323.315186
 21
415.379883
  0
LINE
  8
0
  6
CONTINUOUS
 10
283.315186
 20
420.379425
 11
283.315186
 21
355.379425
  0
LINE
  8
0
  6
CONTINUOUS
 10
325.815186
 20
420.379425
 11
280.815186
 21
420.379425
  0
LINE
  8
0
  6
CONTINUOUS
 10
325.815186
 20
422.379425
 11
325.815186
 21
420.379425
  0
LINE
  8
0
  6
CONTINUOUS
 10
280.815186
 20
422.379425
 11
280.815186
 21
420.379425
  0
LINE
  8
0
  6
CONTINUOUS
 10
283.315186
 20
635.379456
 11
326.314880
 21
635.379456
  0
LINE
  8
0
  6
CONTINUOUS
 10
323.315186
 20
570.379456
 11
323.315186
 21
575.379456
  0
LINE
  8
0
  6
CONTINUOUS
 10
283.315186
 20
570.379456
 11
283.315186
 21
635.379456
  0
LINE
  8
0
  6
CONTINUOUS
 10
325.815186
 20
570.379456
 11
280.815186
 21
570.379456
  0
LINE
  8
0
  6
CONTINUOUS
 10
325.815186
 20
568.379456
 11
325.815186
 21
570.379456
  0
LINE
  8
0
  6
CONTINUOUS
 10
280.815186
 20
568.379456
 11
280.815186
 21
570.379456
  0
LINE
  8
0
  6
CONTINUOUS
 10
283.315186
 20
585.379333
 11
234.446991
 21
585.379395
  0
LINE
  8
0
  6
CONTINUOUS
 10
283.315186
 20
405.379333
 11
234.446594
 21
405.379425
  0
LINE
  8
0
  6
CONTINUOUS
 10
326.314880
 20
635.379456
 11
326.314880
 21
575.379456
  0
LINE
  8
0
  6
CONTINUOUS
 10
322.393890
 20
575.379456
 11
326.314880
 21
575.379456
  0
LINE
  8
0
  6
CONTINUOUS
 10
326.314880
 20
355.379883
 11
326.314880
 21
415.379883
  0
LINE
  8
0
  6
CONTINUOUS
 10
322.393890
 20
415.379883
 11
326.314880
 21
415.379883
  0
LINE
  8
0
  6
CONTINUOUS
 10
255.219635
 20
565.935181
 11
251.314880
 21
561.379639
  0
ARC
  8
0
  6
CONTINUOUS
 10
260.534424
 20
561.379639
 40
7.000000
 50
90.000000
 51
139.398712
  0
LINE
  8
0
  6
CONTINUOUS
 10
351.410126
 20
565.935181
 11
355.314880
 21
561.379639
  0
ARC
  8
0
  6
CONTINUOUS
 10
346.095337
 20
561.379639
 40
7.000000
 50
40.601295
 51
90.000000
  0
LINE
  8
0
  6
CONTINUOUS
 10
351.410126
 20
424.824036
 11
355.314880
 21
429.379578
  0
ARC
  8
0
  6
CONTINUOUS
 10
346.095337
 20
429.379578
 40
7.000000
 50
-90.000000
 51
-40.601295
  0
LINE
  8
0
  6
CONTINUOUS
 10
255.219635
 20
424.824036
 11
251.314880
 21
429.379578
  0
ARC
  8
0
  6
CONTINUOUS
 10
260.534424
 20
429.379578
 40
7.000000
 50
-139.398712
 51
-90.000000
  0
LINE
  8
0
  6
CONTINUOUS
 10
322.393890
 20
415.379883
 11
322.393890
 21
355.379425
  0
LINE
  8
0
  6
CONTINUOUS
 10
322.393890
 20
635.379456
 11
322.393890
 21
575.379456
  0
LINE
  8
0
  6
CENTER
 10
416.516144
 20
495.379425
 11
-27.930273
 21
495.379425
  0
LINE
  8
0
  6
CONTINUOUS
 10
193.315399
 20
566.379456
 11
200.315399
 21
566.379456
  0
LINE
  8
0
  6
CONTINUOUS
 10
191.315399
 20
426.379425
 11
191.315399
 21
564.379456
  0
LINE
  8
0
  6
CONTINUOUS
 10
193.315399
 20
424.379425
 11
200.314987
 21
424.379425
  0
LINE
  8
0
  6
CONTINUOUS
 10
143.815399
 20
548.379456
 11
191.315399
 21
548.379456
  0
LINE
  8
0
  6
CONTINUOUS
 10
143.815399
 20
442.379425
 11
191.315399
 21
442.379425
  0
LINE
  8
0
  6
CONTINUOUS
 10
143.815399
 20
548.379456
 11
143.815399
 21
442.379425
  0
ARC
  8
0
  6
CONTINUOUS
 10
193.315399
 20
564.379456
 40
2.000000
 50
90.000000
 51
180.000000
  0
ARC
  8
0
  6
CONTINUOUS
 10
193.315399
 20
426.379425
 40
2.000000
 50
180.000000
 51
270.000000
  0
ARC
  8
0
  6
CONTINUOUS
 10
190.530472
 20
495.379425
 40
20.000000
 50
141.561295
 51
180.000000
  0
LINE
  8
0
  6
CONTINUOUS
 10
191.315399
 20
528.539429
 11
174.864990
 21
507.812958
  0
ARC
  8
0
  6
CONTINUOUS
 10
190.530472
 20
495.379425
 40
20.000000
 50
-180.000000
 51
-141.561295
  0
LINE
  8
0
  6
CONTINUOUS
 10
191.315399
 20
462.219421
 11
174.864990
 21
482.945892
  0
LINE
  8
0
  6
CONTINUOUS
 10
13.814882
 20
442.379425
 11
13.814882
 21
470.379395
  0
LINE
  8
0
  6
CONTINUOUS
 10
13.814882
 20
548.379456
 11
143.814880
 21
548.379456
  0
LINE
  8
0
  6
CONTINUOUS
 10
13.814882
 20
442.379425
 11
143.814880
 21
442.379425
  0
LINE
  8
0
  6
CONTINUOUS
 10
13.814882
 20
526.879395
 11
133.814880
 21
526.879395
  0
LINE
  8
0
  6
CONTINUOUS
 10
13.814882
 20
463.879425
 11
133.814880
 21
463.879425
  0
LINE
  8
0
  6
CONTINUOUS
 10
133.814880
 20
546.379456
 11
133.814880
 21
526.879395
  0
ARC
  8
0
  6
CONTINUOUS
 10
135.814880
 20
546.379456
 40
2.000000
 50
90.000000
 51
180.000000
  0
ARC
  8
0
  6
CONTINUOUS
 10
135.814880
 20
444.379425
 40
2.000000
 50
180.000000
 51
270.000000
  0
LINE
  8
0
  6
CONTINUOUS
 10
-6.685118
 20
495.379425
 11
-6.685118
 21
540.379456
  0
LINE
  8
0
  6
CONTINUOUS
 10
-6.685118
 20
495.379425
 11
-6.685118
 21
450.379425
  0
LINE
  8
0
  6
CONTINUOUS
 10
-6.185118
 20
544.379456
 11
-6.185118
 21
450.379425
  0
LINE
  8
0
  6
CONTINUOUS
 10
-1.094939
 20
548.379456
 11
13.814882
 21
548.379456
  0
LINE
  8
0
  6
CONTINUOUS
 10
-1.094939
 20
442.379425
 11
13.814882
 21
442.379425
  0
LINE
  8
0
  6
CONTINUOUS
 10
-6.185118
 20
450.379425
 11
-6.185118
 21
446.379425
  0
LINE
  8
0
  6
CONTINUOUS
 10
-5.567076
 20
545.615479
 11
-6.185118
 21
544.379456
  0
ARC
  8
0
  6
CONTINUOUS
 10
-1.094939
 20
543.379456
 40
5.000000
 50
90.000000
 51
153.435196
  0
LINE
  8
0
  6
CONTINUOUS
 10
-5.567076
 20
445.143372
 11
-6.185118
 21
446.379425
  0
ARC
  8
0
  6
CONTINUOUS
 10
-1.094939
 20
447.379425
 40
5.000000
 50
206.565002
 51
270.000000
  0
LINE
  8
0
  6
CONTINUOUS
 10
-6.685118
 20
450.379425
 11
-6.185118
 21
449.879425
  0
LINE
  8
0
  6
CONTINUOUS
 10
-6.685118
 20
540.379456
 11
-6.185118
 21
540.879456
  0
LINE
  8
0
  6
CONTINUOUS
 10
13.814882
 20
526.879456
 11
-4.310118
 21
526.879456
  0
LINE
  8
0
  6
CONTINUOUS
 10
13.814882
 20
463.879425
 11
-4.310118
 21
463.879425
  0
LINE
  8
0
  6
CONTINUOUS
 10
13.814882
 20
520.379395
 11
13.814882
 21
548.379456
  0
LINE
  8
0
  6
CONTINUOUS
 10
3.814882
 20
502.879395
 11
4.814882
 21
502.879395
  0
ARC
  8
0
  6
CONTINUOUS
 10
3.814902
 20
501.879395
 40
1.000000
 50
90.000000
 51
180.000000
  0
LINE
  8
0
  6
CONTINUOUS
 10
-0.685103
 20
499.379395
 11
-0.685103
 21
491.379395
  0
LINE
  8
0
  6
CONTINUOUS
 10
-0.685103
 20
499.379395
 11
2.814897
 21
500.879395
  0
LINE
  8
0
  6
CONTINUOUS
 10
-0.685118
 20
491.379395
 11
2.814882
 21
489.879395
  0
LINE
  8
0
  6
CONTINUOUS
 10
2.814897
 20
501.879395
 11
2.814897
 21
488.879395
  0
LINE
  8
0
  6
CONTINUOUS
 10
3.814882
 20
487.879395
 11
4.814882
 21
487.879395
  0
ARC
  8
0
  6
CONTINUOUS
 10
3.814902
 20
488.879395
 40
1.000000
 50
-180.000000
 51
-90.000000
  0
LINE
  8
0
  6
CONTINUOUS
 10
4.814882
 20
472.379395
 11
4.814882
 21
518.379395
  0
LINE
  8
0
  6
CONTINUOUS
 10
6.814882
 20
520.379395
 11
4.814882
 21
518.379395
  0
LINE
  8
0
  6
CONTINUOUS
 10
6.814882
 20
520.379395
 11
52.814873
 21
520.379395
  0
LINE
  8
0
  6
CONTINUOUS
 10
47.314880
 20
515.879395
 11
47.314880
 21
520.379395
  0
ARC
  8
0
  6
CONTINUOUS
 10
50.314880
 20
515.879395
 40
3.000000
 50
180.000000
 51
270.000000
  0
LINE
  8
0
  6
CONTINUOUS
 10
50.314880
 20
512.879395
 11
54.814873
 21
512.879395
  0
CIRCLE
  8
0
  6
CONTINUOUS
 10
51.314880
 20
516.879395
 40
2.250000
  0
LINE
  8
0
  6
CONTINUOUS
 10
54.814877
 20
472.379395
 11
54.814873
 21
518.379395
  0
LINE
  8
0
  6
CONTINUOUS
 10
52.814873
 20
520.379395
 11
54.814873
 21
518.379395
  0
LINE
  8
0
  6
CONTINUOUS
 10
52.814877
 20
470.379395
 11
54.814877
 21
472.379395
  0
LINE
  8
0
  6
CONTINUOUS
 10
52.814877
 20
470.379395
 11
6.814882
 21
470.379395
  0
LINE
  8
0
  6
CONTINUOUS
 10
4.814882
 20
472.379395
 11
6.814882
 21
470.379395
  0
LINE
  8
0
  6
CONTINUOUS
 10
9.314882
 20
477.879395
 11
4.814892
 21
477.879395
  0
CIRCLE
  8
0
  6
CONTINUOUS
 10
8.314882
 20
473.879395
 40
2.250000
  0
ARC
  8
0
  6
CONTINUOUS
 10
9.314882
 20
474.879395
 40
3.000000
 50
0.000000
 51
90.000000
  0
LINE
  8
0
  6
CONTINUOUS
 10
12.314882
 20
474.879395
 11
12.314882
 21
470.379395
  0
LINE
  8
0
  6
CENTER
 10
29.814882
 20
462.913635
 11
29.814882
 21
527.045654
  0
LINE
  8
0
  6
CONTINUOUS
 10
7.229101
 20
519.379456
 11
5.814888
 21
517.965210
  0
LINE
  8
0
  6
CONTINUOUS
 10
5.814888
 20
477.879425
 11
5.814888
 21
517.965210
  0
LINE
  8
0
  6
CONTINUOUS
 10
47.314880
 20
519.379456
 11
7.229101
 21
519.379456
  0
LINE
  8
0
  6
CONTINUOUS
 10
53.814877
 20
512.879456
 11
53.814877
 21
472.793640
  0
LINE
  8
0
  6
CONTINUOUS
 10
12.314882
 20
471.379425
 11
52.400661
 21
471.379425
  0
LINE
  8
0
  6
CONTINUOUS
 10
52.400661
 20
471.379425
 11
53.814877
 21
472.793640
  0
LINE
  8
0
  6
CONTINUOUS
 10
6.314882
 20
156.695007
 11
52.814880
 21
156.695007
  0
LINE
  8
0
  6
CONTINUOUS
 10
54.814873
 20
186.695007
 11
54.814880
 21
158.695007
  0
LINE
  8
0
  6
CONTINUOUS
 10
4.814882
 20
186.695007
 11
4.814882
 21
158.695007
  0
LINE
  8
0
  6
CONTINUOUS
 10
2.814882
 20
168.695007
 11
54.814880
 21
168.695007
  0
LINE
  8
0
  6
CONTINUOUS
 10
52.814880
 20
156.695007
 11
54.814880
 21
158.695007
  0
LINE
  8
0
  6
CONTINUOUS
 10
4.814882
 20
158.695007
 11
6.814882
 21
156.695007
  0
LINE
  8
0
  6
CONTINUOUS
 10
4.814882
 20
158.695007
 11
54.814880
 21
158.695007
  0
LINE
  8
0
  6
CONTINUOUS
 10
5.814882
 20
187.695007
 11
53.814873
 21
187.695007
  0
LINE
  8
0
  6
CONTINUOUS
 10
53.814873
 20
187.695007
 11
54.814873
 21
186.695007
  0
LINE
  8
0
  6
CONTINUOUS
 10
5.814882
 20
187.695007
 11
4.814882
 21
186.695007
  0
LINE
  8
0
  6
CONTINUOUS
 10
4.814882
 20
186.695007
 11
54.814873
 21
186.695007
  0
LINE
  8
0
  6
CENTER
 10
-3.128874
 20
178.195007
 11
8.946132
 21
178.195007
  0
LINE
  8
0
  6
CONTINUOUS
 10
2.814897
 20
184.695007
 11
2.814882
 21
168.695007
  0
LINE
  8
0
  6
CONTINUOUS
 10
3.814882
 20
185.695007
 11
4.814882
 21
185.695007
  0
ARC
  8
0
  6
CONTINUOUS
 10
3.814902
 20
184.695007
 40
1.000000
 50
90.000000
 51
180.000000
  0
LINE
  8
0
  6
CONTINUOUS
 10
-0.685103
 20
182.195007
 11
-0.685103
 21
174.195007
  0
LINE
  8
0
  6
CONTINUOUS
 10
-0.685103
 20
182.195007
 11
2.814897
 21
183.695007
  0
LINE
  8
0
  6
CONTINUOUS
 10
-0.685118
 20
174.195007
 11
2.814882
 21
172.695007
  0
LINE
  8
0
  6
CENTER
 10
29.814882
 20
148.865631
 11
29.814882
 21
196.453140
  0
LINE
  8
0
  6
CONTINUOUS
 10
6.314882
 20
156.695007
 11
6.314882
 21
155.195007
  0
LINE
  8
0
  6
CONTINUOUS
 10
52.314880
 20
156.695007
 11
52.314880
 21
155.195007
  0
LINE
  8
0
  6
CONTINUOUS
 10
133.814880
 20
463.879425
 11
133.814880
 21
444.379395
  0
TEXT
  8
0
 10
-27.000000
 20
-10.000000
 40
4.000000
 41
1.000000
  1
HLM-40T-1200~1800-T90T
 50
0.000000
  0
ENDSEC
  0
EOF
